  0
SECTION
  2
HEADER
  9
$ACADVER
  1
AC1009
  9
$INSBASE
 10
5269.5433986618563722
 20
-24.2287446823448995
 30
0.0
  9
$EXTMIN
 10
5263.1854712200693029
 20
-24.6811603132327484
 30
0.0
  9
$EXTMAX
 10
5269.9958142927443987
 20
-23.7763290514570613
 30
0.0
  9
$LIMMIN
 10
0.0
 20
0.0
  9
$LIMMAX
 10
11.6929133858000007
 20
8.2677165353999982
  9
$ORTHOMODE
 70
     0
  9
$REGENMODE
 70
     1
  9
$FILLMODE
 70
     1
  9
$QTEXTMODE
 70
     0
  9
$MIRRTEXT
 70
     0
  9
$DRAGMODE
 70
     2
  9
$LTSCALE
 40
0.6431102362
  9
$OSMODE
 70
  4095
  9
$ATTMODE
 70
     1
  9
$TEXTSIZE
 40
0.2
  9
$TRACEWID
 40
0.05
  9
$TEXTSTYLE
  7
STANDARD
  9
$CLAYER
  8
0
  9
$CELTYPE
  6
BYLAYER
  9
$CECOLOR
 62
   256
  9
$DIMSCALE
 40
1.0
  9
$DIMASZ
 40
0.1875
  9
$DIMEXO
 40
0.0625
  9
$DIMDLI
 40
0.4443307087
  9
$DIMRND
 40
0.0
  9
$DIMDLE
 40
0.0
  9
$DIMEXE
 40
0.125
  9
$DIMTP
 40
0.01
  9
$DIMTM
 40
0.01
  9
$DIMTXT
 40
2.0
  9
$DIMCEN
 40
0.1052362205
  9
$DIMTSZ
 40
0.0
  9
$DIMTOL
 70
     1
  9
$DIMLIM
 70
     0
  9
$DIMTIH
 70
     1
  9
$DIMTOH
 70
     1
  9
$DIMSE1
 70
     0
  9
$DIMSE2
 70
     0
  9
$DIMTAD
 70
     0
  9
$DIMZIN
 70
     0
  9
$DIMBLK
  1

  9
$DIMASO
 70
     1
  9
$DIMSHO
 70
     1
  9
$DIMPOST
  1
\X
  9
$DIMAPOST
  1

  9
$DIMALT
 70
     1
  9
$DIMALTD
 70
     2
  9
$DIMALTF
 40
25.3999999999999986
  9
$DIMLFAC
 40
1.0
  9
$DIMTOFL
 70
     0
  9
$DIMTVP
 40
0.0
  9
$DIMTIX
 70
     0
  9
$DIMSOXD
 70
     0
  9
$DIMSAH
 70
     0
  9
$DIMBLK1
  1

  9
$DIMBLK2
  1

  9
$DIMSTYLE
  2
STANDARD
  9
$DIMCLRD
 70
     0
  9
$DIMCLRE
 70
     0
  9
$DIMCLRT
 70
     0
  9
$DIMTFAC
 40
1.0
  9
$DIMGAP
 40
0.09
  9
$LUNITS
 70
     2
  9
$LUPREC
 70
     4
  9
$SKETCHINC
 40
0.1
  9
$FILLETRAD
 40
0.0
  9
$AUNITS
 70
     0
  9
$AUPREC
 70
     0
  9
$MENU
  1
.
  9
$ELEVATION
 40
0.0
  9
$PELEVATION
 40
0.0
  9
$THICKNESS
 40
0.0
  9
$LIMCHECK
 70
     0
  9
$BLIPMODE
 70
     0
  9
$CHAMFERA
 40
0.0
  9
$CHAMFERB
 40
0.0
  9
$SKPOLY
 70
     0
  9
$TDCREATE
 40
2458060.468368056230247
  9
$TDUPDATE
 40
2460160.7566666668280959
  9
$TDINDWG
 40
0.6109445602
  9
$TDUSRTIMER
 40
0.6109445602
  9
$USRTIMER
 70
     1
  9
$ANGBASE
 50
0.0
  9
$ANGDIR
 70
     0
  9
$PDMODE
 70
     0
  9
$PDSIZE
 40
0.3125
  9
$PLINEWID
 40
0.0
  9
$COORDS
 70
     1
  9
$SPLFRAME
 70
     0
  9
$SPLINETYPE
 70
     6
  9
$SPLINESEGS
 70
     8
  9
$ATTDIA
 70
     1
  9
$ATTREQ
 70
     1
  9
$HANDLING
 70
     1
  9
$HANDSEED
  5
2389B
  9
$SURFTAB1
 70
     6
  9
$SURFTAB2
 70
     6
  9
$SURFTYPE
 70
     6
  9
$SURFU
 70
     6
  9
$SURFV
 70
     6
  9
$UCSNAME
  2

  9
$UCSORG
 10
0.0
 20
0.0
 30
0.0
  9
$UCSXDIR
 10
1.0
 20
0.0
 30
0.0
  9
$UCSYDIR
 10
0.0
 20
1.0
 30
0.0
  9
$PUCSNAME
  2

  9
$PUCSORG
 10
0.0
 20
0.0
 30
0.0
  9
$PUCSXDIR
 10
1.0
 20
0.0
 30
0.0
  9
$PUCSYDIR
 10
0.0
 20
1.0
 30
0.0
  9
$USERI1
 70
     0
  9
$USERI2
 70
     0
  9
$USERI3
 70
     0
  9
$USERI4
 70
     0
  9
$USERI5
 70
     0
  9
$USERR1
 40
0.0
  9
$USERR2
 40
0.0
  9
$USERR3
 40
0.0
  9
$USERR4
 40
0.0
  9
$USERR5
 40
0.0
  9
$WORLDVIEW
 70
     1
  9
$SHADEDGE
 70
     3
  9
$SHADEDIF
 70
    70
  9
$TILEMODE
 70
     1
  9
$MAXACTVP
 70
    64
  9
$PLIMCHECK
 70
     0
  9
$PEXTMIN
 10
1.0000000000000000E+20
 20
1.0000000000000000E+20
 30
1.0000000000000000E+20
  9
$PEXTMAX
 10
-1.0000000000000000E+20
 20
-1.0000000000000000E+20
 30
-1.0000000000000000E+20
  9
$PLIMMIN
 10
0.0
 20
0.0
  9
$PLIMMAX
 10
12.0
 20
9.0
  9
$UNITMODE
 70
     0
  9
$VISRETAIN
 70
     1
  9
$PLINEGEN
 70
     0
  9
$PSLTSCALE
 70
     1
  0
ENDSEC
  0
SECTION
  2
TABLES
  0
TABLE
  2
VPORT
 70
     1
  0
VPORT
  2
*ACTIVE
 70
     0
 10
0.0
 20
0.0
 11
1.0
 21
1.0
 12
1474.2327326001559413
 22
-144.4094011154502937
 13
0.0
 23
0.0
 14
1.0
 24
1.0
 15
0.0
 25
0.0
 16
0.0
 26
0.0
 36
5.1040778033513332
 17
3792.35791015625
 27
120.1806564331053977
 37
0.0
 40
2.509226996373231
 41
2.7227011494252871
 42
50.0
 43
0.0
 44
0.0
 50
0.0
 51
0.0
 71
     0
 72
   100
 73
     1
 74
     1
 75
     0
 76
     0
 77
     0
 78
     0
  0
ENDTAB
  0
TABLE
  2
LTYPE
 70
     2
  0
LTYPE
  2
CONTINUOUS
 70
     0
  3
Solid line
 72
    65
 73
     0
 40
0.0
  0
LTYPE
  2
PHANTOM2
 70
     0
  3
___ _ _ ___ _ _ ___ _ _ ___ _ _
 72
    65
 73
     6
 40
1.25
 49
0.625
 49
-0.125
 49
0.125
 49
-0.125
 49
0.125
 49
-0.125
  0
ENDTAB
  0
TABLE
  2
LAYER
 70
     2
  0
LAYER
  2
0
 70
     0
 62
   255
  6
CONTINUOUS
  0
LAYER
  2
DEFPOINTS
 70
     0
 62
     7
  6
CONTINUOUS
  0
ENDTAB
  0
TABLE
  2
STYLE
 70
     1
  0
STYLE
  2
STANDARD
 70
     0
 40
0.0
 41
0.8
 50
0.0
 71
     0
 42
0.2
  3
txt
  4

  0
ENDTAB
  0
TABLE
  2
VIEW
 70
     0
  0
ENDTAB
  0
TABLE
  2
UCS
 70
     0
  0
ENDTAB
  0
TABLE
  2
APPID
 70
     9
  0
APPID
  2
ACAD
 70
     0
  0
APPID
  2
ACAD_MLEADERVER
 70
     0
  0
APPID
  2
ACAD_EXEMPT_FROM_CAD_STANDARDS
 70
     0
  0
APPID
  2
ACAD_NAV_VCDISPLAY
 70
     0
  0
APPID
  2
ACAECLAYERSTANDARD
 70
     0
  0
APPID
  2
ACCMTRANSPARENCY
 70
     0
  0
APPID
  2
ACAD_DSTYLE_DIMJAG
 70
     0
  0
APPID
  2
ACAD_DSTYLE_DIMTALN
 70
     0
  0
APPID
  2
ACDBATTR
 70
     0
  0
ENDTAB
  0
TABLE
  2
DIMSTYLE
 70
     1
  0
DIMSTYLE
  2
STANDARD
 70
     0
  3

  4

  5

  6

  7

 40
1.0
 41
0.1875
 42
0.0625
 43
0.38
 44
0.125
 45
0.0
 46
0.0
 47
0.01
 48
0.01
140
0.15625
141
0.09
142
0.0
143
25.3999999999999986
144
1.0
145
0.0
146
1.0
147
0.09
 71
     1
 72
     0
 73
     1
 74
     1
 75
     0
 76
     0
 77
     0
 78
     4
170
     0
171
     2
172
     0
173
     0
174
     0
175
     0
176
     0
177
     0
178
     0
  0
ENDTAB
  0
ENDSEC
  0
SECTION
  2
BLOCKS
  0
BLOCK
  8
0
  2
$MODEL_SPACE
 70
     0
 10
0.0
 20
0.0
 30
0.0
  3
$MODEL_SPACE
  1

  0
ENDBLK
  5
21
  8
0
  0
BLOCK
 67
     1
  8
0
  2
$PAPER_SPACE
 70
     0
 10
0.0
 20
0.0
 30
0.0
  3
$PAPER_SPACE
  1

  0
ENDBLK
  5
1D
 67
     1
  8
0
  0
BLOCK
  8
0
  2
_FILLED
 70
     0
 10
0.0
 20
0.0
 30
0.0
  3
_FILLED
  1

  0
SOLID
  5
1CA7B
  8
0
  6
BYBLOCK
 62
     0
 10
0.0
 20
0.0
 30
0.0
 11
-1.0
 21
0.1666666667
 31
0.0
 12
-1.0
 22
-0.1666666667
 32
0.0
 13
-1.0
 23
-0.1666666667
 33
0.0
  0
ENDBLK
  5
1CA7C
  8
0
  6
BYBLOCK
 62
     0
  0
ENDSEC
  0
SECTION
  2
ENTITIES
  0
ATTDEF
  5
3930
  8
DEFPOINTS
 10
5269.5334261209764009
 20
-24.2240082531080816
 30
0.0
 40
0.001
  1
K-11628T
  3

  2
MODELNUMBER
 70
     0
1001
ACDBATTR
1070
     0
1070
     1
  0
ATTDEF
  5
3931
  8
DEFPOINTS
 10
5269.5334261209764009
 20
-24.2256749197747503
 30
0.0
 40
0.001
  1
MASTERSHOWER
  3

  2
TRADENAME
 70
     0
1001
ACDBATTR
1070
     0
1070
     1
  0
ATTDEF
  5
3932
  8
DEFPOINTS
 10
5269.5334261209764009
 20
-24.2273415864414083
 30
0.0
 40
0.001
  1
SHOWER HOSE
  3

  2
PRODUCT
 70
     0
1001
ACDBATTR
1070
     0
1070
     1
  0
CIRCLE
  5
22A09
  8
0
 10
5263.6378868509573294
 20
-24.2287446823448995
 30
0.0
 40
0.4524156308878445
  0
CIRCLE
  5
22A0A
  8
0
 10
5263.6378868509573294
 20
-24.2287446823448995
 30
0.0
 40
0.4444156308878445
  0
CIRCLE
  5
22A0B
  8
0
 10
5263.6378868509573294
 20
-24.2287446823448995
 30
0.0
 40
0.374516767217556
  0
CIRCLE
  5
22A0C
  8
0
 10
5263.6378868509573294
 20
-24.2287446823448995
 30
0.0
 40
0.2263779528000001
  0
LINE
  5
22A0D
  8
0
 10
5263.4178868509061431
 20
-24.2165211817448984
 30
0.0
 11
5263.4428868509057793
 21
-24.2165211817448984
 31
0.0
  0
LINE
  5
22A0E
  8
0
 10
5263.4428868509057793
 20
-24.2165211817448984
 30
0.0
 11
5263.4428868509057793
 21
-24.2365211817449016
 31
0.0
  0
LINE
  5
22A0F
  8
0
 10
5263.4428868509057793
 20
-24.2365211817449016
 30
0.0
 11
5263.4178868509061431
 21
-24.2365211817449016
 31
0.0
  0
LINE
  5
22A10
  8
0
 10
5263.4178868509061431
 20
-24.2365211817449016
 30
0.0
 11
5263.4178868509061431
 21
-24.2165211817448984
 31
0.0
  0
LINE
  5
22A11
  8
0
 10
5263.4478868509058884
 20
-24.2165211817448984
 30
0.0
 11
5263.4728868509064341
 21
-24.2165211817448984
 31
0.0
  0
LINE
  5
22A12
  8
0
 10
5263.4728868509064341
 20
-24.2165211817448984
 30
0.0
 11
5263.4728868509064341
 21
-24.2365211817449016
 31
0.0
  0
LINE
  5
22A13
  8
0
 10
5263.4728868509064341
 20
-24.2365211817449016
 30
0.0
 11
5263.4478868509058884
 21
-24.2365211817449016
 31
0.0
  0
LINE
  5
22A14
  8
0
 10
5263.4478868509058884
 20
-24.2365211817449016
 30
0.0
 11
5263.4478868509058884
 21
-24.2165211817448984
 31
0.0
  0
LINE
  5
22A15
  8
0
 10
5263.4778868509056338
 20
-24.2165211817448984
 30
0.0
 11
5263.5028868509061795
 21
-24.2165211817448984
 31
0.0
  0
LINE
  5
22A16
  8
0
 10
5263.5028868509061795
 20
-24.2165211817448984
 30
0.0
 11
5263.5028868509061795
 21
-24.2365211817449016
 31
0.0
  0
LINE
  5
22A17
  8
0
 10
5263.5028868509061795
 20
-24.2365211817449016
 30
0.0
 11
5263.4778868509056338
 21
-24.2365211817449016
 31
0.0
  0
LINE
  5
22A18
  8
0
 10
5263.4778868509056338
 20
-24.2365211817449016
 30
0.0
 11
5263.4778868509056338
 21
-24.2165211817448984
 31
0.0
  0
LINE
  5
22A19
  8
0
 10
5263.5078868509062886
 20
-24.2165211817448984
 30
0.0
 11
5263.5328868509068343
 21
-24.2165211817448984
 31
0.0
  0
LINE
  5
22A1A
  8
0
 10
5263.5328868509068343
 20
-24.2165211817448984
 30
0.0
 11
5263.5328868509068343
 21
-24.2365211817449016
 31
0.0
  0
LINE
  5
22A1B
  8
0
 10
5263.5328868509068343
 20
-24.2365211817449016
 30
0.0
 11
5263.5078868509062886
 21
-24.2365211817449016
 31
0.0
  0
LINE
  5
22A1C
  8
0
 10
5263.5078868509062886
 20
-24.2365211817449016
 30
0.0
 11
5263.5078868509062886
 21
-24.2165211817448984
 31
0.0
  0
LINE
  5
22A1D
  8
0
 10
5263.5378868509060339
 20
-24.2165211817448984
 30
0.0
 11
5263.5628868509047606
 21
-24.2165211817448984
 31
0.0
  0
LINE
  5
22A1E
  8
0
 10
5263.5628868509047606
 20
-24.2165211817448984
 30
0.0
 11
5263.5628868509047606
 21
-24.2365211817449016
 31
0.0
  0
LINE
  5
22A1F
  8
0
 10
5263.5628868509047606
 20
-24.2365211817449016
 30
0.0
 11
5263.5378868509060339
 21
-24.2365211817449016
 31
0.0
  0
LINE
  5
22A20
  8
0
 10
5263.5378868509060339
 20
-24.2365211817449016
 30
0.0
 11
5263.5378868509060339
 21
-24.2165211817448984
 31
0.0
  0
LINE
  5
22A21
  8
0
 10
5263.5678868509057793
 20
-24.2165211817448984
 30
0.0
 11
5263.592886850906325
 21
-24.2165211817448984
 31
0.0
  0
LINE
  5
22A22
  8
0
 10
5263.592886850906325
 20
-24.2165211817448984
 30
0.0
 11
5263.592886850906325
 21
-24.2365211817449016
 31
0.0
  0
LINE
  5
22A23
  8
0
 10
5263.592886850906325
 20
-24.2365211817449016
 30
0.0
 11
5263.5678868509057793
 21
-24.2365211817449016
 31
0.0
  0
LINE
  5
22A24
  8
0
 10
5263.5678868509057793
 20
-24.2365211817449016
 30
0.0
 11
5263.5678868509057793
 21
-24.2165211817448984
 31
0.0
  0
LINE
  5
22A25
  8
0
 10
5263.5978868509064341
 20
-24.2165211817448984
 30
0.0
 11
5263.6228868509069798
 21
-24.2165211817448984
 31
0.0
  0
LINE
  5
22A26
  8
0
 10
5263.6228868509069798
 20
-24.2165211817448984
 30
0.0
 11
5263.6228868509069798
 21
-24.2365211817449016
 31
0.0
  0
LINE
  5
22A27
  8
0
 10
5263.6228868509069798
 20
-24.2365211817449016
 30
0.0
 11
5263.5978868509064341
 21
-24.2365211817449016
 31
0.0
  0
LINE
  5
22A28
  8
0
 10
5263.5978868509064341
 20
-24.2365211817449016
 30
0.0
 11
5263.5978868509064341
 21
-24.2165211817448984
 31
0.0
  0
LINE
  5
22A29
  8
0
 10
5263.6278868509061795
 20
-24.2165211817448984
 30
0.0
 11
5263.6528868509058157
 21
-24.2165211817448984
 31
0.0
  0
LINE
  5
22A2A
  8
0
 10
5263.6528868509058157
 20
-24.2165211817448984
 30
0.0
 11
5263.6528868509058157
 21
-24.2365211817449016
 31
0.0
  0
LINE
  5
22A2B
  8
0
 10
5263.6528868509058157
 20
-24.2365211817449016
 30
0.0
 11
5263.6278868509061795
 21
-24.2365211817449016
 31
0.0
  0
LINE
  5
22A2C
  8
0
 10
5263.6278868509061795
 20
-24.2365211817449016
 30
0.0
 11
5263.6278868509061795
 21
-24.2165211817448984
 31
0.0
  0
LINE
  5
22A2D
  8
0
 10
5263.6578868509059248
 20
-24.2165211817448984
 30
0.0
 11
5263.682886850905561
 21
-24.2165211817448984
 31
0.0
  0
LINE
  5
22A2E
  8
0
 10
5263.682886850905561
 20
-24.2165211817448984
 30
0.0
 11
5263.682886850905561
 21
-24.2365211817449016
 31
0.0
  0
LINE
  5
22A2F
  8
0
 10
5263.682886850905561
 20
-24.2365211817449016
 30
0.0
 11
5263.6578868509059248
 21
-24.2365211817449016
 31
0.0
  0
LINE
  5
22A30
  8
0
 10
5263.6578868509059248
 20
-24.2365211817449016
 30
0.0
 11
5263.6578868509059248
 21
-24.2165211817448984
 31
0.0
  0
LINE
  5
22A31
  8
0
 10
5263.6878868509056701
 20
-24.2165211817448984
 30
0.0
 11
5263.7128868509071253
 21
-24.2165211817448984
 31
0.0
  0
LINE
  5
22A32
  8
0
 10
5263.7128868509071253
 20
-24.2165211817448984
 30
0.0
 11
5263.7128868509071253
 21
-24.2365211817449016
 31
0.0
  0
LINE
  5
22A33
  8
0
 10
5263.7128868509071253
 20
-24.2365211817449016
 30
0.0
 11
5263.6878868509056701
 21
-24.2365211817449016
 31
0.0
  0
LINE
  5
22A34
  8
0
 10
5263.6878868509056701
 20
-24.2365211817449016
 30
0.0
 11
5263.6878868509056701
 21
-24.2165211817448984
 31
0.0
  0
LINE
  5
22A35
  8
0
 10
5263.7178868509072345
 20
-24.2165211817448984
 30
0.0
 11
5263.7428868509059612
 21
-24.2165211817448984
 31
0.0
  0
LINE
  5
22A36
  8
0
 10
5263.7428868509059612
 20
-24.2165211817448984
 30
0.0
 11
5263.7428868509059612
 21
-24.2365211817449016
 31
0.0
  0
LINE
  5
22A37
  8
0
 10
5263.7428868509059612
 20
-24.2365211817449016
 30
0.0
 11
5263.7178868509072345
 21
-24.2365211817449016
 31
0.0
  0
LINE
  5
22A38
  8
0
 10
5263.7178868509072345
 20
-24.2365211817449016
 30
0.0
 11
5263.7178868509072345
 21
-24.2165211817448984
 31
0.0
  0
LINE
  5
22A39
  8
0
 10
5263.7478868509060703
 20
-24.2165211817448984
 30
0.0
 11
5263.772886850904797
 21
-24.2165211817448984
 31
0.0
  0
LINE
  5
22A3A
  8
0
 10
5263.772886850904797
 20
-24.2165211817448984
 30
0.0
 11
5263.772886850904797
 21
-24.2365211817449016
 31
0.0
  0
LINE
  5
22A3B
  8
0
 10
5263.772886850904797
 20
-24.2365211817449016
 30
0.0
 11
5263.7478868509060703
 21
-24.2365211817449016
 31
0.0
  0
LINE
  5
22A3C
  8
0
 10
5263.7478868509060703
 20
-24.2365211817449016
 30
0.0
 11
5263.7478868509060703
 21
-24.2165211817448984
 31
0.0
  0
LINE
  5
22A3D
  8
0
 10
5263.7778868509058157
 20
-24.2165211817448984
 30
0.0
 11
5263.8028868509072709
 21
-24.2165211817448984
 31
0.0
  0
LINE
  5
22A3E
  8
0
 10
5263.8028868509072709
 20
-24.2165211817448984
 30
0.0
 11
5263.8028868509072709
 21
-24.2365211817449016
 31
0.0
  0
LINE
  5
22A3F
  8
0
 10
5263.8028868509072709
 20
-24.2365211817449016
 30
0.0
 11
5263.7778868509058157
 21
-24.2365211817449016
 31
0.0
  0
LINE
  5
22A40
  8
0
 10
5263.7778868509058157
 20
-24.2365211817449016
 30
0.0
 11
5263.7778868509058157
 21
-24.2165211817448984
 31
0.0
  0
LINE
  5
22A41
  8
0
 10
5263.80788685090738
 20
-24.2165211817448984
 30
0.0
 11
5263.8328868509061067
 21
-24.2165211817448984
 31
0.0
  0
LINE
  5
22A42
  8
0
 10
5263.8328868509061067
 20
-24.2165211817448984
 30
0.0
 11
5263.8328868509061067
 21
-24.2365211817449016
 31
0.0
  0
LINE
  5
22A43
  8
0
 10
5263.8328868509061067
 20
-24.2365211817449016
 30
0.0
 11
5263.80788685090738
 21
-24.2365211817449016
 31
0.0
  0
LINE
  5
22A44
  8
0
 10
5263.80788685090738
 20
-24.2365211817449016
 30
0.0
 11
5263.80788685090738
 21
-24.2165211817448984
 31
0.0
  0
LINE
  5
22A45
  8
0
 10
5263.8378868509071253
 20
-24.2165211817448984
 30
0.0
 11
5263.862886850905852
 21
-24.2165211817448984
 31
0.0
  0
LINE
  5
22A46
  8
0
 10
5263.862886850905852
 20
-24.2165211817448984
 30
0.0
 11
5263.862886850905852
 21
-24.2365211817449016
 31
0.0
  0
LINE
  5
22A47
  8
0
 10
5263.862886850905852
 20
-24.2365211817449016
 30
0.0
 11
5263.8378868509071253
 21
-24.2365211817449016
 31
0.0
  0
LINE
  5
22A48
  8
0
 10
5263.8378868509071253
 20
-24.2365211817449016
 30
0.0
 11
5263.8378868509071253
 21
-24.2165211817448984
 31
0.0
  0
LINE
  5
22A49
  8
0
 10
5263.4118391490283102
 20
-24.2165211817448984
 30
0.0
 11
5263.4128868509060339
 21
-24.2165211817448984
 31
0.0
  0
LINE
  5
22A4A
  8
0
 10
5263.4128868509060339
 20
-24.2165211817448984
 30
0.0
 11
5263.4128868509060339
 21
-24.2365211817449016
 31
0.0
  0
LINE
  5
22A4B
  8
0
 10
5263.4128868509060339
 20
-24.2365211817449016
 30
0.0
 11
5263.4116425000693198
 21
-24.23652100574499
 31
0.0
  0
LINE
  5
22A4C
  8
0
 10
5263.4178868509061431
 20
-24.1915211817449105
 30
0.0
 11
5263.4428868509057793
 21
-24.1915211817449105
 31
0.0
  0
LINE
  5
22A4D
  8
0
 10
5263.4428868509057793
 20
-24.1915211817449105
 30
0.0
 11
5263.4428868509057793
 21
-24.2115211817448994
 31
0.0
  0
LINE
  5
22A4E
  8
0
 10
5263.4428868509057793
 20
-24.2115211817448994
 30
0.0
 11
5263.4178868509061431
 21
-24.2115211817448994
 31
0.0
  0
LINE
  5
22A4F
  8
0
 10
5263.4178868509061431
 20
-24.2115211817448994
 30
0.0
 11
5263.4178868509061431
 21
-24.1915211817449105
 31
0.0
  0
LINE
  5
22A50
  8
0
 10
5263.4478868509058884
 20
-24.1915211817449105
 30
0.0
 11
5263.4728868509064341
 21
-24.1915211817449105
 31
0.0
  0
LINE
  5
22A51
  8
0
 10
5263.4728868509064341
 20
-24.1915211817449105
 30
0.0
 11
5263.4728868509064341
 21
-24.2115211817448994
 31
0.0
  0
LINE
  5
22A52
  8
0
 10
5263.4728868509064341
 20
-24.2115211817448994
 30
0.0
 11
5263.4478868509058884
 21
-24.2115211817448994
 31
0.0
  0
LINE
  5
22A53
  8
0
 10
5263.4478868509058884
 20
-24.2115211817448994
 30
0.0
 11
5263.4478868509058884
 21
-24.1915211817449105
 31
0.0
  0
LINE
  5
22A54
  8
0
 10
5263.4778868509056338
 20
-24.1915211817449105
 30
0.0
 11
5263.5028868509061795
 21
-24.1915211817449105
 31
0.0
  0
LINE
  5
22A55
  8
0
 10
5263.5028868509061795
 20
-24.1915211817449105
 30
0.0
 11
5263.5028868509061795
 21
-24.2115211817448994
 31
0.0
  0
LINE
  5
22A56
  8
0
 10
5263.5028868509061795
 20
-24.2115211817448994
 30
0.0
 11
5263.4778868509056338
 21
-24.2115211817448994
 31
0.0
  0
LINE
  5
22A57
  8
0
 10
5263.4778868509056338
 20
-24.2115211817448994
 30
0.0
 11
5263.4778868509056338
 21
-24.1915211817449105
 31
0.0
  0
LINE
  5
22A58
  8
0
 10
5263.5078868509062886
 20
-24.1915211817449105
 30
0.0
 11
5263.5328868509068343
 21
-24.1915211817449105
 31
0.0
  0
LINE
  5
22A59
  8
0
 10
5263.5328868509068343
 20
-24.1915211817449105
 30
0.0
 11
5263.5328868509068343
 21
-24.2115211817448994
 31
0.0
  0
LINE
  5
22A5A
  8
0
 10
5263.5328868509068343
 20
-24.2115211817448994
 30
0.0
 11
5263.5078868509062886
 21
-24.2115211817448994
 31
0.0
  0
LINE
  5
22A5B
  8
0
 10
5263.5078868509062886
 20
-24.2115211817448994
 30
0.0
 11
5263.5078868509062886
 21
-24.1915211817449105
 31
0.0
  0
LINE
  5
22A5C
  8
0
 10
5263.5378868509060339
 20
-24.1915211817449105
 30
0.0
 11
5263.5628868509047606
 21
-24.1915211817449105
 31
0.0
  0
LINE
  5
22A5D
  8
0
 10
5263.5628868509047606
 20
-24.1915211817449105
 30
0.0
 11
5263.5628868509047606
 21
-24.2115211817448994
 31
0.0
  0
LINE
  5
22A5E
  8
0
 10
5263.5628868509047606
 20
-24.2115211817448994
 30
0.0
 11
5263.5378868509060339
 21
-24.2115211817448994
 31
0.0
  0
LINE
  5
22A5F
  8
0
 10
5263.5378868509060339
 20
-24.2115211817448994
 30
0.0
 11
5263.5378868509060339
 21
-24.1915211817449105
 31
0.0
  0
LINE
  5
22A60
  8
0
 10
5263.5678868509057793
 20
-24.1915211817449105
 30
0.0
 11
5263.592886850906325
 21
-24.1915211817449105
 31
0.0
  0
LINE
  5
22A61
  8
0
 10
5263.592886850906325
 20
-24.1915211817449105
 30
0.0
 11
5263.592886850906325
 21
-24.2115211817448994
 31
0.0
  0
LINE
  5
22A62
  8
0
 10
5263.592886850906325
 20
-24.2115211817448994
 30
0.0
 11
5263.5678868509057793
 21
-24.2115211817448994
 31
0.0
  0
LINE
  5
22A63
  8
0
 10
5263.5678868509057793
 20
-24.2115211817448994
 30
0.0
 11
5263.5678868509057793
 21
-24.1915211817449105
 31
0.0
  0
LINE
  5
22A64
  8
0
 10
5263.5978868509064341
 20
-24.1915211817449105
 30
0.0
 11
5263.6228868509069798
 21
-24.1915211817449105
 31
0.0
  0
LINE
  5
22A65
  8
0
 10
5263.6228868509069798
 20
-24.1915211817449105
 30
0.0
 11
5263.6228868509069798
 21
-24.2115211817448994
 31
0.0
  0
LINE
  5
22A66
  8
0
 10
5263.6228868509069798
 20
-24.2115211817448994
 30
0.0
 11
5263.5978868509064341
 21
-24.2115211817448994
 31
0.0
  0
LINE
  5
22A67
  8
0
 10
5263.5978868509064341
 20
-24.2115211817448994
 30
0.0
 11
5263.5978868509064341
 21
-24.1915211817449105
 31
0.0
  0
LINE
  5
22A68
  8
0
 10
5263.6278868509061795
 20
-24.1915211817449105
 30
0.0
 11
5263.6528868509058157
 21
-24.1915211817449105
 31
0.0
  0
LINE
  5
22A69
  8
0
 10
5263.6528868509058157
 20
-24.1915211817449105
 30
0.0
 11
5263.6528868509058157
 21
-24.2115211817448994
 31
0.0
  0
LINE
  5
22A6A
  8
0
 10
5263.6528868509058157
 20
-24.2115211817448994
 30
0.0
 11
5263.6278868509061795
 21
-24.2115211817448994
 31
0.0
  0
LINE
  5
22A6B
  8
0
 10
5263.6278868509061795
 20
-24.2115211817448994
 30
0.0
 11
5263.6278868509061795
 21
-24.1915211817449105
 31
0.0
  0
LINE
  5
22A6C
  8
0
 10
5263.6578868509059248
 20
-24.1915211817449105
 30
0.0
 11
5263.682886850905561
 21
-24.1915211817449105
 31
0.0
  0
LINE
  5
22A6D
  8
0
 10
5263.682886850905561
 20
-24.1915211817449105
 30
0.0
 11
5263.682886850905561
 21
-24.2115211817448994
 31
0.0
  0
LINE
  5
22A6E
  8
0
 10
5263.682886850905561
 20
-24.2115211817448994
 30
0.0
 11
5263.6578868509059248
 21
-24.2115211817448994
 31
0.0
  0
LINE
  5
22A6F
  8
0
 10
5263.6578868509059248
 20
-24.2115211817448994
 30
0.0
 11
5263.6578868509059248
 21
-24.1915211817449105
 31
0.0
  0
LINE
  5
22A70
  8
0
 10
5263.6878868509056701
 20
-24.1915211817449105
 30
0.0
 11
5263.7128868509071253
 21
-24.1915211817449105
 31
0.0
  0
LINE
  5
22A71
  8
0
 10
5263.7128868509071253
 20
-24.1915211817449105
 30
0.0
 11
5263.7128868509071253
 21
-24.2115211817448994
 31
0.0
  0
LINE
  5
22A72
  8
0
 10
5263.7128868509071253
 20
-24.2115211817448994
 30
0.0
 11
5263.6878868509056701
 21
-24.2115211817448994
 31
0.0
  0
LINE
  5
22A73
  8
0
 10
5263.6878868509056701
 20
-24.2115211817448994
 30
0.0
 11
5263.6878868509056701
 21
-24.1915211817449105
 31
0.0
  0
LINE
  5
22A74
  8
0
 10
5263.7178868509072345
 20
-24.1915211817449105
 30
0.0
 11
5263.7428868509059612
 21
-24.1915211817449105
 31
0.0
  0
LINE
  5
22A75
  8
0
 10
5263.7428868509059612
 20
-24.1915211817449105
 30
0.0
 11
5263.7428868509059612
 21
-24.2115211817448994
 31
0.0
  0
LINE
  5
22A76
  8
0
 10
5263.7428868509059612
 20
-24.2115211817448994
 30
0.0
 11
5263.7178868509072345
 21
-24.2115211817448994
 31
0.0
  0
LINE
  5
22A77
  8
0
 10
5263.7178868509072345
 20
-24.2115211817448994
 30
0.0
 11
5263.7178868509072345
 21
-24.1915211817449105
 31
0.0
  0
LINE
  5
22A78
  8
0
 10
5263.7478868509060703
 20
-24.1915211817449105
 30
0.0
 11
5263.772886850904797
 21
-24.1915211817449105
 31
0.0
  0
LINE
  5
22A79
  8
0
 10
5263.772886850904797
 20
-24.1915211817449105
 30
0.0
 11
5263.772886850904797
 21
-24.2115211817448994
 31
0.0
  0
LINE
  5
22A7A
  8
0
 10
5263.772886850904797
 20
-24.2115211817448994
 30
0.0
 11
5263.7478868509060703
 21
-24.2115211817448994
 31
0.0
  0
LINE
  5
22A7B
  8
0
 10
5263.7478868509060703
 20
-24.2115211817448994
 30
0.0
 11
5263.7478868509060703
 21
-24.1915211817449105
 31
0.0
  0
LINE
  5
22A7C
  8
0
 10
5263.7778868509058157
 20
-24.1915211817449105
 30
0.0
 11
5263.8028868509072709
 21
-24.1915211817449105
 31
0.0
  0
LINE
  5
22A7D
  8
0
 10
5263.8028868509072709
 20
-24.1915211817449105
 30
0.0
 11
5263.8028868509072709
 21
-24.2115211817448994
 31
0.0
  0
LINE
  5
22A7E
  8
0
 10
5263.8028868509072709
 20
-24.2115211817448994
 30
0.0
 11
5263.7778868509058157
 21
-24.2115211817448994
 31
0.0
  0
LINE
  5
22A7F
  8
0
 10
5263.7778868509058157
 20
-24.2115211817448994
 30
0.0
 11
5263.7778868509058157
 21
-24.1915211817449105
 31
0.0
  0
LINE
  5
22A80
  8
0
 10
5263.80788685090738
 20
-24.1915211817449105
 30
0.0
 11
5263.8328868509061067
 21
-24.1915211817449105
 31
0.0
  0
LINE
  5
22A81
  8
0
 10
5263.8328868509061067
 20
-24.1915211817449105
 30
0.0
 11
5263.8328868509061067
 21
-24.2115211817448994
 31
0.0
  0
LINE
  5
22A82
  8
0
 10
5263.8328868509061067
 20
-24.2115211817448994
 30
0.0
 11
5263.80788685090738
 21
-24.2115211817448994
 31
0.0
  0
LINE
  5
22A83
  8
0
 10
5263.80788685090738
 20
-24.2115211817448994
 30
0.0
 11
5263.80788685090738
 21
-24.1915211817449105
 31
0.0
  0
LINE
  5
22A84
  8
0
 10
5263.8378868509071253
 20
-24.1915211817449105
 30
0.0
 11
5263.8611834888988597
 21
-24.1915211817449105
 31
0.0
  0
LINE
  5
22A85
  8
0
 10
5263.862886850905852
 20
-24.2038052048760584
 30
0.0
 11
5263.862886850905852
 21
-24.2115211817448994
 31
0.0
  0
LINE
  5
22A86
  8
0
 10
5263.862886850905852
 20
-24.2115211817448994
 30
0.0
 11
5263.8378868509071253
 21
-24.2115211817448994
 31
0.0
  0
LINE
  5
22A87
  8
0
 10
5263.8378868509071253
 20
-24.2115211817448994
 30
0.0
 11
5263.8378868509071253
 21
-24.1915211817449105
 31
0.0
  0
LINE
  5
22A88
  8
0
 10
5263.4128868509060339
 20
-24.2038052057782309
 30
0.0
 11
5263.4128868509060339
 21
-24.2115211817448994
 31
0.0
  0
LINE
  5
22A89
  8
0
 10
5263.4128868509060339
 20
-24.2115211817448994
 30
0.0
 11
5263.4121650641809538
 21
-24.2115210796560199
 31
0.0
  0
LINE
  5
22A8A
  8
0
 10
5263.4202283719414481
 20
-24.1665211817449084
 30
0.0
 11
5263.4428868509057793
 21
-24.1665211817449084
 31
0.0
  0
LINE
  5
22A8B
  8
0
 10
5263.4428868509057793
 20
-24.1665211817449084
 30
0.0
 11
5263.4428868509057793
 21
-24.1865211817449008
 31
0.0
  0
LINE
  5
22A8C
  8
0
 10
5263.4428868509057793
 20
-24.1865211817449008
 30
0.0
 11
5263.4178868509061431
 21
-24.1865211817449008
 31
0.0
  0
LINE
  5
22A8D
  8
0
 10
5263.4178868509061431
 20
-24.1865211817449008
 30
0.0
 11
5263.4178868509061431
 21
-24.175387606976031
 31
0.0
  0
LINE
  5
22A8E
  8
0
 10
5263.4478868509058884
 20
-24.1665211817449084
 30
0.0
 11
5263.4728868509064341
 21
-24.1665211817449084
 31
0.0
  0
LINE
  5
22A8F
  8
0
 10
5263.4728868509064341
 20
-24.1665211817449084
 30
0.0
 11
5263.4728868509064341
 21
-24.1865211817449008
 31
0.0
  0
LINE
  5
22A90
  8
0
 10
5263.4728868509064341
 20
-24.1865211817449008
 30
0.0
 11
5263.4478868509058884
 21
-24.1865211817449008
 31
0.0
  0
LINE
  5
22A91
  8
0
 10
5263.4478868509058884
 20
-24.1865211817449008
 30
0.0
 11
5263.4478868509058884
 21
-24.1665211817449084
 31
0.0
  0
LINE
  5
22A92
  8
0
 10
5263.4778868509056338
 20
-24.1665211817449084
 30
0.0
 11
5263.5028868509061795
 21
-24.1665211817449084
 31
0.0
  0
LINE
  5
22A93
  8
0
 10
5263.5028868509061795
 20
-24.1665211817449084
 30
0.0
 11
5263.5028868509061795
 21
-24.1865211817449008
 31
0.0
  0
LINE
  5
22A94
  8
0
 10
5263.5028868509061795
 20
-24.1865211817449008
 30
0.0
 11
5263.4778868509056338
 21
-24.1865211817449008
 31
0.0
  0
LINE
  5
22A95
  8
0
 10
5263.4778868509056338
 20
-24.1865211817449008
 30
0.0
 11
5263.4778868509056338
 21
-24.1665211817449084
 31
0.0
  0
LINE
  5
22A96
  8
0
 10
5263.5078868509062886
 20
-24.1665211817449084
 30
0.0
 11
5263.5328868509068343
 21
-24.1665211817449084
 31
0.0
  0
LINE
  5
22A97
  8
0
 10
5263.5328868509068343
 20
-24.1665211817449084
 30
0.0
 11
5263.5328868509068343
 21
-24.1865211817449008
 31
0.0
  0
LINE
  5
22A98
  8
0
 10
5263.5328868509068343
 20
-24.1865211817449008
 30
0.0
 11
5263.5078868509062886
 21
-24.1865211817449008
 31
0.0
  0
LINE
  5
22A99
  8
0
 10
5263.5078868509062886
 20
-24.1865211817449008
 30
0.0
 11
5263.5078868509062886
 21
-24.1665211817449084
 31
0.0
  0
LINE
  5
22A9A
  8
0
 10
5263.5378868509060339
 20
-24.1665211817449084
 30
0.0
 11
5263.5628868509047606
 21
-24.1665211817449084
 31
0.0
  0
LINE
  5
22A9B
  8
0
 10
5263.5628868509047606
 20
-24.1665211817449084
 30
0.0
 11
5263.5628868509047606
 21
-24.1865211817449008
 31
0.0
  0
LINE
  5
22A9C
  8
0
 10
5263.5628868509047606
 20
-24.1865211817449008
 30
0.0
 11
5263.5378868509060339
 21
-24.1865211817449008
 31
0.0
  0
LINE
  5
22A9D
  8
0
 10
5263.5378868509060339
 20
-24.1865211817449008
 30
0.0
 11
5263.5378868509060339
 21
-24.1665211817449084
 31
0.0
  0
LINE
  5
22A9E
  8
0
 10
5263.5678868509057793
 20
-24.1665211817449084
 30
0.0
 11
5263.592886850906325
 21
-24.1665211817449084
 31
0.0
  0
LINE
  5
22A9F
  8
0
 10
5263.592886850906325
 20
-24.1665211817449084
 30
0.0
 11
5263.592886850906325
 21
-24.1865211817449008
 31
0.0
  0
LINE
  5
22AA0
  8
0
 10
5263.592886850906325
 20
-24.1865211817449008
 30
0.0
 11
5263.5678868509057793
 21
-24.1865211817449008
 31
0.0
  0
LINE
  5
22AA1
  8
0
 10
5263.5678868509057793
 20
-24.1865211817449008
 30
0.0
 11
5263.5678868509057793
 21
-24.1665211817449084
 31
0.0
  0
LINE
  5
22AA2
  8
0
 10
5263.5978868509064341
 20
-24.1665211817449084
 30
0.0
 11
5263.6228868509069798
 21
-24.1665211817449084
 31
0.0
  0
LINE
  5
22AA3
  8
0
 10
5263.6228868509069798
 20
-24.1665211817449084
 30
0.0
 11
5263.6228868509069798
 21
-24.1865211817449008
 31
0.0
  0
LINE
  5
22AA4
  8
0
 10
5263.6228868509069798
 20
-24.1865211817449008
 30
0.0
 11
5263.5978868509064341
 21
-24.1865211817449008
 31
0.0
  0
LINE
  5
22AA5
  8
0
 10
5263.5978868509064341
 20
-24.1865211817449008
 30
0.0
 11
5263.5978868509064341
 21
-24.1665211817449084
 31
0.0
  0
LINE
  5
22AA6
  8
0
 10
5263.6278868509061795
 20
-24.1665211817449084
 30
0.0
 11
5263.6528868509058157
 21
-24.1665211817449084
 31
0.0
  0
LINE
  5
22AA7
  8
0
 10
5263.6528868509058157
 20
-24.1665211817449084
 30
0.0
 11
5263.6528868509058157
 21
-24.1865211817449008
 31
0.0
  0
LINE
  5
22AA8
  8
0
 10
5263.6528868509058157
 20
-24.1865211817449008
 30
0.0
 11
5263.6278868509061795
 21
-24.1865211817449008
 31
0.0
  0
LINE
  5
22AA9
  8
0
 10
5263.6278868509061795
 20
-24.1865211817449008
 30
0.0
 11
5263.6278868509061795
 21
-24.1665211817449084
 31
0.0
  0
LINE
  5
22AAA
  8
0
 10
5263.6578868509059248
 20
-24.1665211817449084
 30
0.0
 11
5263.682886850905561
 21
-24.1665211817449084
 31
0.0
  0
LINE
  5
22AAB
  8
0
 10
5263.682886850905561
 20
-24.1665211817449084
 30
0.0
 11
5263.682886850905561
 21
-24.1865211817449008
 31
0.0
  0
LINE
  5
22AAC
  8
0
 10
5263.682886850905561
 20
-24.1865211817449008
 30
0.0
 11
5263.6578868509059248
 21
-24.1865211817449008
 31
0.0
  0
LINE
  5
22AAD
  8
0
 10
5263.6578868509059248
 20
-24.1865211817449008
 30
0.0
 11
5263.6578868509059248
 21
-24.1665211817449084
 31
0.0
  0
LINE
  5
22AAE
  8
0
 10
5263.6878868509056701
 20
-24.1665211817449084
 30
0.0
 11
5263.7128868509071253
 21
-24.1665211817449084
 31
0.0
  0
LINE
  5
22AAF
  8
0
 10
5263.7128868509071253
 20
-24.1665211817449084
 30
0.0
 11
5263.7128868509071253
 21
-24.1865211817449008
 31
0.0
  0
LINE
  5
22AB0
  8
0
 10
5263.7128868509071253
 20
-24.1865211817449008
 30
0.0
 11
5263.6878868509056701
 21
-24.1865211817449008
 31
0.0
  0
LINE
  5
22AB1
  8
0
 10
5263.6878868509056701
 20
-24.1865211817449008
 30
0.0
 11
5263.6878868509056701
 21
-24.1665211817449084
 31
0.0
  0
LINE
  5
22AB2
  8
0
 10
5263.7178868509072345
 20
-24.1665211817449084
 30
0.0
 11
5263.7428868509059612
 21
-24.1665211817449084
 31
0.0
  0
LINE
  5
22AB3
  8
0
 10
5263.7428868509059612
 20
-24.1665211817449084
 30
0.0
 11
5263.7428868509059612
 21
-24.1865211817449008
 31
0.0
  0
LINE
  5
22AB4
  8
0
 10
5263.7428868509059612
 20
-24.1865211817449008
 30
0.0
 11
5263.7178868509072345
 21
-24.1865211817449008
 31
0.0
  0
LINE
  5
22AB5
  8
0
 10
5263.7178868509072345
 20
-24.1865211817449008
 30
0.0
 11
5263.7178868509072345
 21
-24.1665211817449084
 31
0.0
  0
LINE
  5
22AB6
  8
0
 10
5263.7478868509060703
 20
-24.1665211817449084
 30
0.0
 11
5263.772886850904797
 21
-24.1665211817449084
 31
0.0
  0
LINE
  5
22AB7
  8
0
 10
5263.772886850904797
 20
-24.1665211817449084
 30
0.0
 11
5263.772886850904797
 21
-24.1865211817449008
 31
0.0
  0
LINE
  5
22AB8
  8
0
 10
5263.772886850904797
 20
-24.1865211817449008
 30
0.0
 11
5263.7478868509060703
 21
-24.1865211817449008
 31
0.0
  0
LINE
  5
22AB9
  8
0
 10
5263.7478868509060703
 20
-24.1865211817449008
 30
0.0
 11
5263.7478868509060703
 21
-24.1665211817449084
 31
0.0
  0
LINE
  5
22ABA
  8
0
 10
5263.7778868509058157
 20
-24.1665211817449084
 30
0.0
 11
5263.8028868509072709
 21
-24.1665211817449084
 31
0.0
  0
LINE
  5
22ABB
  8
0
 10
5263.8028868509072709
 20
-24.1665211817449084
 30
0.0
 11
5263.8028868509072709
 21
-24.1865211817449008
 31
0.0
  0
LINE
  5
22ABC
  8
0
 10
5263.8028868509072709
 20
-24.1865211817449008
 30
0.0
 11
5263.7778868509058157
 21
-24.1865211817449008
 31
0.0
  0
LINE
  5
22ABD
  8
0
 10
5263.7778868509058157
 20
-24.1865211817449008
 30
0.0
 11
5263.7778868509058157
 21
-24.1665211817449084
 31
0.0
  0
LINE
  5
22ABE
  8
0
 10
5263.80788685090738
 20
-24.1665211817449084
 30
0.0
 11
5263.8328868509061067
 21
-24.1665211817449084
 31
0.0
  0
LINE
  5
22ABF
  8
0
 10
5263.8328868509061067
 20
-24.1665211817449084
 30
0.0
 11
5263.8328868509061067
 21
-24.1865211817449008
 31
0.0
  0
LINE
  5
22AC0
  8
0
 10
5263.8328868509061067
 20
-24.1865211817449008
 30
0.0
 11
5263.80788685090738
 21
-24.1865211817449008
 31
0.0
  0
LINE
  5
22AC1
  8
0
 10
5263.80788685090738
 20
-24.1865211817449008
 30
0.0
 11
5263.80788685090738
 21
-24.1665211817449084
 31
0.0
  0
LINE
  5
22AC2
  8
0
 10
5263.8378868509071253
 20
-24.1665211817449084
 30
0.0
 11
5263.8555453299695728
 21
-24.1665211817449084
 31
0.0
  0
LINE
  5
22AC3
  8
0
 10
5263.8602922319860227
 20
-24.1865211817449008
 30
0.0
 11
5263.8378868509071253
 21
-24.1865211817449008
 31
0.0
  0
LINE
  5
22AC4
  8
0
 10
5263.8378868509071253
 20
-24.1865211817449008
 30
0.0
 11
5263.8378868509071253
 21
-24.1665211817449084
 31
0.0
  0
LINE
  5
22AC5
  8
0
 10
5263.4289872615418062
 20
-24.1415211817448991
 30
0.0
 11
5263.4428868509057793
 21
-24.1415211817448991
 31
0.0
  0
LINE
  5
22AC6
  8
0
 10
5263.4428868509057793
 20
-24.1415211817448991
 30
0.0
 11
5263.4428868509057793
 21
-24.1615211817448987
 31
0.0
  0
LINE
  5
22AC7
  8
0
 10
5263.4428868509057793
 20
-24.1615211817448987
 30
0.0
 11
5263.4217202983136303
 21
-24.1615211817448987
 31
0.0
  0
LINE
  5
22AC8
  8
0
 10
5263.4478868509058884
 20
-24.1415211817448991
 30
0.0
 11
5263.4728868509064341
 21
-24.1415211817448991
 31
0.0
  0
LINE
  5
22AC9
  8
0
 10
5263.4728868509064341
 20
-24.1415211817448991
 30
0.0
 11
5263.4728868509064341
 21
-24.1615211817448987
 31
0.0
  0
LINE
  5
22ACA
  8
0
 10
5263.4728868509064341
 20
-24.1615211817448987
 30
0.0
 11
5263.4478868509058884
 21
-24.1615211817448987
 31
0.0
  0
LINE
  5
22ACB
  8
0
 10
5263.4478868509058884
 20
-24.1615211817448987
 30
0.0
 11
5263.4478868509058884
 21
-24.1415211817449098
 31
0.0
  0
LINE
  5
22ACC
  8
0
 10
5263.4778868509056338
 20
-24.1415211817448991
 30
0.0
 11
5263.5028868509061795
 21
-24.1415211817448991
 31
0.0
  0
LINE
  5
22ACD
  8
0
 10
5263.5028868509061795
 20
-24.1415211817448991
 30
0.0
 11
5263.5028868509061795
 21
-24.1615211817448987
 31
0.0
  0
LINE
  5
22ACE
  8
0
 10
5263.5028868509061795
 20
-24.1615211817448987
 30
0.0
 11
5263.4778868509056338
 21
-24.1615211817448987
 31
0.0
  0
LINE
  5
22ACF
  8
0
 10
5263.4778868509056338
 20
-24.1615211817448987
 30
0.0
 11
5263.4778868509056338
 21
-24.1415211817449098
 31
0.0
  0
LINE
  5
22AD0
  8
0
 10
5263.5078868509062886
 20
-24.1415211817448991
 30
0.0
 11
5263.5328868509068343
 21
-24.1415211817448991
 31
0.0
  0
LINE
  5
22AD1
  8
0
 10
5263.5328868509068343
 20
-24.1415211817448991
 30
0.0
 11
5263.5328868509068343
 21
-24.1615211817448987
 31
0.0
  0
LINE
  5
22AD2
  8
0
 10
5263.5328868509068343
 20
-24.1615211817448987
 30
0.0
 11
5263.5078868509062886
 21
-24.1615211817448987
 31
0.0
  0
LINE
  5
22AD3
  8
0
 10
5263.5078868509062886
 20
-24.1615211817448987
 30
0.0
 11
5263.5078868509062886
 21
-24.1415211817449098
 31
0.0
  0
LINE
  5
22AD4
  8
0
 10
5263.5378868509060339
 20
-24.1415211817448991
 30
0.0
 11
5263.5628868509047606
 21
-24.1415211817448991
 31
0.0
  0
LINE
  5
22AD5
  8
0
 10
5263.5628868509047606
 20
-24.1415211817448991
 30
0.0
 11
5263.5628868509047606
 21
-24.1615211817448987
 31
0.0
  0
LINE
  5
22AD6
  8
0
 10
5263.5628868509047606
 20
-24.1615211817448987
 30
0.0
 11
5263.5378868509060339
 21
-24.1615211817448987
 31
0.0
  0
LINE
  5
22AD7
  8
0
 10
5263.5378868509060339
 20
-24.1615211817448987
 30
0.0
 11
5263.5378868509060339
 21
-24.1415211817449098
 31
0.0
  0
LINE
  5
22AD8
  8
0
 10
5263.5678868509057793
 20
-24.1415211817448991
 30
0.0
 11
5263.592886850906325
 21
-24.1415211817448991
 31
0.0
  0
LINE
  5
22AD9
  8
0
 10
5263.592886850906325
 20
-24.1415211817448991
 30
0.0
 11
5263.592886850906325
 21
-24.1615211817448987
 31
0.0
  0
LINE
  5
22ADA
  8
0
 10
5263.592886850906325
 20
-24.1615211817448987
 30
0.0
 11
5263.5678868509057793
 21
-24.1615211817448987
 31
0.0
  0
LINE
  5
22ADB
  8
0
 10
5263.5678868509057793
 20
-24.1615211817448987
 30
0.0
 11
5263.5678868509057793
 21
-24.1415211817449098
 31
0.0
  0
LINE
  5
22ADC
  8
0
 10
5263.5978868509064341
 20
-24.1415211817448991
 30
0.0
 11
5263.6228868509069798
 21
-24.1415211817448991
 31
0.0
  0
LINE
  5
22ADD
  8
0
 10
5263.6228868509069798
 20
-24.1415211817448991
 30
0.0
 11
5263.6228868509069798
 21
-24.1615211817448987
 31
0.0
  0
LINE
  5
22ADE
  8
0
 10
5263.6228868509069798
 20
-24.1615211817448987
 30
0.0
 11
5263.5978868509064341
 21
-24.1615211817448987
 31
0.0
  0
LINE
  5
22ADF
  8
0
 10
5263.5978868509064341
 20
-24.1615211817448987
 30
0.0
 11
5263.5978868509064341
 21
-24.1415211817449098
 31
0.0
  0
LINE
  5
22AE0
  8
0
 10
5263.6278868509061795
 20
-24.1415211817448991
 30
0.0
 11
5263.6528868509058157
 21
-24.1415211817448991
 31
0.0
  0
LINE
  5
22AE1
  8
0
 10
5263.6528868509058157
 20
-24.1415211817448991
 30
0.0
 11
5263.6528868509058157
 21
-24.1615211817448987
 31
0.0
  0
LINE
  5
22AE2
  8
0
 10
5263.6528868509058157
 20
-24.1615211817448987
 30
0.0
 11
5263.6278868509061795
 21
-24.1615211817448987
 31
0.0
  0
LINE
  5
22AE3
  8
0
 10
5263.6278868509061795
 20
-24.1615211817448987
 30
0.0
 11
5263.6278868509061795
 21
-24.1415211817449098
 31
0.0
  0
LINE
  5
22AE4
  8
0
 10
5263.6578868509059248
 20
-24.1415211817448991
 30
0.0
 11
5263.682886850905561
 21
-24.1415211817448991
 31
0.0
  0
LINE
  5
22AE5
  8
0
 10
5263.682886850905561
 20
-24.1415211817448991
 30
0.0
 11
5263.682886850905561
 21
-24.1615211817448987
 31
0.0
  0
LINE
  5
22AE6
  8
0
 10
5263.682886850905561
 20
-24.1615211817448987
 30
0.0
 11
5263.6578868509059248
 21
-24.1615211817448987
 31
0.0
  0
LINE
  5
22AE7
  8
0
 10
5263.6578868509059248
 20
-24.1615211817448987
 30
0.0
 11
5263.6578868509059248
 21
-24.1415211817449098
 31
0.0
  0
LINE
  5
22AE8
  8
0
 10
5263.6878868509056701
 20
-24.1415211817448991
 30
0.0
 11
5263.7128868509071253
 21
-24.1415211817448991
 31
0.0
  0
LINE
  5
22AE9
  8
0
 10
5263.7128868509071253
 20
-24.1415211817448991
 30
0.0
 11
5263.7128868509071253
 21
-24.1615211817448987
 31
0.0
  0
LINE
  5
22AEA
  8
0
 10
5263.7128868509071253
 20
-24.1615211817448987
 30
0.0
 11
5263.6878868509056701
 21
-24.1615211817448987
 31
0.0
  0
LINE
  5
22AEB
  8
0
 10
5263.6878868509056701
 20
-24.1615211817448987
 30
0.0
 11
5263.6878868509056701
 21
-24.1415211817449098
 31
0.0
  0
LINE
  5
22AEC
  8
0
 10
5263.7178868509072345
 20
-24.1415211817448991
 30
0.0
 11
5263.7428868509059612
 21
-24.1415211817448991
 31
0.0
  0
LINE
  5
22AED
  8
0
 10
5263.7428868509059612
 20
-24.1415211817448991
 30
0.0
 11
5263.7428868509059612
 21
-24.1615211817448987
 31
0.0
  0
LINE
  5
22AEE
  8
0
 10
5263.7428868509059612
 20
-24.1615211817448987
 30
0.0
 11
5263.7178868509072345
 21
-24.1615211817448987
 31
0.0
  0
LINE
  5
22AEF
  8
0
 10
5263.7178868509072345
 20
-24.1615211817448987
 30
0.0
 11
5263.7178868509072345
 21
-24.1415211817449098
 31
0.0
  0
LINE
  5
22AF0
  8
0
 10
5263.7478868509060703
 20
-24.1415211817448991
 30
0.0
 11
5263.772886850904797
 21
-24.1415211817448991
 31
0.0
  0
LINE
  5
22AF1
  8
0
 10
5263.772886850904797
 20
-24.1415211817448991
 30
0.0
 11
5263.772886850904797
 21
-24.1615211817448987
 31
0.0
  0
LINE
  5
22AF2
  8
0
 10
5263.772886850904797
 20
-24.1615211817448987
 30
0.0
 11
5263.7478868509060703
 21
-24.1615211817448987
 31
0.0
  0
LINE
  5
22AF3
  8
0
 10
5263.7478868509060703
 20
-24.1615211817448987
 30
0.0
 11
5263.7478868509060703
 21
-24.1415211817449098
 31
0.0
  0
LINE
  5
22AF4
  8
0
 10
5263.7778868509058157
 20
-24.1415211817448991
 30
0.0
 11
5263.8028868509072709
 21
-24.1415211817448991
 31
0.0
  0
LINE
  5
22AF5
  8
0
 10
5263.8028868509072709
 20
-24.1415211817448991
 30
0.0
 11
5263.8028868509072709
 21
-24.1615211817448987
 31
0.0
  0
LINE
  5
22AF6
  8
0
 10
5263.8028868509072709
 20
-24.1615211817448987
 30
0.0
 11
5263.7778868509058157
 21
-24.1615211817448987
 31
0.0
  0
LINE
  5
22AF7
  8
0
 10
5263.7778868509058157
 20
-24.1615211817448987
 30
0.0
 11
5263.7778868509058157
 21
-24.1415211817449098
 31
0.0
  0
LINE
  5
22AF8
  8
0
 10
5263.80788685090738
 20
-24.1415211817448991
 30
0.0
 11
5263.8328868509061067
 21
-24.1415211817448991
 31
0.0
  0
LINE
  5
22AF9
  8
0
 10
5263.8328868509061067
 20
-24.1415211817448991
 30
0.0
 11
5263.8328868509061067
 21
-24.1615211817448987
 31
0.0
  0
LINE
  5
22AFA
  8
0
 10
5263.8328868509061067
 20
-24.1615211817448987
 30
0.0
 11
5263.80788685090738
 21
-24.1615211817448987
 31
0.0
  0
LINE
  5
22AFB
  8
0
 10
5263.80788685090738
 20
-24.1615211817448987
 30
0.0
 11
5263.80788685090738
 21
-24.1415211817449098
 31
0.0
  0
LINE
  5
22AFC
  8
0
 10
5263.8378868509071253
 20
-24.1415211817448991
 30
0.0
 11
5263.8467864403692147
 21
-24.1415211817448991
 31
0.0
  0
LINE
  5
22AFD
  8
0
 10
5263.8540534035983001
 20
-24.1615211817448987
 30
0.0
 11
5263.8378868509071253
 21
-24.1615211817448987
 31
0.0
  0
LINE
  5
22AFE
  8
0
 10
5263.8378868509071253
 20
-24.1615211817448987
 30
0.0
 11
5263.8378868509071253
 21
-24.1415211817449098
 31
0.0
  0
LINE
  5
22AFF
  8
0
 10
5263.4412835360626559
 20
-24.1165211817449112
 30
0.0
 11
5263.4428868509057793
 21
-24.1165211817449112
 31
0.0
  0
LINE
  5
22B00
  8
0
 10
5263.4428868509057793
 20
-24.1165211817449112
 30
0.0
 11
5263.4428868509057793
 21
-24.1365211817449001
 31
0.0
  0
LINE
  5
22B01
  8
0
 10
5263.4428868509057793
 20
-24.1365211817449001
 30
0.0
 11
5263.4311459419641324
 21
-24.1365211817449108
 31
0.0
  0
LINE
  5
22B02
  8
0
 10
5263.4478868509058884
 20
-24.1165211817449112
 30
0.0
 11
5263.4728868509064341
 21
-24.1165211817449112
 31
0.0
  0
LINE
  5
22B03
  8
0
 10
5263.4728868509064341
 20
-24.1165211817449112
 30
0.0
 11
5263.4728868509064341
 21
-24.1365211817449001
 31
0.0
  0
LINE
  5
22B04
  8
0
 10
5263.4728868509064341
 20
-24.1365211817449001
 30
0.0
 11
5263.4478868509058884
 21
-24.1365211817449001
 31
0.0
  0
LINE
  5
22B05
  8
0
 10
5263.4478868509058884
 20
-24.1365211817449001
 30
0.0
 11
5263.4478868509058884
 21
-24.1165211817449112
 31
0.0
  0
LINE
  5
22B06
  8
0
 10
5263.4778868509056338
 20
-24.1165211817449112
 30
0.0
 11
5263.5028868509061795
 21
-24.1165211817449112
 31
0.0
  0
LINE
  5
22B07
  8
0
 10
5263.5028868509061795
 20
-24.1165211817449112
 30
0.0
 11
5263.5028868509061795
 21
-24.1365211817449001
 31
0.0
  0
LINE
  5
22B08
  8
0
 10
5263.5028868509061795
 20
-24.1365211817449001
 30
0.0
 11
5263.4778868509056338
 21
-24.1365211817449001
 31
0.0
  0
LINE
  5
22B09
  8
0
 10
5263.4778868509056338
 20
-24.1365211817449001
 30
0.0
 11
5263.4778868509056338
 21
-24.1165211817449112
 31
0.0
  0
LINE
  5
22B0A
  8
0
 10
5263.5078868509062886
 20
-24.1165211817449112
 30
0.0
 11
5263.5328868509068343
 21
-24.1165211817449112
 31
0.0
  0
LINE
  5
22B0B
  8
0
 10
5263.5328868509068343
 20
-24.1165211817449112
 30
0.0
 11
5263.5328868509068343
 21
-24.1365211817449001
 31
0.0
  0
LINE
  5
22B0C
  8
0
 10
5263.5328868509068343
 20
-24.1365211817449001
 30
0.0
 11
5263.5078868509062886
 21
-24.1365211817449001
 31
0.0
  0
LINE
  5
22B0D
  8
0
 10
5263.5078868509062886
 20
-24.1365211817449001
 30
0.0
 11
5263.5078868509062886
 21
-24.1165211817449112
 31
0.0
  0
LINE
  5
22B0E
  8
0
 10
5263.5378868509060339
 20
-24.1165211817449112
 30
0.0
 11
5263.5628868509047606
 21
-24.1165211817449112
 31
0.0
  0
LINE
  5
22B0F
  8
0
 10
5263.5628868509047606
 20
-24.1165211817449112
 30
0.0
 11
5263.5628868509047606
 21
-24.1365211817449001
 31
0.0
  0
LINE
  5
22B10
  8
0
 10
5263.5628868509047606
 20
-24.1365211817449001
 30
0.0
 11
5263.5378868509060339
 21
-24.1365211817449001
 31
0.0
  0
LINE
  5
22B11
  8
0
 10
5263.5378868509060339
 20
-24.1365211817449001
 30
0.0
 11
5263.5378868509060339
 21
-24.1165211817449112
 31
0.0
  0
LINE
  5
22B12
  8
0
 10
5263.5678868509057793
 20
-24.1165211817449112
 30
0.0
 11
5263.592886850906325
 21
-24.1165211817449112
 31
0.0
  0
LINE
  5
22B13
  8
0
 10
5263.592886850906325
 20
-24.1165211817449112
 30
0.0
 11
5263.592886850906325
 21
-24.1365211817449001
 31
0.0
  0
LINE
  5
22B14
  8
0
 10
5263.592886850906325
 20
-24.1365211817449001
 30
0.0
 11
5263.5678868509057793
 21
-24.1365211817449001
 31
0.0
  0
LINE
  5
22B15
  8
0
 10
5263.5678868509057793
 20
-24.1365211817449001
 30
0.0
 11
5263.5678868509057793
 21
-24.1165211817449112
 31
0.0
  0
LINE
  5
22B16
  8
0
 10
5263.5978868509064341
 20
-24.1165211817449112
 30
0.0
 11
5263.6228868509069798
 21
-24.1165211817449112
 31
0.0
  0
LINE
  5
22B17
  8
0
 10
5263.6228868509069798
 20
-24.1165211817449112
 30
0.0
 11
5263.6228868509069798
 21
-24.1365211817449001
 31
0.0
  0
LINE
  5
22B18
  8
0
 10
5263.6228868509069798
 20
-24.1365211817449001
 30
0.0
 11
5263.5978868509064341
 21
-24.1365211817449001
 31
0.0
  0
LINE
  5
22B19
  8
0
 10
5263.5978868509064341
 20
-24.1365211817449001
 30
0.0
 11
5263.5978868509064341
 21
-24.1165211817449112
 31
0.0
  0
LINE
  5
22B1A
  8
0
 10
5263.6278868509061795
 20
-24.1165211817449112
 30
0.0
 11
5263.6528868509058157
 21
-24.1165211817449112
 31
0.0
  0
LINE
  5
22B1B
  8
0
 10
5263.6528868509058157
 20
-24.1165211817449112
 30
0.0
 11
5263.6528868509058157
 21
-24.1365211817449001
 31
0.0
  0
LINE
  5
22B1C
  8
0
 10
5263.6528868509058157
 20
-24.1365211817449001
 30
0.0
 11
5263.6278868509061795
 21
-24.1365211817449001
 31
0.0
  0
LINE
  5
22B1D
  8
0
 10
5263.6278868509061795
 20
-24.1365211817449001
 30
0.0
 11
5263.6278868509061795
 21
-24.1165211817449112
 31
0.0
  0
LINE
  5
22B1E
  8
0
 10
5263.6578868509059248
 20
-24.1165211817449112
 30
0.0
 11
5263.682886850905561
 21
-24.1165211817449112
 31
0.0
  0
LINE
  5
22B1F
  8
0
 10
5263.682886850905561
 20
-24.1165211817449112
 30
0.0
 11
5263.682886850905561
 21
-24.1365211817449001
 31
0.0
  0
LINE
  5
22B20
  8
0
 10
5263.682886850905561
 20
-24.1365211817449001
 30
0.0
 11
5263.6578868509059248
 21
-24.1365211817449001
 31
0.0
  0
LINE
  5
22B21
  8
0
 10
5263.6578868509059248
 20
-24.1365211817449001
 30
0.0
 11
5263.6578868509059248
 21
-24.1165211817449112
 31
0.0
  0
LINE
  5
22B22
  8
0
 10
5263.6878868509056701
 20
-24.1165211817449112
 30
0.0
 11
5263.7128868509071253
 21
-24.1165211817449112
 31
0.0
  0
LINE
  5
22B23
  8
0
 10
5263.7128868509071253
 20
-24.1165211817449112
 30
0.0
 11
5263.7128868509071253
 21
-24.1365211817449001
 31
0.0
  0
LINE
  5
22B24
  8
0
 10
5263.7128868509071253
 20
-24.1365211817449001
 30
0.0
 11
5263.6878868509056701
 21
-24.1365211817449001
 31
0.0
  0
LINE
  5
22B25
  8
0
 10
5263.6878868509056701
 20
-24.1365211817449001
 30
0.0
 11
5263.6878868509056701
 21
-24.1165211817449112
 31
0.0
  0
LINE
  5
22B26
  8
0
 10
5263.7178868509072345
 20
-24.1165211817449112
 30
0.0
 11
5263.7428868509059612
 21
-24.1165211817449112
 31
0.0
  0
LINE
  5
22B27
  8
0
 10
5263.7428868509059612
 20
-24.1165211817449112
 30
0.0
 11
5263.7428868509059612
 21
-24.1365211817449001
 31
0.0
  0
LINE
  5
22B28
  8
0
 10
5263.7428868509059612
 20
-24.1365211817449001
 30
0.0
 11
5263.7178868509072345
 21
-24.1365211817449001
 31
0.0
  0
LINE
  5
22B29
  8
0
 10
5263.7178868509072345
 20
-24.1365211817449001
 30
0.0
 11
5263.7178868509072345
 21
-24.1165211817449112
 31
0.0
  0
LINE
  5
22B2A
  8
0
 10
5263.7478868509060703
 20
-24.1165211817449112
 30
0.0
 11
5263.772886850904797
 21
-24.1165211817449112
 31
0.0
  0
LINE
  5
22B2B
  8
0
 10
5263.772886850904797
 20
-24.1165211817449112
 30
0.0
 11
5263.772886850904797
 21
-24.1365211817449001
 31
0.0
  0
LINE
  5
22B2C
  8
0
 10
5263.772886850904797
 20
-24.1365211817449001
 30
0.0
 11
5263.7478868509060703
 21
-24.1365211817449001
 31
0.0
  0
LINE
  5
22B2D
  8
0
 10
5263.7478868509060703
 20
-24.1365211817449001
 30
0.0
 11
5263.7478868509060703
 21
-24.1165211817449112
 31
0.0
  0
LINE
  5
22B2E
  8
0
 10
5263.7778868509058157
 20
-24.1165211817449112
 30
0.0
 11
5263.8028868509072709
 21
-24.1165211817449112
 31
0.0
  0
LINE
  5
22B2F
  8
0
 10
5263.8028868509072709
 20
-24.1165211817449112
 30
0.0
 11
5263.8028868509072709
 21
-24.1365211817449001
 31
0.0
  0
LINE
  5
22B30
  8
0
 10
5263.8028868509072709
 20
-24.1365211817449001
 30
0.0
 11
5263.7778868509058157
 21
-24.1365211817449001
 31
0.0
  0
LINE
  5
22B31
  8
0
 10
5263.7778868509058157
 20
-24.1365211817449001
 30
0.0
 11
5263.7778868509058157
 21
-24.1165211817449112
 31
0.0
  0
LINE
  5
22B32
  8
0
 10
5263.80788685090738
 20
-24.1165211817449112
 30
0.0
 11
5263.8328868509061067
 21
-24.1165211817449112
 31
0.0
  0
LINE
  5
22B33
  8
0
 10
5263.8328868509061067
 20
-24.1165211817449112
 30
0.0
 11
5263.8328868509061067
 21
-24.1365211817449001
 31
0.0
  0
LINE
  5
22B34
  8
0
 10
5263.8328868509061067
 20
-24.1365211817449001
 30
0.0
 11
5263.80788685090738
 21
-24.1365211817449001
 31
0.0
  0
LINE
  5
22B35
  8
0
 10
5263.80788685090738
 20
-24.1365211817449001
 30
0.0
 11
5263.80788685090738
 21
-24.1165211817449112
 31
0.0
  0
LINE
  5
22B36
  8
0
 10
5263.844627759947798
 20
-24.1365211817449108
 30
0.0
 11
5263.8378868509071253
 21
-24.1365211817449001
 31
0.0
  0
LINE
  5
22B37
  8
0
 10
5263.8378868509071253
 20
-24.1365211817449001
 30
0.0
 11
5263.8378868509071253
 21
-24.1226929141657784
 31
0.0
  0
LINE
  5
22B38
  8
0
 10
5263.4578405002648651
 20
-24.0915211817449091
 30
0.0
 11
5263.4728868509064341
 21
-24.0915211817449091
 31
0.0
  0
LINE
  5
22B39
  8
0
 10
5263.4728868509064341
 20
-24.0915211817449091
 30
0.0
 11
5263.4728868509064341
 21
-24.1115211817449087
 31
0.0
  0
LINE
  5
22B3A
  8
0
 10
5263.4728868509064341
 20
-24.1115211817449087
 30
0.0
 11
5263.4478868509058884
 21
-24.1115211817449087
 31
0.0
  0
LINE
  5
22B3B
  8
0
 10
5263.4478868509058884
 20
-24.1115211817449087
 30
0.0
 11
5263.4478868509058884
 21
-24.1056716247940415
 31
0.0
  0
LINE
  5
22B3C
  8
0
 10
5263.4778868509056338
 20
-24.0915211817449091
 30
0.0
 11
5263.5028868509061795
 21
-24.0915211817449091
 31
0.0
  0
LINE
  5
22B3D
  8
0
 10
5263.5028868509061795
 20
-24.0915211817449091
 30
0.0
 11
5263.5028868509061795
 21
-24.1115211817449087
 31
0.0
  0
LINE
  5
22B3E
  8
0
 10
5263.5028868509061795
 20
-24.1115211817449087
 30
0.0
 11
5263.4778868509056338
 21
-24.1115211817449087
 31
0.0
  0
LINE
  5
22B3F
  8
0
 10
5263.4778868509056338
 20
-24.1115211817449087
 30
0.0
 11
5263.4778868509056338
 21
-24.0915211817449091
 31
0.0
  0
LINE
  5
22B40
  8
0
 10
5263.5078868509062886
 20
-24.0915211817449091
 30
0.0
 11
5263.5328868509068343
 21
-24.0915211817449091
 31
0.0
  0
LINE
  5
22B41
  8
0
 10
5263.5328868509068343
 20
-24.0915211817449091
 30
0.0
 11
5263.5328868509068343
 21
-24.1115211817449087
 31
0.0
  0
LINE
  5
22B42
  8
0
 10
5263.5328868509068343
 20
-24.1115211817449087
 30
0.0
 11
5263.5078868509062886
 21
-24.1115211817449087
 31
0.0
  0
LINE
  5
22B43
  8
0
 10
5263.5078868509062886
 20
-24.1115211817449087
 30
0.0
 11
5263.5078868509062886
 21
-24.0915211817449091
 31
0.0
  0
LINE
  5
22B44
  8
0
 10
5263.5378868509060339
 20
-24.0915211817449091
 30
0.0
 11
5263.5628868509047606
 21
-24.0915211817449091
 31
0.0
  0
LINE
  5
22B45
  8
0
 10
5263.5628868509047606
 20
-24.0915211817449091
 30
0.0
 11
5263.5628868509047606
 21
-24.1115211817449087
 31
0.0
  0
LINE
  5
22B46
  8
0
 10
5263.5628868509047606
 20
-24.1115211817449087
 30
0.0
 11
5263.5378868509060339
 21
-24.1115211817449087
 31
0.0
  0
LINE
  5
22B47
  8
0
 10
5263.5378868509060339
 20
-24.1115211817449087
 30
0.0
 11
5263.5378868509060339
 21
-24.0915211817449091
 31
0.0
  0
LINE
  5
22B48
  8
0
 10
5263.5678868509057793
 20
-24.0915211817449091
 30
0.0
 11
5263.592886850906325
 21
-24.0915211817449091
 31
0.0
  0
LINE
  5
22B49
  8
0
 10
5263.592886850906325
 20
-24.0915211817449091
 30
0.0
 11
5263.592886850906325
 21
-24.1115211817449087
 31
0.0
  0
LINE
  5
22B4A
  8
0
 10
5263.592886850906325
 20
-24.1115211817449087
 30
0.0
 11
5263.5678868509057793
 21
-24.1115211817449087
 31
0.0
  0
LINE
  5
22B4B
  8
0
 10
5263.5678868509057793
 20
-24.1115211817449087
 30
0.0
 11
5263.5678868509057793
 21
-24.0915211817449091
 31
0.0
  0
LINE
  5
22B4C
  8
0
 10
5263.5978868509064341
 20
-24.0915211817449091
 30
0.0
 11
5263.6228868509069798
 21
-24.0915211817449091
 31
0.0
  0
LINE
  5
22B4D
  8
0
 10
5263.6228868509069798
 20
-24.0915211817449091
 30
0.0
 11
5263.6228868509069798
 21
-24.1115211817449087
 31
0.0
  0
LINE
  5
22B4E
  8
0
 10
5263.6228868509069798
 20
-24.1115211817449087
 30
0.0
 11
5263.5978868509064341
 21
-24.1115211817449087
 31
0.0
  0
LINE
  5
22B4F
  8
0
 10
5263.5978868509064341
 20
-24.1115211817449087
 30
0.0
 11
5263.5978868509064341
 21
-24.0915211817449091
 31
0.0
  0
LINE
  5
22B50
  8
0
 10
5263.6278868509061795
 20
-24.0915211817449091
 30
0.0
 11
5263.6528868509058157
 21
-24.0915211817449091
 31
0.0
  0
LINE
  5
22B51
  8
0
 10
5263.6528868509058157
 20
-24.0915211817449091
 30
0.0
 11
5263.6528868509058157
 21
-24.1115211817449087
 31
0.0
  0
LINE
  5
22B52
  8
0
 10
5263.6528868509058157
 20
-24.1115211817449087
 30
0.0
 11
5263.6278868509061795
 21
-24.1115211817449087
 31
0.0
  0
LINE
  5
22B53
  8
0
 10
5263.6278868509061795
 20
-24.1115211817449087
 30
0.0
 11
5263.6278868509061795
 21
-24.0915211817449091
 31
0.0
  0
LINE
  5
22B54
  8
0
 10
5263.6578868509059248
 20
-24.0915211817449091
 30
0.0
 11
5263.682886850905561
 21
-24.0915211817449091
 31
0.0
  0
LINE
  5
22B55
  8
0
 10
5263.682886850905561
 20
-24.0915211817449091
 30
0.0
 11
5263.682886850905561
 21
-24.1115211817449087
 31
0.0
  0
LINE
  5
22B56
  8
0
 10
5263.682886850905561
 20
-24.1115211817449087
 30
0.0
 11
5263.6578868509059248
 21
-24.1115211817449087
 31
0.0
  0
LINE
  5
22B57
  8
0
 10
5263.6578868509059248
 20
-24.1115211817449087
 30
0.0
 11
5263.6578868509059248
 21
-24.0915211817449091
 31
0.0
  0
LINE
  5
22B58
  8
0
 10
5263.6878868509056701
 20
-24.0915211817449091
 30
0.0
 11
5263.7128868509071253
 21
-24.0915211817449091
 31
0.0
  0
LINE
  5
22B59
  8
0
 10
5263.7128868509071253
 20
-24.0915211817449091
 30
0.0
 11
5263.7128868509071253
 21
-24.1115211817449087
 31
0.0
  0
LINE
  5
22B5A
  8
0
 10
5263.7128868509071253
 20
-24.1115211817449087
 30
0.0
 11
5263.6878868509056701
 21
-24.1115211817449087
 31
0.0
  0
LINE
  5
22B5B
  8
0
 10
5263.6878868509056701
 20
-24.1115211817449087
 30
0.0
 11
5263.6878868509056701
 21
-24.0915211817449091
 31
0.0
  0
LINE
  5
22B5C
  8
0
 10
5263.7178868509072345
 20
-24.0915211817449091
 30
0.0
 11
5263.7428868509059612
 21
-24.0915211817449091
 31
0.0
  0
LINE
  5
22B5D
  8
0
 10
5263.7428868509059612
 20
-24.0915211817449091
 30
0.0
 11
5263.7428868509059612
 21
-24.1115211817449087
 31
0.0
  0
LINE
  5
22B5E
  8
0
 10
5263.7428868509059612
 20
-24.1115211817449087
 30
0.0
 11
5263.7178868509072345
 21
-24.1115211817449087
 31
0.0
  0
LINE
  5
22B5F
  8
0
 10
5263.7178868509072345
 20
-24.1115211817449087
 30
0.0
 11
5263.7178868509072345
 21
-24.0915211817449091
 31
0.0
  0
LINE
  5
22B60
  8
0
 10
5263.7478868509060703
 20
-24.0915211817449091
 30
0.0
 11
5263.772886850904797
 21
-24.0915211817449091
 31
0.0
  0
LINE
  5
22B61
  8
0
 10
5263.772886850904797
 20
-24.0915211817449091
 30
0.0
 11
5263.772886850904797
 21
-24.1115211817449087
 31
0.0
  0
LINE
  5
22B62
  8
0
 10
5263.772886850904797
 20
-24.1115211817449087
 30
0.0
 11
5263.7478868509060703
 21
-24.1115211817449087
 31
0.0
  0
LINE
  5
22B63
  8
0
 10
5263.7478868509060703
 20
-24.1115211817449087
 30
0.0
 11
5263.7478868509060703
 21
-24.0915211817449091
 31
0.0
  0
LINE
  5
22B64
  8
0
 10
5263.7778868509058157
 20
-24.0915211817449091
 30
0.0
 11
5263.8028868509072709
 21
-24.0915211817449091
 31
0.0
  0
LINE
  5
22B65
  8
0
 10
5263.8028868509072709
 20
-24.0915211817449091
 30
0.0
 11
5263.8028868509072709
 21
-24.1115211817449087
 31
0.0
  0
LINE
  5
22B66
  8
0
 10
5263.8028868509072709
 20
-24.1115211817449087
 30
0.0
 11
5263.7778868509058157
 21
-24.1115211817449087
 31
0.0
  0
LINE
  5
22B67
  8
0
 10
5263.7778868509058157
 20
-24.1115211817449087
 30
0.0
 11
5263.7778868509058157
 21
-24.0915211817449091
 31
0.0
  0
LINE
  5
22B68
  8
0
 10
5263.80788685090738
 20
-24.0915211817449091
 30
0.0
 11
5263.8179332016470653
 21
-24.0915211817449091
 31
0.0
  0
LINE
  5
22B69
  8
0
 10
5263.8315505502423548
 20
-24.1115211817449087
 30
0.0
 11
5263.80788685090738
 21
-24.1115211817449087
 31
0.0
  0
LINE
  5
22B6A
  8
0
 10
5263.80788685090738
 20
-24.1115211817449087
 30
0.0
 11
5263.80788685090738
 21
-24.0915211817449091
 31
0.0
  0
LINE
  5
22B6B
  8
0
 10
5263.4728868509064341
 20
-24.0737544326599107
 30
0.0
 11
5263.4728868509064341
 21
-24.0865211817449101
 31
0.0
  0
LINE
  5
22B6C
  8
0
 10
5263.4728868509064341
 20
-24.0865211817449101
 30
0.0
 11
5263.4617634470851044
 21
-24.0865211817449101
 31
0.0
  0
LINE
  5
22B6D
  8
0
 10
5263.4799928568745599
 20
-24.0665211817449105
 30
0.0
 11
5263.5028868509061795
 21
-24.0665211817449105
 31
0.0
  0
LINE
  5
22B6E
  8
0
 10
5263.5028868509061795
 20
-24.0665211817449105
 30
0.0
 11
5263.5028868509061795
 21
-24.0865211817449101
 31
0.0
  0
LINE
  5
22B6F
  8
0
 10
5263.5028868509061795
 20
-24.0865211817449101
 30
0.0
 11
5263.4778868509056338
 21
-24.0865211817449101
 31
0.0
  0
LINE
  5
22B70
  8
0
 10
5263.4778868509056338
 20
-24.0865211817449101
 30
0.0
 11
5263.4778868509056338
 21
-24.0685979449509801
 31
0.0
  0
LINE
  5
22B71
  8
0
 10
5263.5078868509062886
 20
-24.0665211817449105
 30
0.0
 11
5263.5328868509068343
 21
-24.0665211817449105
 31
0.0
  0
LINE
  5
22B72
  8
0
 10
5263.5328868509068343
 20
-24.0665211817449105
 30
0.0
 11
5263.5328868509068343
 21
-24.0865211817449101
 31
0.0
  0
LINE
  5
22B73
  8
0
 10
5263.5328868509068343
 20
-24.0865211817449101
 30
0.0
 11
5263.5078868509062886
 21
-24.0865211817449101
 31
0.0
  0
LINE
  5
22B74
  8
0
 10
5263.5078868509062886
 20
-24.0865211817449101
 30
0.0
 11
5263.5078868509062886
 21
-24.0665211817449105
 31
0.0
  0
LINE
  5
22B75
  8
0
 10
5263.5378868509060339
 20
-24.0665211817449105
 30
0.0
 11
5263.5628868509047606
 21
-24.0665211817449105
 31
0.0
  0
LINE
  5
22B76
  8
0
 10
5263.5628868509047606
 20
-24.0665211817449105
 30
0.0
 11
5263.5628868509047606
 21
-24.0865211817449101
 31
0.0
  0
LINE
  5
22B77
  8
0
 10
5263.5628868509047606
 20
-24.0865211817449101
 30
0.0
 11
5263.5378868509060339
 21
-24.0865211817449101
 31
0.0
  0
LINE
  5
22B78
  8
0
 10
5263.5378868509060339
 20
-24.0865211817449101
 30
0.0
 11
5263.5378868509060339
 21
-24.0665211817449105
 31
0.0
  0
LINE
  5
22B79
  8
0
 10
5263.5678868509057793
 20
-24.0665211817449105
 30
0.0
 11
5263.592886850906325
 21
-24.0665211817449105
 31
0.0
  0
LINE
  5
22B7A
  8
0
 10
5263.592886850906325
 20
-24.0665211817449105
 30
0.0
 11
5263.592886850906325
 21
-24.0865211817449101
 31
0.0
  0
LINE
  5
22B7B
  8
0
 10
5263.592886850906325
 20
-24.0865211817449101
 30
0.0
 11
5263.5678868509057793
 21
-24.0865211817449101
 31
0.0
  0
LINE
  5
22B7C
  8
0
 10
5263.5678868509057793
 20
-24.0865211817449101
 30
0.0
 11
5263.5678868509057793
 21
-24.0665211817449105
 31
0.0
  0
LINE
  5
22B7D
  8
0
 10
5263.5978868509064341
 20
-24.0665211817449105
 30
0.0
 11
5263.6228868509069798
 21
-24.0665211817449105
 31
0.0
  0
LINE
  5
22B7E
  8
0
 10
5263.6228868509069798
 20
-24.0665211817449105
 30
0.0
 11
5263.6228868509069798
 21
-24.0865211817449101
 31
0.0
  0
LINE
  5
22B7F
  8
0
 10
5263.6228868509069798
 20
-24.0865211817449101
 30
0.0
 11
5263.5978868509064341
 21
-24.0865211817449101
 31
0.0
  0
LINE
  5
22B80
  8
0
 10
5263.5978868509064341
 20
-24.0865211817449101
 30
0.0
 11
5263.5978868509064341
 21
-24.0665211817449105
 31
0.0
  0
LINE
  5
22B81
  8
0
 10
5263.6278868509061795
 20
-24.0665211817449105
 30
0.0
 11
5263.6528868509058157
 21
-24.0665211817449105
 31
0.0
  0
LINE
  5
22B82
  8
0
 10
5263.6528868509058157
 20
-24.0665211817449105
 30
0.0
 11
5263.6528868509058157
 21
-24.0865211817449101
 31
0.0
  0
LINE
  5
22B83
  8
0
 10
5263.6528868509058157
 20
-24.0865211817449101
 30
0.0
 11
5263.6278868509061795
 21
-24.0865211817449101
 31
0.0
  0
LINE
  5
22B84
  8
0
 10
5263.6278868509061795
 20
-24.0865211817449101
 30
0.0
 11
5263.6278868509061795
 21
-24.0665211817449105
 31
0.0
  0
LINE
  5
22B85
  8
0
 10
5263.6578868509059248
 20
-24.0665211817449105
 30
0.0
 11
5263.682886850905561
 21
-24.0665211817449105
 31
0.0
  0
LINE
  5
22B86
  8
0
 10
5263.682886850905561
 20
-24.0665211817449105
 30
0.0
 11
5263.682886850905561
 21
-24.0865211817449101
 31
0.0
  0
LINE
  5
22B87
  8
0
 10
5263.682886850905561
 20
-24.0865211817449101
 30
0.0
 11
5263.6578868509059248
 21
-24.0865211817449101
 31
0.0
  0
LINE
  5
22B88
  8
0
 10
5263.6578868509059248
 20
-24.0865211817449101
 30
0.0
 11
5263.6578868509059248
 21
-24.0665211817449105
 31
0.0
  0
LINE
  5
22B89
  8
0
 10
5263.6878868509056701
 20
-24.0665211817449105
 30
0.0
 11
5263.7128868509071253
 21
-24.0665211817449105
 31
0.0
  0
LINE
  5
22B8A
  8
0
 10
5263.7128868509071253
 20
-24.0665211817449105
 30
0.0
 11
5263.7128868509071253
 21
-24.0865211817449101
 31
0.0
  0
LINE
  5
22B8B
  8
0
 10
5263.7128868509071253
 20
-24.0865211817449101
 30
0.0
 11
5263.6878868509056701
 21
-24.0865211817449101
 31
0.0
  0
LINE
  5
22B8C
  8
0
 10
5263.6878868509056701
 20
-24.0865211817449101
 30
0.0
 11
5263.6878868509056701
 21
-24.0665211817449105
 31
0.0
  0
LINE
  5
22B8D
  8
0
 10
5263.7178868509072345
 20
-24.0665211817449105
 30
0.0
 11
5263.7428868509059612
 21
-24.0665211817449105
 31
0.0
  0
LINE
  5
22B8E
  8
0
 10
5263.7428868509059612
 20
-24.0665211817449105
 30
0.0
 11
5263.7428868509059612
 21
-24.0865211817449101
 31
0.0
  0
LINE
  5
22B8F
  8
0
 10
5263.7428868509059612
 20
-24.0865211817449101
 30
0.0
 11
5263.7178868509072345
 21
-24.0865211817449101
 31
0.0
  0
LINE
  5
22B90
  8
0
 10
5263.7178868509072345
 20
-24.0865211817449101
 30
0.0
 11
5263.7178868509072345
 21
-24.0665211817449105
 31
0.0
  0
LINE
  5
22B91
  8
0
 10
5263.7478868509060703
 20
-24.0665211817449105
 30
0.0
 11
5263.772886850904797
 21
-24.0665211817449105
 31
0.0
  0
LINE
  5
22B92
  8
0
 10
5263.772886850904797
 20
-24.0665211817449105
 30
0.0
 11
5263.772886850904797
 21
-24.0865211817449101
 31
0.0
  0
LINE
  5
22B93
  8
0
 10
5263.772886850904797
 20
-24.0865211817449101
 30
0.0
 11
5263.7478868509060703
 21
-24.0865211817449101
 31
0.0
  0
LINE
  5
22B94
  8
0
 10
5263.7478868509060703
 20
-24.0865211817449101
 30
0.0
 11
5263.7478868509060703
 21
-24.0665211817449105
 31
0.0
  0
LINE
  5
22B95
  8
0
 10
5263.7778868509058157
 20
-24.0665211817449105
 30
0.0
 11
5263.7957808450373705
 21
-24.0665211817449105
 31
0.0
  0
LINE
  5
22B96
  8
0
 10
5263.8028868509072709
 20
-24.0737544325534394
 30
0.0
 11
5263.8028868509072709
 21
-24.0865211817449101
 31
0.0
  0
LINE
  5
22B97
  8
0
 10
5263.8028868509072709
 20
-24.0865211817449101
 30
0.0
 11
5263.7778868509058157
 21
-24.0865211817449101
 31
0.0
  0
LINE
  5
22B98
  8
0
 10
5263.7778868509058157
 20
-24.0865211817449101
 30
0.0
 11
5263.7778868509058157
 21
-24.0665211817449105
 31
0.0
  0
LINE
  5
22B99
  8
0
 10
5263.814010254826826
 20
-24.0865211817449101
 30
0.0
 11
5263.80788685090738
 21
-24.0865211817449101
 31
0.0
  0
LINE
  5
22B9A
  8
0
 10
5263.80788685090738
 20
-24.0865211817449101
 30
0.0
 11
5263.80788685090738
 21
-24.079255627458199
 31
0.0
  0
LINE
  5
22B9B
  8
0
 10
5263.5028868509061795
 20
-24.0470251800882089
 30
0.0
 11
5263.5028868509061795
 21
-24.0615211817449008
 31
0.0
  0
LINE
  5
22B9C
  8
0
 10
5263.5028868509061795
 20
-24.0615211817449008
 30
0.0
 11
5263.4852982591119144
 21
-24.0615211817449008
 31
0.0
  0
LINE
  5
22B9D
  8
0
 10
5263.5106298733990116
 20
-24.0415211817449013
 30
0.0
 11
5263.5328868509068343
 21
-24.0415211817449013
 31
0.0
  0
LINE
  5
22B9E
  8
0
 10
5263.5328868509068343
 20
-24.0415211817449013
 30
0.0
 11
5263.5328868509068343
 21
-24.0615211817449008
 31
0.0
  0
LINE
  5
22B9F
  8
0
 10
5263.5328868509068343
 20
-24.0615211817449008
 30
0.0
 11
5263.5078868509062886
 21
-24.0615211817449008
 31
0.0
  0
LINE
  5
22BA0
  8
0
 10
5263.5078868509062886
 20
-24.0615211817449008
 30
0.0
 11
5263.5078868509062886
 21
-24.0434153066352785
 31
0.0
  0
LINE
  5
22BA1
  8
0
 10
5263.5378868509060339
 20
-24.0415211817449013
 30
0.0
 11
5263.5628868509047606
 21
-24.0415211817449013
 31
0.0
  0
LINE
  5
22BA2
  8
0
 10
5263.5628868509047606
 20
-24.0415211817449013
 30
0.0
 11
5263.5628868509047606
 21
-24.0615211817449008
 31
0.0
  0
LINE
  5
22BA3
  8
0
 10
5263.5628868509047606
 20
-24.0615211817449008
 30
0.0
 11
5263.5378868509060339
 21
-24.0615211817449008
 31
0.0
  0
LINE
  5
22BA4
  8
0
 10
5263.5378868509060339
 20
-24.0615211817449008
 30
0.0
 11
5263.5378868509060339
 21
-24.0415211817449013
 31
0.0
  0
LINE
  5
22BA5
  8
0
 10
5263.5678868509057793
 20
-24.0415211817449013
 30
0.0
 11
5263.592886850906325
 21
-24.0415211817449013
 31
0.0
  0
LINE
  5
22BA6
  8
0
 10
5263.592886850906325
 20
-24.0415211817449013
 30
0.0
 11
5263.592886850906325
 21
-24.0615211817449008
 31
0.0
  0
LINE
  5
22BA7
  8
0
 10
5263.592886850906325
 20
-24.0615211817449008
 30
0.0
 11
5263.5678868509057793
 21
-24.0615211817449008
 31
0.0
  0
LINE
  5
22BA8
  8
0
 10
5263.5678868509057793
 20
-24.0615211817449008
 30
0.0
 11
5263.5678868509057793
 21
-24.0415211817449013
 31
0.0
  0
LINE
  5
22BA9
  8
0
 10
5263.5978868509064341
 20
-24.0415211817449013
 30
0.0
 11
5263.6228868509069798
 21
-24.0415211817449013
 31
0.0
  0
LINE
  5
22BAA
  8
0
 10
5263.6228868509069798
 20
-24.0415211817449013
 30
0.0
 11
5263.6228868509069798
 21
-24.0615211817449008
 31
0.0
  0
LINE
  5
22BAB
  8
0
 10
5263.6228868509069798
 20
-24.0615211817449008
 30
0.0
 11
5263.5978868509064341
 21
-24.0615211817449008
 31
0.0
  0
LINE
  5
22BAC
  8
0
 10
5263.5978868509064341
 20
-24.0615211817449008
 30
0.0
 11
5263.5978868509064341
 21
-24.0415211817449013
 31
0.0
  0
LINE
  5
22BAD
  8
0
 10
5263.6278868509061795
 20
-24.0415211817449013
 30
0.0
 11
5263.6528868509058157
 21
-24.0415211817449013
 31
0.0
  0
LINE
  5
22BAE
  8
0
 10
5263.6528868509058157
 20
-24.0415211817449013
 30
0.0
 11
5263.6528868509058157
 21
-24.0615211817449008
 31
0.0
  0
LINE
  5
22BAF
  8
0
 10
5263.6528868509058157
 20
-24.0615211817449008
 30
0.0
 11
5263.6278868509061795
 21
-24.0615211817449008
 31
0.0
  0
LINE
  5
22BB0
  8
0
 10
5263.6278868509061795
 20
-24.0615211817449008
 30
0.0
 11
5263.6278868509061795
 21
-24.0415211817449013
 31
0.0
  0
LINE
  5
22BB1
  8
0
 10
5263.6578868509059248
 20
-24.0415211817449013
 30
0.0
 11
5263.682886850905561
 21
-24.0415211817449013
 31
0.0
  0
LINE
  5
22BB2
  8
0
 10
5263.682886850905561
 20
-24.0415211817449013
 30
0.0
 11
5263.682886850905561
 21
-24.0615211817449008
 31
0.0
  0
LINE
  5
22BB3
  8
0
 10
5263.682886850905561
 20
-24.0615211817449008
 30
0.0
 11
5263.6578868509059248
 21
-24.0615211817449008
 31
0.0
  0
LINE
  5
22BB4
  8
0
 10
5263.6578868509059248
 20
-24.0615211817449008
 30
0.0
 11
5263.6578868509059248
 21
-24.0415211817449013
 31
0.0
  0
LINE
  5
22BB5
  8
0
 10
5263.6878868509056701
 20
-24.0415211817449013
 30
0.0
 11
5263.7128868509071253
 21
-24.0415211817449013
 31
0.0
  0
LINE
  5
22BB6
  8
0
 10
5263.7128868509071253
 20
-24.0415211817449013
 30
0.0
 11
5263.7128868509071253
 21
-24.0615211817449008
 31
0.0
  0
LINE
  5
22BB7
  8
0
 10
5263.7128868509071253
 20
-24.0615211817449008
 30
0.0
 11
5263.6878868509056701
 21
-24.0615211817449008
 31
0.0
  0
LINE
  5
22BB8
  8
0
 10
5263.6878868509056701
 20
-24.0615211817449008
 30
0.0
 11
5263.6878868509056701
 21
-24.0415211817449013
 31
0.0
  0
LINE
  5
22BB9
  8
0
 10
5263.7178868509072345
 20
-24.0415211817449013
 30
0.0
 11
5263.7428868509059612
 21
-24.0415211817449013
 31
0.0
  0
LINE
  5
22BBA
  8
0
 10
5263.7428868509059612
 20
-24.0415211817449013
 30
0.0
 11
5263.7428868509059612
 21
-24.0615211817449008
 31
0.0
  0
LINE
  5
22BBB
  8
0
 10
5263.7428868509059612
 20
-24.0615211817449008
 30
0.0
 11
5263.7178868509072345
 21
-24.0615211817449008
 31
0.0
  0
LINE
  5
22BBC
  8
0
 10
5263.7178868509072345
 20
-24.0615211817449008
 30
0.0
 11
5263.7178868509072345
 21
-24.0415211817449013
 31
0.0
  0
LINE
  5
22BBD
  8
0
 10
5263.7478868509060703
 20
-24.0415211817449013
 30
0.0
 11
5263.7651438285129188
 21
-24.0415211817449013
 31
0.0
  0
LINE
  5
22BBE
  8
0
 10
5263.772886850904797
 20
-24.0470251800139287
 30
0.0
 11
5263.772886850904797
 21
-24.0615211817449008
 31
0.0
  0
LINE
  5
22BBF
  8
0
 10
5263.772886850904797
 20
-24.0615211817449008
 30
0.0
 11
5263.7478868509060703
 21
-24.0615211817449008
 31
0.0
  0
LINE
  5
22BC0
  8
0
 10
5263.7478868509060703
 20
-24.0615211817449008
 30
0.0
 11
5263.7478868509060703
 21
-24.0415211817449013
 31
0.0
  0
LINE
  5
22BC1
  8
0
 10
5263.7904754427991065
 20
-24.0615211817449008
 30
0.0
 11
5263.7778868509058157
 21
-24.0615211817449008
 31
0.0
  0
LINE
  5
22BC2
  8
0
 10
5263.7778868509058157
 20
-24.0615211817449008
 30
0.0
 11
5263.7778868509058157
 21
-24.0508487084502782
 31
0.0
  0
LINE
  5
22BC3
  8
0
 10
5263.5328868509068343
 20
-24.0281905063638987
 30
0.0
 11
5263.5328868509068343
 21
-24.0365211817448987
 31
0.0
  0
LINE
  5
22BC4
  8
0
 10
5263.5328868509068343
 20
-24.0365211817448987
 30
0.0
 11
5263.5183163557203443
 21
-24.0365211817448987
 31
0.0
  0
LINE
  5
22BC5
  8
0
 10
5263.5590949522165829
 20
-24.0165211817448991
 30
0.0
 11
5263.5628868509047606
 21
-24.0165211817448991
 31
0.0
  0
LINE
  5
22BC6
  8
0
 10
5263.5628868509047606
 20
-24.0165211817448991
 30
0.0
 11
5263.5628868509047606
 21
-24.0365211817448987
 31
0.0
  0
LINE
  5
22BC7
  8
0
 10
5263.5628868509047606
 20
-24.0365211817448987
 30
0.0
 11
5263.5378868509060339
 21
-24.0365211817448987
 31
0.0
  0
LINE
  5
22BC8
  8
0
 10
5263.5378868509060339
 20
-24.0365211817448987
 30
0.0
 11
5263.5378868509060339
 21
-24.0256511632362901
 31
0.0
  0
LINE
  5
22BC9
  8
0
 10
5263.5678868509057793
 20
-24.0165211817448991
 30
0.0
 11
5263.592886850906325
 21
-24.0165211817448991
 31
0.0
  0
LINE
  5
22BCA
  8
0
 10
5263.592886850906325
 20
-24.0165211817448991
 30
0.0
 11
5263.592886850906325
 21
-24.0365211817448987
 31
0.0
  0
LINE
  5
22BCB
  8
0
 10
5263.592886850906325
 20
-24.0365211817448987
 30
0.0
 11
5263.5678868509057793
 21
-24.0365211817448987
 31
0.0
  0
LINE
  5
22BCC
  8
0
 10
5263.5678868509057793
 20
-24.0365211817448987
 30
0.0
 11
5263.5678868509057793
 21
-24.0165211817449098
 31
0.0
  0
LINE
  5
22BCD
  8
0
 10
5263.5978868509064341
 20
-24.0165211817448991
 30
0.0
 11
5263.6228868509069798
 21
-24.0165211817448991
 31
0.0
  0
LINE
  5
22BCE
  8
0
 10
5263.6228868509069798
 20
-24.0165211817448991
 30
0.0
 11
5263.6228868509069798
 21
-24.0365211817448987
 31
0.0
  0
LINE
  5
22BCF
  8
0
 10
5263.6228868509069798
 20
-24.0365211817448987
 30
0.0
 11
5263.5978868509064341
 21
-24.0365211817448987
 31
0.0
  0
LINE
  5
22BD0
  8
0
 10
5263.5978868509064341
 20
-24.0365211817448987
 30
0.0
 11
5263.5978868509064341
 21
-24.0165211817449098
 31
0.0
  0
LINE
  5
22BD1
  8
0
 10
5263.6278868509061795
 20
-24.0165211817448991
 30
0.0
 11
5263.6528868509058157
 21
-24.0165211817448991
 31
0.0
  0
LINE
  5
22BD2
  8
0
 10
5263.6528868509058157
 20
-24.0165211817448991
 30
0.0
 11
5263.6528868509058157
 21
-24.0365211817448987
 31
0.0
  0
LINE
  5
22BD3
  8
0
 10
5263.6528868509058157
 20
-24.0365211817448987
 30
0.0
 11
5263.6278868509061795
 21
-24.0365211817448987
 31
0.0
  0
LINE
  5
22BD4
  8
0
 10
5263.6278868509061795
 20
-24.0365211817448987
 30
0.0
 11
5263.6278868509061795
 21
-24.0165211817449098
 31
0.0
  0
LINE
  5
22BD5
  8
0
 10
5263.6578868509059248
 20
-24.0165211817448991
 30
0.0
 11
5263.682886850905561
 21
-24.0165211817448991
 31
0.0
  0
LINE
  5
22BD6
  8
0
 10
5263.682886850905561
 20
-24.0165211817448991
 30
0.0
 11
5263.682886850905561
 21
-24.0365211817448987
 31
0.0
  0
LINE
  5
22BD7
  8
0
 10
5263.682886850905561
 20
-24.0365211817448987
 30
0.0
 11
5263.6578868509059248
 21
-24.0365211817448987
 31
0.0
  0
LINE
  5
22BD8
  8
0
 10
5263.6578868509059248
 20
-24.0365211817448987
 30
0.0
 11
5263.6578868509059248
 21
-24.0165211817449098
 31
0.0
  0
LINE
  5
22BD9
  8
0
 10
5263.6878868509056701
 20
-24.0165211817448991
 30
0.0
 11
5263.7128868509071253
 21
-24.0165211817448991
 31
0.0
  0
LINE
  5
22BDA
  8
0
 10
5263.7128868509071253
 20
-24.0165211817448991
 30
0.0
 11
5263.7128868509071253
 21
-24.0365211817448987
 31
0.0
  0
LINE
  5
22BDB
  8
0
 10
5263.7128868509071253
 20
-24.0365211817448987
 30
0.0
 11
5263.6878868509056701
 21
-24.0365211817448987
 31
0.0
  0
LINE
  5
22BDC
  8
0
 10
5263.6878868509056701
 20
-24.0365211817448987
 30
0.0
 11
5263.6878868509056701
 21
-24.0165211817449098
 31
0.0
  0
LINE
  5
22BDD
  8
0
 10
5263.7428868509059612
 20
-24.0281905063115495
 30
0.0
 11
5263.7428868509059612
 21
-24.0365211817448987
 31
0.0
  0
LINE
  5
22BDE
  8
0
 10
5263.7428868509059612
 20
-24.0365211817448987
 30
0.0
 11
5263.7178868509072345
 21
-24.0365211817448987
 31
0.0
  0
LINE
  5
22BDF
  8
0
 10
5263.7178868509072345
 20
-24.0365211817448987
 30
0.0
 11
5263.7178868509072345
 21
-24.0169736325720002
 31
0.0
  0
LINE
  5
22BE0
  8
0
 10
5263.7574573461915861
 20
-24.0365211817448987
 30
0.0
 11
5263.7478868509060703
 21
-24.0365211817448987
 31
0.0
  0
LINE
  5
22BE1
  8
0
 10
5263.7478868509060703
 20
-24.0365211817448987
 30
0.0
 11
5263.7478868509060703
 21
-24.0308887308930501
 31
0.0
  0
LINE
  5
22BE2
  8
0
 10
5263.4178868509061431
 20
-24.2415211817449112
 30
0.0
 11
5263.4428868509057793
 21
-24.2415211817449112
 31
0.0
  0
LINE
  5
22BE3
  8
0
 10
5263.4428868509057793
 20
-24.2415211817449112
 30
0.0
 11
5263.4428868509057793
 21
-24.2615211817449108
 31
0.0
  0
LINE
  5
22BE4
  8
0
 10
5263.4428868509057793
 20
-24.2615211817449108
 30
0.0
 11
5263.4178868509061431
 21
-24.2615211817449108
 31
0.0
  0
LINE
  5
22BE5
  8
0
 10
5263.4178868509061431
 20
-24.2615211817449108
 30
0.0
 11
5263.4178868509061431
 21
-24.2415211817449112
 31
0.0
  0
LINE
  5
22BE6
  8
0
 10
5263.4478868509058884
 20
-24.2415211817449112
 30
0.0
 11
5263.4728868509064341
 21
-24.2415211817449112
 31
0.0
  0
LINE
  5
22BE7
  8
0
 10
5263.4728868509064341
 20
-24.2415211817449112
 30
0.0
 11
5263.4728868509064341
 21
-24.2615211817449108
 31
0.0
  0
LINE
  5
22BE8
  8
0
 10
5263.4728868509064341
 20
-24.2615211817449108
 30
0.0
 11
5263.4478868509058884
 21
-24.2615211817449108
 31
0.0
  0
LINE
  5
22BE9
  8
0
 10
5263.4478868509058884
 20
-24.2615211817449108
 30
0.0
 11
5263.4478868509058884
 21
-24.2415211817449112
 31
0.0
  0
LINE
  5
22BEA
  8
0
 10
5263.4778868509056338
 20
-24.2415211817449112
 30
0.0
 11
5263.5028868509061795
 21
-24.2415211817449112
 31
0.0
  0
LINE
  5
22BEB
  8
0
 10
5263.5028868509061795
 20
-24.2415211817449112
 30
0.0
 11
5263.5028868509061795
 21
-24.2615211817449108
 31
0.0
  0
LINE
  5
22BEC
  8
0
 10
5263.5028868509061795
 20
-24.2615211817449108
 30
0.0
 11
5263.4778868509056338
 21
-24.2615211817449108
 31
0.0
  0
LINE
  5
22BED
  8
0
 10
5263.4778868509056338
 20
-24.2615211817449108
 30
0.0
 11
5263.4778868509056338
 21
-24.2415211817449112
 31
0.0
  0
LINE
  5
22BEE
  8
0
 10
5263.5078868509062886
 20
-24.2415211817449112
 30
0.0
 11
5263.5328868509068343
 21
-24.2415211817449112
 31
0.0
  0
LINE
  5
22BEF
  8
0
 10
5263.5328868509068343
 20
-24.2415211817449112
 30
0.0
 11
5263.5328868509068343
 21
-24.2615211817449108
 31
0.0
  0
LINE
  5
22BF0
  8
0
 10
5263.5328868509068343
 20
-24.2615211817449108
 30
0.0
 11
5263.5078868509062886
 21
-24.2615211817449108
 31
0.0
  0
LINE
  5
22BF1
  8
0
 10
5263.5078868509062886
 20
-24.2615211817449108
 30
0.0
 11
5263.5078868509062886
 21
-24.2415211817449112
 31
0.0
  0
LINE
  5
22BF2
  8
0
 10
5263.5378868509060339
 20
-24.2415211817449112
 30
0.0
 11
5263.5628868509047606
 21
-24.2415211817449112
 31
0.0
  0
LINE
  5
22BF3
  8
0
 10
5263.5628868509047606
 20
-24.2415211817449112
 30
0.0
 11
5263.5628868509047606
 21
-24.2615211817449108
 31
0.0
  0
LINE
  5
22BF4
  8
0
 10
5263.5628868509047606
 20
-24.2615211817449108
 30
0.0
 11
5263.5378868509060339
 21
-24.2615211817449108
 31
0.0
  0
LINE
  5
22BF5
  8
0
 10
5263.5378868509060339
 20
-24.2615211817449108
 30
0.0
 11
5263.5378868509060339
 21
-24.2415211817449112
 31
0.0
  0
LINE
  5
22BF6
  8
0
 10
5263.5678868509057793
 20
-24.2415211817449112
 30
0.0
 11
5263.592886850906325
 21
-24.2415211817449112
 31
0.0
  0
LINE
  5
22BF7
  8
0
 10
5263.592886850906325
 20
-24.2415211817449112
 30
0.0
 11
5263.592886850906325
 21
-24.2615211817449108
 31
0.0
  0
LINE
  5
22BF8
  8
0
 10
5263.592886850906325
 20
-24.2615211817449108
 30
0.0
 11
5263.5678868509057793
 21
-24.2615211817449108
 31
0.0
  0
LINE
  5
22BF9
  8
0
 10
5263.5678868509057793
 20
-24.2615211817449108
 30
0.0
 11
5263.5678868509057793
 21
-24.2415211817449112
 31
0.0
  0
LINE
  5
22BFA
  8
0
 10
5263.5978868509064341
 20
-24.2415211817449112
 30
0.0
 11
5263.6228868509069798
 21
-24.2415211817449112
 31
0.0
  0
LINE
  5
22BFB
  8
0
 10
5263.6228868509069798
 20
-24.2415211817449112
 30
0.0
 11
5263.6228868509069798
 21
-24.2615211817449108
 31
0.0
  0
LINE
  5
22BFC
  8
0
 10
5263.6228868509069798
 20
-24.2615211817449108
 30
0.0
 11
5263.5978868509064341
 21
-24.2615211817449108
 31
0.0
  0
LINE
  5
22BFD
  8
0
 10
5263.5978868509064341
 20
-24.2615211817449108
 30
0.0
 11
5263.5978868509064341
 21
-24.2415211817449112
 31
0.0
  0
LINE
  5
22BFE
  8
0
 10
5263.6278868509061795
 20
-24.2415211817449112
 30
0.0
 11
5263.6528868509058157
 21
-24.2415211817449112
 31
0.0
  0
LINE
  5
22BFF
  8
0
 10
5263.6528868509058157
 20
-24.2415211817449112
 30
0.0
 11
5263.6528868509058157
 21
-24.2615211817449108
 31
0.0
  0
LINE
  5
22C00
  8
0
 10
5263.6528868509058157
 20
-24.2615211817449108
 30
0.0
 11
5263.6278868509061795
 21
-24.2615211817449108
 31
0.0
  0
LINE
  5
22C01
  8
0
 10
5263.6278868509061795
 20
-24.2615211817449108
 30
0.0
 11
5263.6278868509061795
 21
-24.2415211817449112
 31
0.0
  0
LINE
  5
22C02
  8
0
 10
5263.6578868509059248
 20
-24.2415211817449112
 30
0.0
 11
5263.682886850905561
 21
-24.2415211817449112
 31
0.0
  0
LINE
  5
22C03
  8
0
 10
5263.682886850905561
 20
-24.2415211817449112
 30
0.0
 11
5263.682886850905561
 21
-24.2615211817449108
 31
0.0
  0
LINE
  5
22C04
  8
0
 10
5263.682886850905561
 20
-24.2615211817449108
 30
0.0
 11
5263.6578868509059248
 21
-24.2615211817449108
 31
0.0
  0
LINE
  5
22C05
  8
0
 10
5263.6578868509059248
 20
-24.2615211817449108
 30
0.0
 11
5263.6578868509059248
 21
-24.2415211817449112
 31
0.0
  0
LINE
  5
22C06
  8
0
 10
5263.6878868509056701
 20
-24.2415211817449112
 30
0.0
 11
5263.7128868509071253
 21
-24.2415211817449112
 31
0.0
  0
LINE
  5
22C07
  8
0
 10
5263.7128868509071253
 20
-24.2415211817449112
 30
0.0
 11
5263.7128868509071253
 21
-24.2615211817449108
 31
0.0
  0
LINE
  5
22C08
  8
0
 10
5263.7128868509071253
 20
-24.2615211817449108
 30
0.0
 11
5263.6878868509056701
 21
-24.2615211817449108
 31
0.0
  0
LINE
  5
22C09
  8
0
 10
5263.6878868509056701
 20
-24.2615211817449108
 30
0.0
 11
5263.6878868509056701
 21
-24.2415211817449112
 31
0.0
  0
LINE
  5
22C0A
  8
0
 10
5263.7178868509072345
 20
-24.2415211817449112
 30
0.0
 11
5263.7428868509059612
 21
-24.2415211817449112
 31
0.0
  0
LINE
  5
22C0B
  8
0
 10
5263.7428868509059612
 20
-24.2415211817449112
 30
0.0
 11
5263.7428868509059612
 21
-24.2615211817449108
 31
0.0
  0
LINE
  5
22C0C
  8
0
 10
5263.7428868509059612
 20
-24.2615211817449108
 30
0.0
 11
5263.7178868509072345
 21
-24.2615211817449108
 31
0.0
  0
LINE
  5
22C0D
  8
0
 10
5263.7178868509072345
 20
-24.2615211817449108
 30
0.0
 11
5263.7178868509072345
 21
-24.2415211817449112
 31
0.0
  0
LINE
  5
22C0E
  8
0
 10
5263.7478868509060703
 20
-24.2415211817449112
 30
0.0
 11
5263.772886850904797
 21
-24.2415211817449112
 31
0.0
  0
LINE
  5
22C0F
  8
0
 10
5263.772886850904797
 20
-24.2415211817449112
 30
0.0
 11
5263.772886850904797
 21
-24.2615211817449108
 31
0.0
  0
LINE
  5
22C10
  8
0
 10
5263.772886850904797
 20
-24.2615211817449108
 30
0.0
 11
5263.7478868509060703
 21
-24.2615211817449108
 31
0.0
  0
LINE
  5
22C11
  8
0
 10
5263.7478868509060703
 20
-24.2615211817449108
 30
0.0
 11
5263.7478868509060703
 21
-24.2415211817449112
 31
0.0
  0
LINE
  5
22C12
  8
0
 10
5263.7778868509058157
 20
-24.2415211817449112
 30
0.0
 11
5263.8028868509072709
 21
-24.2415211817449112
 31
0.0
  0
LINE
  5
22C13
  8
0
 10
5263.8028868509072709
 20
-24.2415211817449112
 30
0.0
 11
5263.8028868509072709
 21
-24.2615211817449108
 31
0.0
  0
LINE
  5
22C14
  8
0
 10
5263.8028868509072709
 20
-24.2615211817449108
 30
0.0
 11
5263.7778868509058157
 21
-24.2615211817449108
 31
0.0
  0
LINE
  5
22C15
  8
0
 10
5263.7778868509058157
 20
-24.2615211817449108
 30
0.0
 11
5263.7778868509058157
 21
-24.2415211817449112
 31
0.0
  0
LINE
  5
22C16
  8
0
 10
5263.80788685090738
 20
-24.2415211817449112
 30
0.0
 11
5263.8328868509061067
 21
-24.2415211817449112
 31
0.0
  0
LINE
  5
22C17
  8
0
 10
5263.8328868509061067
 20
-24.2415211817449112
 30
0.0
 11
5263.8328868509061067
 21
-24.2615211817449108
 31
0.0
  0
LINE
  5
22C18
  8
0
 10
5263.8328868509061067
 20
-24.2615211817449108
 30
0.0
 11
5263.80788685090738
 21
-24.2615211817449108
 31
0.0
  0
LINE
  5
22C19
  8
0
 10
5263.80788685090738
 20
-24.2615211817449108
 30
0.0
 11
5263.80788685090738
 21
-24.2415211817449112
 31
0.0
  0
LINE
  5
22C1A
  8
0
 10
5263.8378868509071253
 20
-24.2415211817449112
 30
0.0
 11
5263.862886850905852
 21
-24.2415211817449112
 31
0.0
  0
LINE
  5
22C1B
  8
0
 10
5263.862886850905852
 20
-24.2415211817449112
 30
0.0
 11
5263.862886850905852
 21
-24.2536841598137407
 31
0.0
  0
LINE
  5
22C1C
  8
0
 10
5263.8618794369958778
 20
-24.2615211817449108
 30
0.0
 11
5263.8378868509071253
 21
-24.2615211817449108
 31
0.0
  0
LINE
  5
22C1D
  8
0
 10
5263.8378868509071253
 20
-24.2615211817449108
 30
0.0
 11
5263.8378868509071253
 21
-24.2415211817449112
 31
0.0
  0
LINE
  5
22C1E
  8
0
 10
5263.4118391490283102
 20
-24.2415211817449112
 30
0.0
 11
5263.4128868509060339
 21
-24.2415211817449112
 31
0.0
  0
LINE
  5
22C1F
  8
0
 10
5263.4128868509060339
 20
-24.2415211817449112
 30
0.0
 11
5263.4128868509060339
 21
-24.2536841589115717
 31
0.0
  0
LINE
  5
22C20
  8
0
 10
5263.4178868509061431
 20
-24.2665211817448991
 30
0.0
 11
5263.4428868509057793
 21
-24.2665211817448991
 31
0.0
  0
LINE
  5
22C21
  8
0
 10
5263.4428868509057793
 20
-24.2665211817448991
 30
0.0
 11
5263.4428868509057793
 21
-24.2865211817448987
 31
0.0
  0
LINE
  5
22C22
  8
0
 10
5263.4428868509057793
 20
-24.2865211817448987
 30
0.0
 11
5263.4190059389720773
 21
-24.2865211817448987
 31
0.0
  0
LINE
  5
22C23
  8
0
 10
5263.4178868509061431
 20
-24.2821017577137788
 30
0.0
 11
5263.4178868509061431
 21
-24.2665211817449098
 31
0.0
  0
LINE
  5
22C24
  8
0
 10
5263.4478868509058884
 20
-24.2665211817448991
 30
0.0
 11
5263.4728868509064341
 21
-24.2665211817448991
 31
0.0
  0
LINE
  5
22C25
  8
0
 10
5263.4728868509064341
 20
-24.2665211817448991
 30
0.0
 11
5263.4728868509064341
 21
-24.2865211817448987
 31
0.0
  0
LINE
  5
22C26
  8
0
 10
5263.4728868509064341
 20
-24.2865211817448987
 30
0.0
 11
5263.4478868509058884
 21
-24.2865211817448987
 31
0.0
  0
LINE
  5
22C27
  8
0
 10
5263.4478868509058884
 20
-24.2865211817448987
 30
0.0
 11
5263.4478868509058884
 21
-24.2665211817449098
 31
0.0
  0
LINE
  5
22C28
  8
0
 10
5263.4778868509056338
 20
-24.2665211817448991
 30
0.0
 11
5263.5028868509061795
 21
-24.2665211817448991
 31
0.0
  0
LINE
  5
22C29
  8
0
 10
5263.5028868509061795
 20
-24.2665211817448991
 30
0.0
 11
5263.5028868509061795
 21
-24.2865211817448987
 31
0.0
  0
LINE
  5
22C2A
  8
0
 10
5263.5028868509061795
 20
-24.2865211817448987
 30
0.0
 11
5263.4778868509056338
 21
-24.2865211817448987
 31
0.0
  0
LINE
  5
22C2B
  8
0
 10
5263.4778868509056338
 20
-24.2865211817448987
 30
0.0
 11
5263.4778868509056338
 21
-24.2665211817449098
 31
0.0
  0
LINE
  5
22C2C
  8
0
 10
5263.5078868509062886
 20
-24.2665211817448991
 30
0.0
 11
5263.5328868509068343
 21
-24.2665211817448991
 31
0.0
  0
LINE
  5
22C2D
  8
0
 10
5263.5328868509068343
 20
-24.2665211817448991
 30
0.0
 11
5263.5328868509068343
 21
-24.2865211817448987
 31
0.0
  0
LINE
  5
22C2E
  8
0
 10
5263.5328868509068343
 20
-24.2865211817448987
 30
0.0
 11
5263.5078868509062886
 21
-24.2865211817448987
 31
0.0
  0
LINE
  5
22C2F
  8
0
 10
5263.5078868509062886
 20
-24.2865211817448987
 30
0.0
 11
5263.5078868509062886
 21
-24.2665211817449098
 31
0.0
  0
LINE
  5
22C30
  8
0
 10
5263.5378868509060339
 20
-24.2665211817448991
 30
0.0
 11
5263.5628868509047606
 21
-24.2665211817448991
 31
0.0
  0
LINE
  5
22C31
  8
0
 10
5263.5628868509047606
 20
-24.2665211817448991
 30
0.0
 11
5263.5628868509047606
 21
-24.2865211817448987
 31
0.0
  0
LINE
  5
22C32
  8
0
 10
5263.5628868509047606
 20
-24.2865211817448987
 30
0.0
 11
5263.5378868509060339
 21
-24.2865211817448987
 31
0.0
  0
LINE
  5
22C33
  8
0
 10
5263.5378868509060339
 20
-24.2865211817448987
 30
0.0
 11
5263.5378868509060339
 21
-24.2665211817449098
 31
0.0
  0
LINE
  5
22C34
  8
0
 10
5263.5678868509057793
 20
-24.2665211817448991
 30
0.0
 11
5263.592886850906325
 21
-24.2665211817448991
 31
0.0
  0
LINE
  5
22C35
  8
0
 10
5263.592886850906325
 20
-24.2665211817448991
 30
0.0
 11
5263.592886850906325
 21
-24.2865211817448987
 31
0.0
  0
LINE
  5
22C36
  8
0
 10
5263.592886850906325
 20
-24.2865211817448987
 30
0.0
 11
5263.5678868509057793
 21
-24.2865211817448987
 31
0.0
  0
LINE
  5
22C37
  8
0
 10
5263.5678868509057793
 20
-24.2865211817448987
 30
0.0
 11
5263.5678868509057793
 21
-24.2665211817449098
 31
0.0
  0
LINE
  5
22C38
  8
0
 10
5263.5978868509064341
 20
-24.2665211817448991
 30
0.0
 11
5263.6228868509069798
 21
-24.2665211817448991
 31
0.0
  0
LINE
  5
22C39
  8
0
 10
5263.6228868509069798
 20
-24.2665211817448991
 30
0.0
 11
5263.6228868509069798
 21
-24.2865211817448987
 31
0.0
  0
LINE
  5
22C3A
  8
0
 10
5263.6228868509069798
 20
-24.2865211817448987
 30
0.0
 11
5263.5978868509064341
 21
-24.2865211817448987
 31
0.0
  0
LINE
  5
22C3B
  8
0
 10
5263.5978868509064341
 20
-24.2865211817448987
 30
0.0
 11
5263.5978868509064341
 21
-24.2665211817449098
 31
0.0
  0
LINE
  5
22C3C
  8
0
 10
5263.6278868509061795
 20
-24.2665211817448991
 30
0.0
 11
5263.6528868509058157
 21
-24.2665211817448991
 31
0.0
  0
LINE
  5
22C3D
  8
0
 10
5263.6528868509058157
 20
-24.2665211817448991
 30
0.0
 11
5263.6528868509058157
 21
-24.2865211817448987
 31
0.0
  0
LINE
  5
22C3E
  8
0
 10
5263.6528868509058157
 20
-24.2865211817448987
 30
0.0
 11
5263.6278868509061795
 21
-24.2865211817448987
 31
0.0
  0
LINE
  5
22C3F
  8
0
 10
5263.6278868509061795
 20
-24.2865211817448987
 30
0.0
 11
5263.6278868509061795
 21
-24.2665211817449098
 31
0.0
  0
LINE
  5
22C40
  8
0
 10
5263.6578868509059248
 20
-24.2665211817448991
 30
0.0
 11
5263.682886850905561
 21
-24.2665211817448991
 31
0.0
  0
LINE
  5
22C41
  8
0
 10
5263.682886850905561
 20
-24.2665211817448991
 30
0.0
 11
5263.682886850905561
 21
-24.2865211817448987
 31
0.0
  0
LINE
  5
22C42
  8
0
 10
5263.682886850905561
 20
-24.2865211817448987
 30
0.0
 11
5263.6578868509059248
 21
-24.2865211817448987
 31
0.0
  0
LINE
  5
22C43
  8
0
 10
5263.6578868509059248
 20
-24.2865211817448987
 30
0.0
 11
5263.6578868509059248
 21
-24.2665211817449098
 31
0.0
  0
LINE
  5
22C44
  8
0
 10
5263.6878868509056701
 20
-24.2665211817448991
 30
0.0
 11
5263.7128868509071253
 21
-24.2665211817448991
 31
0.0
  0
LINE
  5
22C45
  8
0
 10
5263.7128868509071253
 20
-24.2665211817448991
 30
0.0
 11
5263.7128868509071253
 21
-24.2865211817448987
 31
0.0
  0
LINE
  5
22C46
  8
0
 10
5263.7128868509071253
 20
-24.2865211817448987
 30
0.0
 11
5263.6878868509056701
 21
-24.2865211817448987
 31
0.0
  0
LINE
  5
22C47
  8
0
 10
5263.6878868509056701
 20
-24.2865211817448987
 30
0.0
 11
5263.6878868509056701
 21
-24.2665211817449098
 31
0.0
  0
LINE
  5
22C48
  8
0
 10
5263.7178868509072345
 20
-24.2665211817448991
 30
0.0
 11
5263.7428868509059612
 21
-24.2665211817448991
 31
0.0
  0
LINE
  5
22C49
  8
0
 10
5263.7428868509059612
 20
-24.2665211817448991
 30
0.0
 11
5263.7428868509059612
 21
-24.2865211817448987
 31
0.0
  0
LINE
  5
22C4A
  8
0
 10
5263.7428868509059612
 20
-24.2865211817448987
 30
0.0
 11
5263.7178868509072345
 21
-24.2865211817448987
 31
0.0
  0
LINE
  5
22C4B
  8
0
 10
5263.7178868509072345
 20
-24.2865211817448987
 30
0.0
 11
5263.7178868509072345
 21
-24.2665211817449098
 31
0.0
  0
LINE
  5
22C4C
  8
0
 10
5263.7478868509060703
 20
-24.2665211817448991
 30
0.0
 11
5263.772886850904797
 21
-24.2665211817448991
 31
0.0
  0
LINE
  5
22C4D
  8
0
 10
5263.772886850904797
 20
-24.2665211817448991
 30
0.0
 11
5263.772886850904797
 21
-24.2865211817448987
 31
0.0
  0
LINE
  5
22C4E
  8
0
 10
5263.772886850904797
 20
-24.2865211817448987
 30
0.0
 11
5263.7478868509060703
 21
-24.2865211817448987
 31
0.0
  0
LINE
  5
22C4F
  8
0
 10
5263.7478868509060703
 20
-24.2865211817448987
 30
0.0
 11
5263.7478868509060703
 21
-24.2665211817449098
 31
0.0
  0
LINE
  5
22C50
  8
0
 10
5263.7778868509058157
 20
-24.2665211817448991
 30
0.0
 11
5263.8028868509072709
 21
-24.2665211817448991
 31
0.0
  0
LINE
  5
22C51
  8
0
 10
5263.8028868509072709
 20
-24.2665211817448991
 30
0.0
 11
5263.8028868509072709
 21
-24.2865211817448987
 31
0.0
  0
LINE
  5
22C52
  8
0
 10
5263.8028868509072709
 20
-24.2865211817448987
 30
0.0
 11
5263.7778868509058157
 21
-24.2865211817448987
 31
0.0
  0
LINE
  5
22C53
  8
0
 10
5263.7778868509058157
 20
-24.2865211817448987
 30
0.0
 11
5263.7778868509058157
 21
-24.2665211817449098
 31
0.0
  0
LINE
  5
22C54
  8
0
 10
5263.80788685090738
 20
-24.2665211817448991
 30
0.0
 11
5263.8328868509061067
 21
-24.2665211817448991
 31
0.0
  0
LINE
  5
22C55
  8
0
 10
5263.8328868509061067
 20
-24.2665211817448991
 30
0.0
 11
5263.8328868509061067
 21
-24.2865211817448987
 31
0.0
  0
LINE
  5
22C56
  8
0
 10
5263.8328868509061067
 20
-24.2865211817448987
 30
0.0
 11
5263.80788685090738
 21
-24.2865211817448987
 31
0.0
  0
LINE
  5
22C57
  8
0
 10
5263.80788685090738
 20
-24.2865211817448987
 30
0.0
 11
5263.80788685090738
 21
-24.2665211817449098
 31
0.0
  0
LINE
  5
22C58
  8
0
 10
5263.8378868509071253
 20
-24.2665211817448991
 30
0.0
 11
5263.8610906000449177
 21
-24.2665211817448991
 31
0.0
  0
LINE
  5
22C59
  8
0
 10
5263.8567677629389436
 20
-24.2865211817448987
 30
0.0
 11
5263.8378868509071253
 21
-24.2865211817448987
 31
0.0
  0
LINE
  5
22C5A
  8
0
 10
5263.8378868509071253
 20
-24.2865211817448987
 30
0.0
 11
5263.8378868509071253
 21
-24.2665211817449098
 31
0.0
  0
LINE
  5
22C5B
  8
0
 10
5263.4203872219059122
 20
-24.2915211817449084
 30
0.0
 11
5263.4428868509057793
 21
-24.2915211817449013
 31
0.0
  0
LINE
  5
22C5C
  8
0
 10
5263.4428868509057793
 20
-24.2915211817449013
 30
0.0
 11
5263.4428868509057793
 21
-24.3115211817449008
 31
0.0
  0
LINE
  5
22C5D
  8
0
 10
5263.4428868509057793
 20
-24.3115211817449008
 30
0.0
 11
5263.4271855726947251
 21
-24.3115211817449008
 31
0.0
  0
LINE
  5
22C5E
  8
0
 10
5263.4478868509058884
 20
-24.2915211817449013
 30
0.0
 11
5263.4728868509064341
 21
-24.2915211817449013
 31
0.0
  0
LINE
  5
22C5F
  8
0
 10
5263.4728868509064341
 20
-24.2915211817449013
 30
0.0
 11
5263.4728868509064341
 21
-24.3115211817449008
 31
0.0
  0
LINE
  5
22C60
  8
0
 10
5263.4728868509064341
 20
-24.3115211817449008
 30
0.0
 11
5263.4478868509058884
 21
-24.3115211817449008
 31
0.0
  0
LINE
  5
22C61
  8
0
 10
5263.4478868509058884
 20
-24.3115211817449008
 30
0.0
 11
5263.4478868509058884
 21
-24.2915211817449084
 31
0.0
  0
LINE
  5
22C62
  8
0
 10
5263.4778868509056338
 20
-24.2915211817449013
 30
0.0
 11
5263.5028868509061795
 21
-24.2915211817449013
 31
0.0
  0
LINE
  5
22C63
  8
0
 10
5263.5028868509061795
 20
-24.2915211817449013
 30
0.0
 11
5263.5028868509061795
 21
-24.3115211817449008
 31
0.0
  0
LINE
  5
22C64
  8
0
 10
5263.5028868509061795
 20
-24.3115211817449008
 30
0.0
 11
5263.4778868509056338
 21
-24.3115211817449008
 31
0.0
  0
LINE
  5
22C65
  8
0
 10
5263.4778868509056338
 20
-24.3115211817449008
 30
0.0
 11
5263.4778868509056338
 21
-24.2915211817449084
 31
0.0
  0
LINE
  5
22C66
  8
0
 10
5263.5078868509062886
 20
-24.2915211817449013
 30
0.0
 11
5263.5328868509068343
 21
-24.2915211817449013
 31
0.0
  0
LINE
  5
22C67
  8
0
 10
5263.5328868509068343
 20
-24.2915211817449013
 30
0.0
 11
5263.5328868509068343
 21
-24.3115211817449008
 31
0.0
  0
LINE
  5
22C68
  8
0
 10
5263.5328868509068343
 20
-24.3115211817449008
 30
0.0
 11
5263.5078868509062886
 21
-24.3115211817449008
 31
0.0
  0
LINE
  5
22C69
  8
0
 10
5263.5078868509062886
 20
-24.3115211817449008
 30
0.0
 11
5263.5078868509062886
 21
-24.2915211817449084
 31
0.0
  0
LINE
  5
22C6A
  8
0
 10
5263.5378868509060339
 20
-24.2915211817449013
 30
0.0
 11
5263.5628868509047606
 21
-24.2915211817449013
 31
0.0
  0
LINE
  5
22C6B
  8
0
 10
5263.5628868509047606
 20
-24.2915211817449013
 30
0.0
 11
5263.5628868509047606
 21
-24.3115211817449008
 31
0.0
  0
LINE
  5
22C6C
  8
0
 10
5263.5628868509047606
 20
-24.3115211817449008
 30
0.0
 11
5263.5378868509060339
 21
-24.3115211817449008
 31
0.0
  0
LINE
  5
22C6D
  8
0
 10
5263.5378868509060339
 20
-24.3115211817449008
 30
0.0
 11
5263.5378868509060339
 21
-24.2915211817449084
 31
0.0
  0
LINE
  5
22C6E
  8
0
 10
5263.5678868509057793
 20
-24.2915211817449013
 30
0.0
 11
5263.592886850906325
 21
-24.2915211817449013
 31
0.0
  0
LINE
  5
22C6F
  8
0
 10
5263.592886850906325
 20
-24.2915211817449013
 30
0.0
 11
5263.592886850906325
 21
-24.3115211817449008
 31
0.0
  0
LINE
  5
22C70
  8
0
 10
5263.592886850906325
 20
-24.3115211817449008
 30
0.0
 11
5263.5678868509057793
 21
-24.3115211817449008
 31
0.0
  0
LINE
  5
22C71
  8
0
 10
5263.5678868509057793
 20
-24.3115211817449008
 30
0.0
 11
5263.5678868509057793
 21
-24.2915211817449084
 31
0.0
  0
LINE
  5
22C72
  8
0
 10
5263.5978868509064341
 20
-24.2915211817449013
 30
0.0
 11
5263.6228868509069798
 21
-24.2915211817449013
 31
0.0
  0
LINE
  5
22C73
  8
0
 10
5263.6228868509069798
 20
-24.2915211817449013
 30
0.0
 11
5263.6228868509069798
 21
-24.3115211817449008
 31
0.0
  0
LINE
  5
22C74
  8
0
 10
5263.6228868509069798
 20
-24.3115211817449008
 30
0.0
 11
5263.5978868509064341
 21
-24.3115211817449008
 31
0.0
  0
LINE
  5
22C75
  8
0
 10
5263.5978868509064341
 20
-24.3115211817449008
 30
0.0
 11
5263.5978868509064341
 21
-24.2915211817449084
 31
0.0
  0
LINE
  5
22C76
  8
0
 10
5263.6278868509061795
 20
-24.2915211817449013
 30
0.0
 11
5263.6528868509058157
 21
-24.2915211817449013
 31
0.0
  0
LINE
  5
22C77
  8
0
 10
5263.6528868509058157
 20
-24.2915211817449013
 30
0.0
 11
5263.6528868509058157
 21
-24.3115211817449008
 31
0.0
  0
LINE
  5
22C78
  8
0
 10
5263.6528868509058157
 20
-24.3115211817449008
 30
0.0
 11
5263.6278868509061795
 21
-24.3115211817449008
 31
0.0
  0
LINE
  5
22C79
  8
0
 10
5263.6278868509061795
 20
-24.3115211817449008
 30
0.0
 11
5263.6278868509061795
 21
-24.2915211817449084
 31
0.0
  0
LINE
  5
22C7A
  8
0
 10
5263.6578868509059248
 20
-24.2915211817449013
 30
0.0
 11
5263.682886850905561
 21
-24.2915211817449013
 31
0.0
  0
LINE
  5
22C7B
  8
0
 10
5263.682886850905561
 20
-24.2915211817449013
 30
0.0
 11
5263.682886850905561
 21
-24.3115211817449008
 31
0.0
  0
LINE
  5
22C7C
  8
0
 10
5263.682886850905561
 20
-24.3115211817449008
 30
0.0
 11
5263.6578868509059248
 21
-24.3115211817449008
 31
0.0
  0
LINE
  5
22C7D
  8
0
 10
5263.6578868509059248
 20
-24.3115211817449008
 30
0.0
 11
5263.6578868509059248
 21
-24.2915211817449084
 31
0.0
  0
LINE
  5
22C7E
  8
0
 10
5263.6878868509056701
 20
-24.2915211817449013
 30
0.0
 11
5263.7128868509071253
 21
-24.2915211817449013
 31
0.0
  0
LINE
  5
22C7F
  8
0
 10
5263.7128868509071253
 20
-24.2915211817449013
 30
0.0
 11
5263.7128868509071253
 21
-24.3115211817449008
 31
0.0
  0
LINE
  5
22C80
  8
0
 10
5263.7128868509071253
 20
-24.3115211817449008
 30
0.0
 11
5263.6878868509056701
 21
-24.3115211817449008
 31
0.0
  0
LINE
  5
22C81
  8
0
 10
5263.6878868509056701
 20
-24.3115211817449008
 30
0.0
 11
5263.6878868509056701
 21
-24.2915211817449084
 31
0.0
  0
LINE
  5
22C82
  8
0
 10
5263.7178868509072345
 20
-24.2915211817449013
 30
0.0
 11
5263.7428868509059612
 21
-24.2915211817449013
 31
0.0
  0
LINE
  5
22C83
  8
0
 10
5263.7428868509059612
 20
-24.2915211817449013
 30
0.0
 11
5263.7428868509059612
 21
-24.3115211817449008
 31
0.0
  0
LINE
  5
22C84
  8
0
 10
5263.7428868509059612
 20
-24.3115211817449008
 30
0.0
 11
5263.7178868509072345
 21
-24.3115211817449008
 31
0.0
  0
LINE
  5
22C85
  8
0
 10
5263.7178868509072345
 20
-24.3115211817449008
 30
0.0
 11
5263.7178868509072345
 21
-24.2915211817449084
 31
0.0
  0
LINE
  5
22C86
  8
0
 10
5263.7478868509060703
 20
-24.2915211817449013
 30
0.0
 11
5263.772886850904797
 21
-24.2915211817449013
 31
0.0
  0
LINE
  5
22C87
  8
0
 10
5263.772886850904797
 20
-24.2915211817449013
 30
0.0
 11
5263.772886850904797
 21
-24.3115211817449008
 31
0.0
  0
LINE
  5
22C88
  8
0
 10
5263.772886850904797
 20
-24.3115211817449008
 30
0.0
 11
5263.7478868509060703
 21
-24.3115211817449008
 31
0.0
  0
LINE
  5
22C89
  8
0
 10
5263.7478868509060703
 20
-24.3115211817449008
 30
0.0
 11
5263.7478868509060703
 21
-24.2915211817449084
 31
0.0
  0
LINE
  5
22C8A
  8
0
 10
5263.7778868509058157
 20
-24.2915211817449013
 30
0.0
 11
5263.8028868509072709
 21
-24.2915211817449013
 31
0.0
  0
LINE
  5
22C8B
  8
0
 10
5263.8028868509072709
 20
-24.2915211817449013
 30
0.0
 11
5263.8028868509072709
 21
-24.3115211817449008
 31
0.0
  0
LINE
  5
22C8C
  8
0
 10
5263.8028868509072709
 20
-24.3115211817449008
 30
0.0
 11
5263.7778868509058157
 21
-24.3115211817449008
 31
0.0
  0
LINE
  5
22C8D
  8
0
 10
5263.7778868509058157
 20
-24.3115211817449008
 30
0.0
 11
5263.7778868509058157
 21
-24.2915211817449084
 31
0.0
  0
LINE
  5
22C8E
  8
0
 10
5263.80788685090738
 20
-24.2915211817449013
 30
0.0
 11
5263.8328868509061067
 21
-24.2915211817449013
 31
0.0
  0
LINE
  5
22C8F
  8
0
 10
5263.8328868509061067
 20
-24.2915211817449013
 30
0.0
 11
5263.8328868509061067
 21
-24.3115211817449008
 31
0.0
  0
LINE
  5
22C90
  8
0
 10
5263.8328868509061067
 20
-24.3115211817449008
 30
0.0
 11
5263.80788685090738
 21
-24.3115211817449008
 31
0.0
  0
LINE
  5
22C91
  8
0
 10
5263.80788685090738
 20
-24.3115211817449008
 30
0.0
 11
5263.80788685090738
 21
-24.2915211817449084
 31
0.0
  0
LINE
  5
22C92
  8
0
 10
5263.8378868509071253
 20
-24.2915211817449013
 30
0.0
 11
5263.8553864800060182
 21
-24.2915211817449084
 31
0.0
  0
LINE
  5
22C93
  8
0
 10
5263.8485881292172053
 20
-24.3115211817449008
 30
0.0
 11
5263.8378868509071253
 21
-24.3115211817449008
 31
0.0
  0
LINE
  5
22C94
  8
0
 10
5263.8378868509071253
 20
-24.3115211817449008
 30
0.0
 11
5263.8378868509071253
 21
-24.2915211817449084
 31
0.0
  0
LINE
  5
22C95
  8
0
 10
5263.4292190200221739
 20
-24.3165211817448998
 30
0.0
 11
5263.4428868509057793
 21
-24.3165211817448998
 31
0.0
  0
LINE
  5
22C96
  8
0
 10
5263.4428868509057793
 20
-24.3165211817448998
 30
0.0
 11
5263.4428868509057793
 21
-24.3365211817449101
 31
0.0
  0
LINE
  5
22C97
  8
0
 10
5263.4428868509057793
 20
-24.3365211817449101
 30
0.0
 11
5263.4388109767496644
 21
-24.3365211817449101
 31
0.0
  0
LINE
  5
22C98
  8
0
 10
5263.4478868509058884
 20
-24.3165211817448998
 30
0.0
 11
5263.4728868509064341
 21
-24.3165211817448998
 31
0.0
  0
LINE
  5
22C99
  8
0
 10
5263.4728868509064341
 20
-24.3165211817448998
 30
0.0
 11
5263.4728868509064341
 21
-24.3365211817449101
 31
0.0
  0
LINE
  5
22C9A
  8
0
 10
5263.4728868509064341
 20
-24.3365211817449101
 30
0.0
 11
5263.4478868509058884
 21
-24.3365211817449101
 31
0.0
  0
LINE
  5
22C9B
  8
0
 10
5263.4478868509058884
 20
-24.3365211817449101
 30
0.0
 11
5263.4478868509058884
 21
-24.3165211817449105
 31
0.0
  0
LINE
  5
22C9C
  8
0
 10
5263.4778868509056338
 20
-24.3165211817448998
 30
0.0
 11
5263.5028868509061795
 21
-24.3165211817448998
 31
0.0
  0
LINE
  5
22C9D
  8
0
 10
5263.5028868509061795
 20
-24.3165211817448998
 30
0.0
 11
5263.5028868509061795
 21
-24.3365211817449101
 31
0.0
  0
LINE
  5
22C9E
  8
0
 10
5263.5028868509061795
 20
-24.3365211817449101
 30
0.0
 11
5263.4778868509056338
 21
-24.3365211817449101
 31
0.0
  0
LINE
  5
22C9F
  8
0
 10
5263.4778868509056338
 20
-24.3365211817449101
 30
0.0
 11
5263.4778868509056338
 21
-24.3165211817449105
 31
0.0
  0
LINE
  5
22CA0
  8
0
 10
5263.5078868509062886
 20
-24.3165211817448998
 30
0.0
 11
5263.5328868509068343
 21
-24.3165211817448998
 31
0.0
  0
LINE
  5
22CA1
  8
0
 10
5263.5328868509068343
 20
-24.3165211817448998
 30
0.0
 11
5263.5328868509068343
 21
-24.3365211817449101
 31
0.0
  0
LINE
  5
22CA2
  8
0
 10
5263.5328868509068343
 20
-24.3365211817449101
 30
0.0
 11
5263.5078868509062886
 21
-24.3365211817449101
 31
0.0
  0
LINE
  5
22CA3
  8
0
 10
5263.5078868509062886
 20
-24.3365211817449101
 30
0.0
 11
5263.5078868509062886
 21
-24.3165211817449105
 31
0.0
  0
LINE
  5
22CA4
  8
0
 10
5263.5378868509060339
 20
-24.3165211817448998
 30
0.0
 11
5263.5628868509047606
 21
-24.3165211817448998
 31
0.0
  0
LINE
  5
22CA5
  8
0
 10
5263.5628868509047606
 20
-24.3165211817448998
 30
0.0
 11
5263.5628868509047606
 21
-24.3365211817449101
 31
0.0
  0
LINE
  5
22CA6
  8
0
 10
5263.5628868509047606
 20
-24.3365211817449101
 30
0.0
 11
5263.5378868509060339
 21
-24.3365211817449101
 31
0.0
  0
LINE
  5
22CA7
  8
0
 10
5263.5378868509060339
 20
-24.3365211817449101
 30
0.0
 11
5263.5378868509060339
 21
-24.3165211817449105
 31
0.0
  0
LINE
  5
22CA8
  8
0
 10
5263.5678868509057793
 20
-24.3165211817448998
 30
0.0
 11
5263.592886850906325
 21
-24.3165211817448998
 31
0.0
  0
LINE
  5
22CA9
  8
0
 10
5263.592886850906325
 20
-24.3165211817448998
 30
0.0
 11
5263.592886850906325
 21
-24.3365211817449101
 31
0.0
  0
LINE
  5
22CAA
  8
0
 10
5263.592886850906325
 20
-24.3365211817449101
 30
0.0
 11
5263.5678868509057793
 21
-24.3365211817449101
 31
0.0
  0
LINE
  5
22CAB
  8
0
 10
5263.5678868509057793
 20
-24.3365211817449101
 30
0.0
 11
5263.5678868509057793
 21
-24.3165211817449105
 31
0.0
  0
LINE
  5
22CAC
  8
0
 10
5263.5978868509064341
 20
-24.3165211817448998
 30
0.0
 11
5263.6228868509069798
 21
-24.3165211817448998
 31
0.0
  0
LINE
  5
22CAD
  8
0
 10
5263.6228868509069798
 20
-24.3165211817448998
 30
0.0
 11
5263.6228868509069798
 21
-24.3365211817449101
 31
0.0
  0
LINE
  5
22CAE
  8
0
 10
5263.6228868509069798
 20
-24.3365211817449101
 30
0.0
 11
5263.5978868509064341
 21
-24.3365211817449101
 31
0.0
  0
LINE
  5
22CAF
  8
0
 10
5263.5978868509064341
 20
-24.3365211817449101
 30
0.0
 11
5263.5978868509064341
 21
-24.3165211817449105
 31
0.0
  0
LINE
  5
22CB0
  8
0
 10
5263.6278868509061795
 20
-24.3165211817448998
 30
0.0
 11
5263.6528868509058157
 21
-24.3165211817448998
 31
0.0
  0
LINE
  5
22CB1
  8
0
 10
5263.6528868509058157
 20
-24.3165211817448998
 30
0.0
 11
5263.6528868509058157
 21
-24.3365211817449101
 31
0.0
  0
LINE
  5
22CB2
  8
0
 10
5263.6528868509058157
 20
-24.3365211817449101
 30
0.0
 11
5263.6278868509061795
 21
-24.3365211817449101
 31
0.0
  0
LINE
  5
22CB3
  8
0
 10
5263.6278868509061795
 20
-24.3365211817449101
 30
0.0
 11
5263.6278868509061795
 21
-24.3165211817449105
 31
0.0
  0
LINE
  5
22CB4
  8
0
 10
5263.6578868509059248
 20
-24.3165211817448998
 30
0.0
 11
5263.682886850905561
 21
-24.3165211817448998
 31
0.0
  0
LINE
  5
22CB5
  8
0
 10
5263.682886850905561
 20
-24.3165211817448998
 30
0.0
 11
5263.682886850905561
 21
-24.3365211817449101
 31
0.0
  0
LINE
  5
22CB6
  8
0
 10
5263.682886850905561
 20
-24.3365211817449101
 30
0.0
 11
5263.6578868509059248
 21
-24.3365211817449101
 31
0.0
  0
LINE
  5
22CB7
  8
0
 10
5263.6578868509059248
 20
-24.3365211817449101
 30
0.0
 11
5263.6578868509059248
 21
-24.3165211817449105
 31
0.0
  0
LINE
  5
22CB8
  8
0
 10
5263.6878868509056701
 20
-24.3165211817448998
 30
0.0
 11
5263.7128868509071253
 21
-24.3165211817448998
 31
0.0
  0
LINE
  5
22CB9
  8
0
 10
5263.7128868509071253
 20
-24.3165211817448998
 30
0.0
 11
5263.7128868509071253
 21
-24.3365211817449101
 31
0.0
  0
LINE
  5
22CBA
  8
0
 10
5263.7128868509071253
 20
-24.3365211817449101
 30
0.0
 11
5263.6878868509056701
 21
-24.3365211817449101
 31
0.0
  0
LINE
  5
22CBB
  8
0
 10
5263.6878868509056701
 20
-24.3365211817449101
 30
0.0
 11
5263.6878868509056701
 21
-24.3165211817449105
 31
0.0
  0
LINE
  5
22CBC
  8
0
 10
5263.7178868509072345
 20
-24.3165211817448998
 30
0.0
 11
5263.7428868509059612
 21
-24.3165211817448998
 31
0.0
  0
LINE
  5
22CBD
  8
0
 10
5263.7428868509059612
 20
-24.3165211817448998
 30
0.0
 11
5263.7428868509059612
 21
-24.3365211817449101
 31
0.0
  0
LINE
  5
22CBE
  8
0
 10
5263.7428868509059612
 20
-24.3365211817449101
 30
0.0
 11
5263.7178868509072345
 21
-24.3365211817449101
 31
0.0
  0
LINE
  5
22CBF
  8
0
 10
5263.7178868509072345
 20
-24.3365211817449101
 30
0.0
 11
5263.7178868509072345
 21
-24.3165211817449105
 31
0.0
  0
LINE
  5
22CC0
  8
0
 10
5263.7478868509060703
 20
-24.3165211817448998
 30
0.0
 11
5263.772886850904797
 21
-24.3165211817448998
 31
0.0
  0
LINE
  5
22CC1
  8
0
 10
5263.772886850904797
 20
-24.3165211817448998
 30
0.0
 11
5263.772886850904797
 21
-24.3365211817449101
 31
0.0
  0
LINE
  5
22CC2
  8
0
 10
5263.772886850904797
 20
-24.3365211817449101
 30
0.0
 11
5263.7478868509060703
 21
-24.3365211817449101
 31
0.0
  0
LINE
  5
22CC3
  8
0
 10
5263.7478868509060703
 20
-24.3365211817449101
 30
0.0
 11
5263.7478868509060703
 21
-24.3165211817449105
 31
0.0
  0
LINE
  5
22CC4
  8
0
 10
5263.7778868509058157
 20
-24.3165211817448998
 30
0.0
 11
5263.8028868509072709
 21
-24.3165211817448998
 31
0.0
  0
LINE
  5
22CC5
  8
0
 10
5263.8028868509072709
 20
-24.3165211817448998
 30
0.0
 11
5263.8028868509072709
 21
-24.3365211817449101
 31
0.0
  0
LINE
  5
22CC6
  8
0
 10
5263.8028868509072709
 20
-24.3365211817449101
 30
0.0
 11
5263.7778868509058157
 21
-24.3365211817449101
 31
0.0
  0
LINE
  5
22CC7
  8
0
 10
5263.7778868509058157
 20
-24.3365211817449101
 30
0.0
 11
5263.7778868509058157
 21
-24.3165211817449105
 31
0.0
  0
LINE
  5
22CC8
  8
0
 10
5263.80788685090738
 20
-24.3165211817448998
 30
0.0
 11
5263.8328868509061067
 21
-24.3165211817448998
 31
0.0
  0
LINE
  5
22CC9
  8
0
 10
5263.8328868509061067
 20
-24.3165211817448998
 30
0.0
 11
5263.8328868509061067
 21
-24.3365211817449101
 31
0.0
  0
LINE
  5
22CCA
  8
0
 10
5263.8328868509061067
 20
-24.3365211817449101
 30
0.0
 11
5263.80788685090738
 21
-24.3365211817449101
 31
0.0
  0
LINE
  5
22CCB
  8
0
 10
5263.80788685090738
 20
-24.3365211817449101
 30
0.0
 11
5263.80788685090738
 21
-24.3165211817449105
 31
0.0
  0
LINE
  5
22CCC
  8
0
 10
5263.8378868509071253
 20
-24.3165211817448998
 30
0.0
 11
5263.8465546818897565
 21
-24.3165211817448998
 31
0.0
  0
LINE
  5
22CCD
  8
0
 10
5263.8378868509071253
 20
-24.3347964505240313
 30
0.0
 11
5263.8378868509071253
 21
-24.3165211817449105
 31
0.0
  0
LINE
  5
22CCE
  8
0
 10
5263.4416002271200341
 20
-24.3415211817448984
 30
0.0
 11
5263.4428868509057793
 21
-24.3415211817448984
 31
0.0
  0
LINE
  5
22CCF
  8
0
 10
5263.4428868509057793
 20
-24.3415211817448984
 30
0.0
 11
5263.4428868509057793
 21
-24.3437315402653596
 31
0.0
  0
LINE
  5
22CD0
  8
0
 10
5263.4478868509058884
 20
-24.3415211817448984
 30
0.0
 11
5263.4728868509064341
 21
-24.3415211817448984
 31
0.0
  0
LINE
  5
22CD1
  8
0
 10
5263.4728868509064341
 20
-24.3415211817448984
 30
0.0
 11
5263.4728868509064341
 21
-24.3615211817449016
 31
0.0
  0
LINE
  5
22CD2
  8
0
 10
5263.4728868509064341
 20
-24.3615211817449016
 30
0.0
 11
5263.4545364249379418
 21
-24.3615211817449016
 31
0.0
  0
LINE
  5
22CD3
  8
0
 10
5263.4478868509058884
 20
-24.3518177398957683
 30
0.0
 11
5263.4478868509058884
 21
-24.3415211817449091
 31
0.0
  0
LINE
  5
22CD4
  8
0
 10
5263.4778868509056338
 20
-24.3415211817448984
 30
0.0
 11
5263.5028868509061795
 21
-24.3415211817448984
 31
0.0
  0
LINE
  5
22CD5
  8
0
 10
5263.5028868509061795
 20
-24.3415211817448984
 30
0.0
 11
5263.5028868509061795
 21
-24.3615211817449016
 31
0.0
  0
LINE
  5
22CD6
  8
0
 10
5263.5028868509061795
 20
-24.3615211817449016
 30
0.0
 11
5263.4778868509056338
 21
-24.3615211817449016
 31
0.0
  0
LINE
  5
22CD7
  8
0
 10
5263.4778868509056338
 20
-24.3615211817449016
 30
0.0
 11
5263.4778868509056338
 21
-24.3415211817449091
 31
0.0
  0
LINE
  5
22CD8
  8
0
 10
5263.5078868509062886
 20
-24.3415211817448984
 30
0.0
 11
5263.5328868509068343
 21
-24.3415211817448984
 31
0.0
  0
LINE
  5
22CD9
  8
0
 10
5263.5328868509068343
 20
-24.3415211817448984
 30
0.0
 11
5263.5328868509068343
 21
-24.3615211817449016
 31
0.0
  0
LINE
  5
22CDA
  8
0
 10
5263.5328868509068343
 20
-24.3615211817449016
 30
0.0
 11
5263.5078868509062886
 21
-24.3615211817449016
 31
0.0
  0
LINE
  5
22CDB
  8
0
 10
5263.5078868509062886
 20
-24.3615211817449016
 30
0.0
 11
5263.5078868509062886
 21
-24.3415211817449091
 31
0.0
  0
LINE
  5
22CDC
  8
0
 10
5263.5378868509060339
 20
-24.3415211817448984
 30
0.0
 11
5263.5628868509047606
 21
-24.3415211817448984
 31
0.0
  0
LINE
  5
22CDD
  8
0
 10
5263.5628868509047606
 20
-24.3415211817448984
 30
0.0
 11
5263.5628868509047606
 21
-24.3615211817449016
 31
0.0
  0
LINE
  5
22CDE
  8
0
 10
5263.5628868509047606
 20
-24.3615211817449016
 30
0.0
 11
5263.5378868509060339
 21
-24.3615211817449016
 31
0.0
  0
LINE
  5
22CDF
  8
0
 10
5263.5378868509060339
 20
-24.3615211817449016
 30
0.0
 11
5263.5378868509060339
 21
-24.3415211817449091
 31
0.0
  0
LINE
  5
22CE0
  8
0
 10
5263.5678868509057793
 20
-24.3415211817448984
 30
0.0
 11
5263.592886850906325
 21
-24.3415211817448984
 31
0.0
  0
LINE
  5
22CE1
  8
0
 10
5263.592886850906325
 20
-24.3415211817448984
 30
0.0
 11
5263.592886850906325
 21
-24.3615211817449016
 31
0.0
  0
LINE
  5
22CE2
  8
0
 10
5263.592886850906325
 20
-24.3615211817449016
 30
0.0
 11
5263.5678868509057793
 21
-24.3615211817449016
 31
0.0
  0
LINE
  5
22CE3
  8
0
 10
5263.5678868509057793
 20
-24.3615211817449016
 30
0.0
 11
5263.5678868509057793
 21
-24.3415211817449091
 31
0.0
  0
LINE
  5
22CE4
  8
0
 10
5263.5978868509064341
 20
-24.3415211817448984
 30
0.0
 11
5263.6228868509069798
 21
-24.3415211817448984
 31
0.0
  0
LINE
  5
22CE5
  8
0
 10
5263.6228868509069798
 20
-24.3415211817448984
 30
0.0
 11
5263.6228868509069798
 21
-24.3615211817449016
 31
0.0
  0
LINE
  5
22CE6
  8
0
 10
5263.6228868509069798
 20
-24.3615211817449016
 30
0.0
 11
5263.5978868509064341
 21
-24.3615211817449016
 31
0.0
  0
LINE
  5
22CE7
  8
0
 10
5263.5978868509064341
 20
-24.3615211817449016
 30
0.0
 11
5263.5978868509064341
 21
-24.3415211817449091
 31
0.0
  0
LINE
  5
22CE8
  8
0
 10
5263.6278868509061795
 20
-24.3415211817448984
 30
0.0
 11
5263.6528868509058157
 21
-24.3415211817448984
 31
0.0
  0
LINE
  5
22CE9
  8
0
 10
5263.6528868509058157
 20
-24.3415211817448984
 30
0.0
 11
5263.6528868509058157
 21
-24.3615211817449016
 31
0.0
  0
LINE
  5
22CEA
  8
0
 10
5263.6528868509058157
 20
-24.3615211817449016
 30
0.0
 11
5263.6278868509061795
 21
-24.3615211817449016
 31
0.0
  0
LINE
  5
22CEB
  8
0
 10
5263.6278868509061795
 20
-24.3615211817449016
 30
0.0
 11
5263.6278868509061795
 21
-24.3415211817449091
 31
0.0
  0
LINE
  5
22CEC
  8
0
 10
5263.6578868509059248
 20
-24.3415211817448984
 30
0.0
 11
5263.682886850905561
 21
-24.3415211817448984
 31
0.0
  0
LINE
  5
22CED
  8
0
 10
5263.682886850905561
 20
-24.3415211817448984
 30
0.0
 11
5263.682886850905561
 21
-24.3615211817449016
 31
0.0
  0
LINE
  5
22CEE
  8
0
 10
5263.682886850905561
 20
-24.3615211817449016
 30
0.0
 11
5263.6578868509059248
 21
-24.3615211817449016
 31
0.0
  0
LINE
  5
22CEF
  8
0
 10
5263.6578868509059248
 20
-24.3615211817449016
 30
0.0
 11
5263.6578868509059248
 21
-24.3415211817449091
 31
0.0
  0
LINE
  5
22CF0
  8
0
 10
5263.6878868509056701
 20
-24.3415211817448984
 30
0.0
 11
5263.7128868509071253
 21
-24.3415211817448984
 31
0.0
  0
LINE
  5
22CF1
  8
0
 10
5263.7128868509071253
 20
-24.3415211817448984
 30
0.0
 11
5263.7128868509071253
 21
-24.3615211817449016
 31
0.0
  0
LINE
  5
22CF2
  8
0
 10
5263.7128868509071253
 20
-24.3615211817449016
 30
0.0
 11
5263.6878868509056701
 21
-24.3615211817449016
 31
0.0
  0
LINE
  5
22CF3
  8
0
 10
5263.6878868509056701
 20
-24.3615211817449016
 30
0.0
 11
5263.6878868509056701
 21
-24.3415211817449091
 31
0.0
  0
LINE
  5
22CF4
  8
0
 10
5263.7178868509072345
 20
-24.3415211817448984
 30
0.0
 11
5263.7428868509059612
 21
-24.3415211817448984
 31
0.0
  0
LINE
  5
22CF5
  8
0
 10
5263.7428868509059612
 20
-24.3415211817448984
 30
0.0
 11
5263.7428868509059612
 21
-24.3615211817449016
 31
0.0
  0
LINE
  5
22CF6
  8
0
 10
5263.7428868509059612
 20
-24.3615211817449016
 30
0.0
 11
5263.7178868509072345
 21
-24.3615211817449016
 31
0.0
  0
LINE
  5
22CF7
  8
0
 10
5263.7178868509072345
 20
-24.3615211817449016
 30
0.0
 11
5263.7178868509072345
 21
-24.3415211817449091
 31
0.0
  0
LINE
  5
22CF8
  8
0
 10
5263.7478868509060703
 20
-24.3415211817448984
 30
0.0
 11
5263.772886850904797
 21
-24.3415211817448984
 31
0.0
  0
LINE
  5
22CF9
  8
0
 10
5263.772886850904797
 20
-24.3415211817448984
 30
0.0
 11
5263.772886850904797
 21
-24.3615211817449016
 31
0.0
  0
LINE
  5
22CFA
  8
0
 10
5263.772886850904797
 20
-24.3615211817449016
 30
0.0
 11
5263.7478868509060703
 21
-24.3615211817449016
 31
0.0
  0
LINE
  5
22CFB
  8
0
 10
5263.7478868509060703
 20
-24.3615211817449016
 30
0.0
 11
5263.7478868509060703
 21
-24.3415211817449091
 31
0.0
  0
LINE
  5
22CFC
  8
0
 10
5263.7778868509058157
 20
-24.3415211817448984
 30
0.0
 11
5263.8028868509072709
 21
-24.3415211817448984
 31
0.0
  0
LINE
  5
22CFD
  8
0
 10
5263.8028868509072709
 20
-24.3415211817448984
 30
0.0
 11
5263.8028868509072709
 21
-24.3615211817449016
 31
0.0
  0
LINE
  5
22CFE
  8
0
 10
5263.8028868509072709
 20
-24.3615211817449016
 30
0.0
 11
5263.7778868509058157
 21
-24.3615211817449016
 31
0.0
  0
LINE
  5
22CFF
  8
0
 10
5263.7778868509058157
 20
-24.3615211817449016
 30
0.0
 11
5263.7778868509058157
 21
-24.3415211817449091
 31
0.0
  0
LINE
  5
22D00
  8
0
 10
5263.80788685090738
 20
-24.3415211817448984
 30
0.0
 11
5263.8328868509061067
 21
-24.3415211817448984
 31
0.0
  0
LINE
  5
22D01
  8
0
 10
5263.8328868509061067
 20
-24.3415211817448984
 30
0.0
 11
5263.8328868509061067
 21
-24.3437315404349413
 31
0.0
  0
LINE
  5
22D02
  8
0
 10
5263.8212372769748981
 20
-24.3615211817449016
 30
0.0
 11
5263.80788685090738
 21
-24.3615211817449016
 31
0.0
  0
LINE
  5
22D03
  8
0
 10
5263.80788685090738
 20
-24.3615211817449016
 30
0.0
 11
5263.80788685090738
 21
-24.3415211817449091
 31
0.0
  0
LINE
  5
22D04
  8
0
 10
5263.4582633176232775
 20
-24.3665211817449112
 30
0.0
 11
5263.4728868509064341
 21
-24.3665211817449112
 31
0.0
  0
LINE
  5
22D05
  8
0
 10
5263.4728868509064341
 20
-24.3665211817449112
 30
0.0
 11
5263.4728868509064341
 21
-24.3837349320298991
 31
0.0
  0
LINE
  5
22D06
  8
0
 10
5263.4778868509056338
 20
-24.3665211817449112
 30
0.0
 11
5263.5028868509061795
 21
-24.3665211817449112
 31
0.0
  0
LINE
  5
22D07
  8
0
 10
5263.5028868509061795
 20
-24.3665211817449112
 30
0.0
 11
5263.5028868509061795
 21
-24.3865211817449001
 31
0.0
  0
LINE
  5
22D08
  8
0
 10
5263.5028868509061795
 20
-24.3865211817449001
 30
0.0
 11
5263.4778868509056338
 21
-24.3865211817449001
 31
0.0
  0
LINE
  5
22D09
  8
0
 10
5263.4778868509056338
 20
-24.3865211817449001
 30
0.0
 11
5263.4778868509056338
 21
-24.3665211817449112
 31
0.0
  0
LINE
  5
22D0A
  8
0
 10
5263.5078868509062886
 20
-24.3665211817449112
 30
0.0
 11
5263.5328868509068343
 21
-24.3665211817449112
 31
0.0
  0
LINE
  5
22D0B
  8
0
 10
5263.5328868509068343
 20
-24.3665211817449112
 30
0.0
 11
5263.5328868509068343
 21
-24.3865211817449001
 31
0.0
  0
LINE
  5
22D0C
  8
0
 10
5263.5328868509068343
 20
-24.3865211817449001
 30
0.0
 11
5263.5078868509062886
 21
-24.3865211817449001
 31
0.0
  0
LINE
  5
22D0D
  8
0
 10
5263.5078868509062886
 20
-24.3865211817449001
 30
0.0
 11
5263.5078868509062886
 21
-24.3665211817449112
 31
0.0
  0
LINE
  5
22D0E
  8
0
 10
5263.5378868509060339
 20
-24.3665211817449112
 30
0.0
 11
5263.5628868509047606
 21
-24.3665211817449112
 31
0.0
  0
LINE
  5
22D0F
  8
0
 10
5263.5628868509047606
 20
-24.3665211817449112
 30
0.0
 11
5263.5628868509047606
 21
-24.3865211817449001
 31
0.0
  0
LINE
  5
22D10
  8
0
 10
5263.5628868509047606
 20
-24.3865211817449001
 30
0.0
 11
5263.5378868509060339
 21
-24.3865211817449001
 31
0.0
  0
LINE
  5
22D11
  8
0
 10
5263.5378868509060339
 20
-24.3865211817449001
 30
0.0
 11
5263.5378868509060339
 21
-24.3665211817449112
 31
0.0
  0
LINE
  5
22D12
  8
0
 10
5263.5678868509057793
 20
-24.3665211817449112
 30
0.0
 11
5263.592886850906325
 21
-24.3665211817449112
 31
0.0
  0
LINE
  5
22D13
  8
0
 10
5263.592886850906325
 20
-24.3665211817449112
 30
0.0
 11
5263.592886850906325
 21
-24.3865211817449001
 31
0.0
  0
LINE
  5
22D14
  8
0
 10
5263.592886850906325
 20
-24.3865211817449001
 30
0.0
 11
5263.5678868509057793
 21
-24.3865211817449001
 31
0.0
  0
LINE
  5
22D15
  8
0
 10
5263.5678868509057793
 20
-24.3865211817449001
 30
0.0
 11
5263.5678868509057793
 21
-24.3665211817449112
 31
0.0
  0
LINE
  5
22D16
  8
0
 10
5263.5978868509064341
 20
-24.3665211817449112
 30
0.0
 11
5263.6228868509069798
 21
-24.3665211817449112
 31
0.0
  0
LINE
  5
22D17
  8
0
 10
5263.6228868509069798
 20
-24.3665211817449112
 30
0.0
 11
5263.6228868509069798
 21
-24.3865211817449001
 31
0.0
  0
LINE
  5
22D18
  8
0
 10
5263.6228868509069798
 20
-24.3865211817449001
 30
0.0
 11
5263.5978868509064341
 21
-24.3865211817449001
 31
0.0
  0
LINE
  5
22D19
  8
0
 10
5263.5978868509064341
 20
-24.3865211817449001
 30
0.0
 11
5263.5978868509064341
 21
-24.3665211817449112
 31
0.0
  0
LINE
  5
22D1A
  8
0
 10
5263.6278868509061795
 20
-24.3665211817449112
 30
0.0
 11
5263.6528868509058157
 21
-24.3665211817449112
 31
0.0
  0
LINE
  5
22D1B
  8
0
 10
5263.6528868509058157
 20
-24.3665211817449112
 30
0.0
 11
5263.6528868509058157
 21
-24.3865211817449001
 31
0.0
  0
LINE
  5
22D1C
  8
0
 10
5263.6528868509058157
 20
-24.3865211817449001
 30
0.0
 11
5263.6278868509061795
 21
-24.3865211817449001
 31
0.0
  0
LINE
  5
22D1D
  8
0
 10
5263.6278868509061795
 20
-24.3865211817449001
 30
0.0
 11
5263.6278868509061795
 21
-24.3665211817449112
 31
0.0
  0
LINE
  5
22D1E
  8
0
 10
5263.6578868509059248
 20
-24.3665211817449112
 30
0.0
 11
5263.682886850905561
 21
-24.3665211817449112
 31
0.0
  0
LINE
  5
22D1F
  8
0
 10
5263.682886850905561
 20
-24.3665211817449112
 30
0.0
 11
5263.682886850905561
 21
-24.3865211817449001
 31
0.0
  0
LINE
  5
22D20
  8
0
 10
5263.682886850905561
 20
-24.3865211817449001
 30
0.0
 11
5263.6578868509059248
 21
-24.3865211817449001
 31
0.0
  0
LINE
  5
22D21
  8
0
 10
5263.6578868509059248
 20
-24.3865211817449001
 30
0.0
 11
5263.6578868509059248
 21
-24.3665211817449112
 31
0.0
  0
LINE
  5
22D22
  8
0
 10
5263.6878868509056701
 20
-24.3665211817449112
 30
0.0
 11
5263.7128868509071253
 21
-24.3665211817449112
 31
0.0
  0
LINE
  5
22D23
  8
0
 10
5263.7128868509071253
 20
-24.3665211817449112
 30
0.0
 11
5263.7128868509071253
 21
-24.3865211817449001
 31
0.0
  0
LINE
  5
22D24
  8
0
 10
5263.7128868509071253
 20
-24.3865211817449001
 30
0.0
 11
5263.6878868509056701
 21
-24.3865211817449001
 31
0.0
  0
LINE
  5
22D25
  8
0
 10
5263.6878868509056701
 20
-24.3865211817449001
 30
0.0
 11
5263.6878868509056701
 21
-24.3665211817449112
 31
0.0
  0
LINE
  5
22D26
  8
0
 10
5263.7178868509072345
 20
-24.3665211817449112
 30
0.0
 11
5263.7428868509059612
 21
-24.3665211817449112
 31
0.0
  0
LINE
  5
22D27
  8
0
 10
5263.7428868509059612
 20
-24.3665211817449112
 30
0.0
 11
5263.7428868509059612
 21
-24.3865211817449001
 31
0.0
  0
LINE
  5
22D28
  8
0
 10
5263.7428868509059612
 20
-24.3865211817449001
 30
0.0
 11
5263.7178868509072345
 21
-24.3865211817449001
 31
0.0
  0
LINE
  5
22D29
  8
0
 10
5263.7178868509072345
 20
-24.3865211817449001
 30
0.0
 11
5263.7178868509072345
 21
-24.3665211817449112
 31
0.0
  0
LINE
  5
22D2A
  8
0
 10
5263.7478868509060703
 20
-24.3665211817449112
 30
0.0
 11
5263.772886850904797
 21
-24.3665211817449112
 31
0.0
  0
LINE
  5
22D2B
  8
0
 10
5263.772886850904797
 20
-24.3665211817449112
 30
0.0
 11
5263.772886850904797
 21
-24.3865211817449001
 31
0.0
  0
LINE
  5
22D2C
  8
0
 10
5263.772886850904797
 20
-24.3865211817449001
 30
0.0
 11
5263.7478868509060703
 21
-24.3865211817449001
 31
0.0
  0
LINE
  5
22D2D
  8
0
 10
5263.7478868509060703
 20
-24.3865211817449001
 30
0.0
 11
5263.7478868509060703
 21
-24.3665211817449112
 31
0.0
  0
LINE
  5
22D2E
  8
0
 10
5263.7778868509058157
 20
-24.3665211817449112
 30
0.0
 11
5263.8028868509072709
 21
-24.3665211817449112
 31
0.0
  0
LINE
  5
22D2F
  8
0
 10
5263.8028868509072709
 20
-24.3665211817449112
 30
0.0
 11
5263.8028868509072709
 21
-24.3837349321363597
 31
0.0
  0
LINE
  5
22D30
  8
0
 10
5263.8002246276782898
 20
-24.3865211817449108
 30
0.0
 11
5263.7778868509058157
 21
-24.3865211817449001
 31
0.0
  0
LINE
  5
22D31
  8
0
 10
5263.7778868509058157
 20
-24.3865211817449001
 30
0.0
 11
5263.7778868509058157
 21
-24.3665211817449112
 31
0.0
  0
LINE
  5
22D32
  8
0
 10
5263.80788685090738
 20
-24.3665211817449112
 30
0.0
 11
5263.8175103842886529
 21
-24.3665211817449112
 31
0.0
  0
LINE
  5
22D33
  8
0
 10
5263.80788685090738
 20
-24.3782337372316107
 30
0.0
 11
5263.80788685090738
 21
-24.3665211817449112
 31
0.0
  0
LINE
  5
22D34
  8
0
 10
5263.4805630169157666
 20
-24.3915211817449098
 30
0.0
 11
5263.5028868509061795
 21
-24.3915211817449098
 31
0.0
  0
LINE
  5
22D35
  8
0
 10
5263.5028868509061795
 20
-24.3915211817449098
 30
0.0
 11
5263.5028868509061795
 21
-24.4104641846015902
 31
0.0
  0
LINE
  5
22D36
  8
0
 10
5263.5078868509062886
 20
-24.3915211817449098
 30
0.0
 11
5263.5328868509068343
 21
-24.3915211817449098
 31
0.0
  0
LINE
  5
22D37
  8
0
 10
5263.5328868509068343
 20
-24.3915211817449098
 30
0.0
 11
5263.5328868509068343
 21
-24.4115211817448987
 31
0.0
  0
LINE
  5
22D38
  8
0
 10
5263.5328868509068343
 20
-24.4115211817448987
 30
0.0
 11
5263.5078868509062886
 21
-24.4115211817448987
 31
0.0
  0
LINE
  5
22D39
  8
0
 10
5263.5078868509062886
 20
-24.4115211817448987
 30
0.0
 11
5263.5078868509062886
 21
-24.3915211817449098
 31
0.0
  0
LINE
  5
22D3A
  8
0
 10
5263.5378868509060339
 20
-24.3915211817449098
 30
0.0
 11
5263.5628868509047606
 21
-24.3915211817449098
 31
0.0
  0
LINE
  5
22D3B
  8
0
 10
5263.5628868509047606
 20
-24.3915211817449098
 30
0.0
 11
5263.5628868509047606
 21
-24.4115211817448987
 31
0.0
  0
LINE
  5
22D3C
  8
0
 10
5263.5628868509047606
 20
-24.4115211817448987
 30
0.0
 11
5263.5378868509060339
 21
-24.4115211817448987
 31
0.0
  0
LINE
  5
22D3D
  8
0
 10
5263.5378868509060339
 20
-24.4115211817448987
 30
0.0
 11
5263.5378868509060339
 21
-24.3915211817449098
 31
0.0
  0
LINE
  5
22D3E
  8
0
 10
5263.5678868509057793
 20
-24.3915211817449098
 30
0.0
 11
5263.592886850906325
 21
-24.3915211817449098
 31
0.0
  0
LINE
  5
22D3F
  8
0
 10
5263.592886850906325
 20
-24.3915211817449098
 30
0.0
 11
5263.592886850906325
 21
-24.4115211817448987
 31
0.0
  0
LINE
  5
22D40
  8
0
 10
5263.592886850906325
 20
-24.4115211817448987
 30
0.0
 11
5263.5678868509057793
 21
-24.4115211817448987
 31
0.0
  0
LINE
  5
22D41
  8
0
 10
5263.5678868509057793
 20
-24.4115211817448987
 30
0.0
 11
5263.5678868509057793
 21
-24.3915211817449098
 31
0.0
  0
LINE
  5
22D42
  8
0
 10
5263.5978868509064341
 20
-24.3915211817449098
 30
0.0
 11
5263.6228868509069798
 21
-24.3915211817449098
 31
0.0
  0
LINE
  5
22D43
  8
0
 10
5263.6228868509069798
 20
-24.3915211817449098
 30
0.0
 11
5263.6228868509069798
 21
-24.4115211817448987
 31
0.0
  0
LINE
  5
22D44
  8
0
 10
5263.6228868509069798
 20
-24.4115211817448987
 30
0.0
 11
5263.5978868509064341
 21
-24.4115211817448987
 31
0.0
  0
LINE
  5
22D45
  8
0
 10
5263.5978868509064341
 20
-24.4115211817448987
 30
0.0
 11
5263.5978868509064341
 21
-24.3915211817449098
 31
0.0
  0
LINE
  5
22D46
  8
0
 10
5263.6278868509061795
 20
-24.3915211817449098
 30
0.0
 11
5263.6528868509058157
 21
-24.3915211817449098
 31
0.0
  0
LINE
  5
22D47
  8
0
 10
5263.6528868509058157
 20
-24.3915211817449098
 30
0.0
 11
5263.6528868509058157
 21
-24.4115211817448987
 31
0.0
  0
LINE
  5
22D48
  8
0
 10
5263.6528868509058157
 20
-24.4115211817448987
 30
0.0
 11
5263.6278868509061795
 21
-24.4115211817448987
 31
0.0
  0
LINE
  5
22D49
  8
0
 10
5263.6278868509061795
 20
-24.4115211817448987
 30
0.0
 11
5263.6278868509061795
 21
-24.3915211817449098
 31
0.0
  0
LINE
  5
22D4A
  8
0
 10
5263.6578868509059248
 20
-24.3915211817449098
 30
0.0
 11
5263.682886850905561
 21
-24.3915211817449098
 31
0.0
  0
LINE
  5
22D4B
  8
0
 10
5263.682886850905561
 20
-24.3915211817449098
 30
0.0
 11
5263.682886850905561
 21
-24.4115211817448987
 31
0.0
  0
LINE
  5
22D4C
  8
0
 10
5263.682886850905561
 20
-24.4115211817448987
 30
0.0
 11
5263.6578868509059248
 21
-24.4115211817448987
 31
0.0
  0
LINE
  5
22D4D
  8
0
 10
5263.6578868509059248
 20
-24.4115211817448987
 30
0.0
 11
5263.6578868509059248
 21
-24.3915211817449098
 31
0.0
  0
LINE
  5
22D4E
  8
0
 10
5263.6878868509056701
 20
-24.3915211817449098
 30
0.0
 11
5263.7128868509071253
 21
-24.3915211817449098
 31
0.0
  0
LINE
  5
22D4F
  8
0
 10
5263.7128868509071253
 20
-24.3915211817449098
 30
0.0
 11
5263.7128868509071253
 21
-24.4115211817448987
 31
0.0
  0
LINE
  5
22D50
  8
0
 10
5263.7128868509071253
 20
-24.4115211817448987
 30
0.0
 11
5263.6878868509056701
 21
-24.4115211817448987
 31
0.0
  0
LINE
  5
22D51
  8
0
 10
5263.6878868509056701
 20
-24.4115211817448987
 30
0.0
 11
5263.6878868509056701
 21
-24.3915211817449098
 31
0.0
  0
LINE
  5
22D52
  8
0
 10
5263.7178868509072345
 20
-24.3915211817449098
 30
0.0
 11
5263.7428868509059612
 21
-24.3915211817449098
 31
0.0
  0
LINE
  5
22D53
  8
0
 10
5263.7428868509059612
 20
-24.3915211817449098
 30
0.0
 11
5263.7428868509059612
 21
-24.4115211817448987
 31
0.0
  0
LINE
  5
22D54
  8
0
 10
5263.7428868509059612
 20
-24.4115211817448987
 30
0.0
 11
5263.7178868509072345
 21
-24.4115211817448987
 31
0.0
  0
LINE
  5
22D55
  8
0
 10
5263.7178868509072345
 20
-24.4115211817448987
 30
0.0
 11
5263.7178868509072345
 21
-24.3915211817449098
 31
0.0
  0
LINE
  5
22D56
  8
0
 10
5263.7478868509060703
 20
-24.3915211817449098
 30
0.0
 11
5263.772886850904797
 21
-24.3915211817449098
 31
0.0
  0
LINE
  5
22D57
  8
0
 10
5263.772886850904797
 20
-24.3915211817449098
 30
0.0
 11
5263.772886850904797
 21
-24.410464184675881
 31
0.0
  0
LINE
  5
22D58
  8
0
 10
5263.7714522985133954
 20
-24.4115211817448987
 30
0.0
 11
5263.7478868509060703
 21
-24.4115211817448987
 31
0.0
  0
LINE
  5
22D59
  8
0
 10
5263.7478868509060703
 20
-24.4115211817448987
 30
0.0
 11
5263.7478868509060703
 21
-24.3915211817449098
 31
0.0
  0
LINE
  5
22D5A
  8
0
 10
5263.7778868509058157
 20
-24.3915211817449098
 30
0.0
 11
5263.7952106849961638
 21
-24.3915211817449098
 31
0.0
  0
LINE
  5
22D5B
  8
0
 10
5263.7778868509058157
 20
-24.4066406562395386
 30
0.0
 11
5263.7778868509058157
 21
-24.3915211817449098
 31
0.0
  0
LINE
  5
22D5C
  8
0
 10
5263.5114472852073959
 20
-24.4165211817449084
 30
0.0
 11
5263.5328868509068343
 21
-24.4165211817449084
 31
0.0
  0
LINE
  5
22D5D
  8
0
 10
5263.5328868509068343
 20
-24.4165211817449084
 30
0.0
 11
5263.5328868509068343
 21
-24.429298858325911
 31
0.0
  0
LINE
  5
22D5E
  8
0
 10
5263.5378868509060339
 20
-24.4165211817449084
 30
0.0
 11
5263.5628868509047606
 21
-24.4165211817449084
 31
0.0
  0
LINE
  5
22D5F
  8
0
 10
5263.5628868509047606
 20
-24.4165211817449084
 30
0.0
 11
5263.5628868509047606
 21
-24.4365211817449115
 31
0.0
  0
LINE
  5
22D60
  8
0
 10
5263.5628868509047606
 20
-24.4365211817449115
 30
0.0
 11
5263.5480208183798823
 21
-24.4365211817449115
 31
0.0
  0
LINE
  5
22D61
  8
0
 10
5263.5378868509060339
 20
-24.4318382014535089
 30
0.0
 11
5263.5378868509060339
 21
-24.4165211817449084
 31
0.0
  0
LINE
  5
22D62
  8
0
 10
5263.5678868509057793
 20
-24.4165211817449084
 30
0.0
 11
5263.592886850906325
 21
-24.4165211817449084
 31
0.0
  0
LINE
  5
22D63
  8
0
 10
5263.592886850906325
 20
-24.4165211817449084
 30
0.0
 11
5263.592886850906325
 21
-24.4365211817449115
 31
0.0
  0
LINE
  5
22D64
  8
0
 10
5263.592886850906325
 20
-24.4365211817449115
 30
0.0
 11
5263.5678868509057793
 21
-24.4365211817449115
 31
0.0
  0
LINE
  5
22D65
  8
0
 10
5263.5678868509057793
 20
-24.4365211817449115
 30
0.0
 11
5263.5678868509057793
 21
-24.4165211817449084
 31
0.0
  0
LINE
  5
22D66
  8
0
 10
5263.5978868509064341
 20
-24.4165211817449084
 30
0.0
 11
5263.6228868509069798
 21
-24.4165211817449084
 31
0.0
  0
LINE
  5
22D67
  8
0
 10
5263.6228868509069798
 20
-24.4165211817449084
 30
0.0
 11
5263.6228868509069798
 21
-24.4365211817449115
 31
0.0
  0
LINE
  5
22D68
  8
0
 10
5263.6228868509069798
 20
-24.4365211817449115
 30
0.0
 11
5263.5978868509064341
 21
-24.4365211817449115
 31
0.0
  0
LINE
  5
22D69
  8
0
 10
5263.5978868509064341
 20
-24.4365211817449115
 30
0.0
 11
5263.5978868509064341
 21
-24.4165211817449084
 31
0.0
  0
LINE
  5
22D6A
  8
0
 10
5263.6278868509061795
 20
-24.4165211817449084
 30
0.0
 11
5263.6528868509058157
 21
-24.4165211817449084
 31
0.0
  0
LINE
  5
22D6B
  8
0
 10
5263.6528868509058157
 20
-24.4165211817449084
 30
0.0
 11
5263.6528868509058157
 21
-24.4365211817449115
 31
0.0
  0
LINE
  5
22D6C
  8
0
 10
5263.6528868509058157
 20
-24.4365211817449115
 30
0.0
 11
5263.6278868509061795
 21
-24.4365211817449115
 31
0.0
  0
LINE
  5
22D6D
  8
0
 10
5263.6278868509061795
 20
-24.4365211817449115
 30
0.0
 11
5263.6278868509061795
 21
-24.4165211817449084
 31
0.0
  0
LINE
  5
22D6E
  8
0
 10
5263.6578868509059248
 20
-24.4165211817449084
 30
0.0
 11
5263.682886850905561
 21
-24.4165211817449084
 31
0.0
  0
LINE
  5
22D6F
  8
0
 10
5263.682886850905561
 20
-24.4165211817449084
 30
0.0
 11
5263.682886850905561
 21
-24.4365211817449115
 31
0.0
  0
LINE
  5
22D70
  8
0
 10
5263.682886850905561
 20
-24.4365211817449115
 30
0.0
 11
5263.6578868509059248
 21
-24.4365211817449115
 31
0.0
  0
LINE
  5
22D71
  8
0
 10
5263.6578868509059248
 20
-24.4365211817449115
 30
0.0
 11
5263.6578868509059248
 21
-24.4165211817449084
 31
0.0
  0
LINE
  5
22D72
  8
0
 10
5263.6878868509056701
 20
-24.4165211817449084
 30
0.0
 11
5263.7128868509071253
 21
-24.4165211817449084
 31
0.0
  0
LINE
  5
22D73
  8
0
 10
5263.7128868509071253
 20
-24.4165211817449084
 30
0.0
 11
5263.7128868509071253
 21
-24.4365211817449115
 31
0.0
  0
LINE
  5
22D74
  8
0
 10
5263.7128868509071253
 20
-24.4365211817449115
 30
0.0
 11
5263.6878868509056701
 21
-24.4365211817449115
 31
0.0
  0
LINE
  5
22D75
  8
0
 10
5263.6878868509056701
 20
-24.4365211817449115
 30
0.0
 11
5263.6878868509056701
 21
-24.4165211817449084
 31
0.0
  0
LINE
  5
22D76
  8
0
 10
5263.7178868509072345
 20
-24.4165211817449084
 30
0.0
 11
5263.7428868509059612
 21
-24.4165211817449084
 31
0.0
  0
LINE
  5
22D77
  8
0
 10
5263.7428868509059612
 20
-24.4165211817449084
 30
0.0
 11
5263.7428868509059612
 21
-24.4292988583782602
 31
0.0
  0
LINE
  5
22D78
  8
0
 10
5263.7277528835320481
 20
-24.4365211817449115
 30
0.0
 11
5263.7178868509072345
 21
-24.4365211817449115
 31
0.0
  0
LINE
  5
22D79
  8
0
 10
5263.7178868509072345
 20
-24.4365211817449115
 30
0.0
 11
5263.7178868509072345
 21
-24.4165211817449084
 31
0.0
  0
LINE
  5
22D7A
  8
0
 10
5263.7478868509060703
 20
-24.4165211817449084
 30
0.0
 11
5263.764326416705444
 21
-24.4165211817449084
 31
0.0
  0
LINE
  5
22D7B
  8
0
 10
5263.7478868509060703
 20
-24.4266006337967596
 30
0.0
 11
5263.7478868509060703
 21
-24.4165211817449084
 31
0.0
  0
LINE
  5
22D7C
  8
0
 10
5263.5606007667183803
 20
-24.4415211817448998
 30
0.0
 11
5263.5628868509047606
 21
-24.4415211817448998
 31
0.0
  0
LINE
  5
22D7D
  8
0
 10
5263.5628868509047606
 20
-24.4415211817448998
 30
0.0
 11
5263.5628868509047606
 21
-24.4423377007383387
 31
0.0
  0
LINE
  5
22D7E
  8
0
 10
5263.5678868509057793
 20
-24.4415211817448998
 30
0.0
 11
5263.592886850906325
 21
-24.4415211817448998
 31
0.0
  0
LINE
  5
22D7F
  8
0
 10
5263.592886850906325
 20
-24.4415211817448998
 30
0.0
 11
5263.592886850906325
 21
-24.4506049480740799
 31
0.0
  0
LINE
  5
22D80
  8
0
 10
5263.5678868509057793
 20
-24.444028164077519
 30
0.0
 11
5263.5678868509057793
 21
-24.4415211817449105
 31
0.0
  0
LINE
  5
22D81
  8
0
 10
5263.5978868509064341
 20
-24.4415211817448998
 30
0.0
 11
5263.6228868509069798
 21
-24.4415211817448998
 31
0.0
  0
LINE
  5
22D82
  8
0
 10
5263.6228868509069798
 20
-24.4415211817448998
 30
0.0
 11
5263.6228868509069798
 21
-24.4546251319469405
 31
0.0
  0
LINE
  5
22D83
  8
0
 10
5263.5978868509064341
 20
-24.4515606995203285
 30
0.0
 11
5263.5978868509064341
 21
-24.4415211817449105
 31
0.0
  0
LINE
  5
22D84
  8
0
 10
5263.6278868509061795
 20
-24.4415211817448998
 30
0.0
 11
5263.6528868509058157
 21
-24.4415211817448998
 31
0.0
  0
LINE
  5
22D85
  8
0
 10
5263.6528868509058157
 20
-24.4415211817448998
 30
0.0
 11
5263.6528868509058157
 21
-24.4546251319535806
 31
0.0
  0
LINE
  5
22D86
  8
0
 10
5263.6278868509061795
 20
-24.4549016577246583
 30
0.0
 11
5263.6278868509061795
 21
-24.4415211817449105
 31
0.0
  0
LINE
  5
22D87
  8
0
 10
5263.6578868509059248
 20
-24.4415211817448998
 30
0.0
 11
5263.682886850905561
 21
-24.4415211817448998
 31
0.0
  0
LINE
  5
22D88
  8
0
 10
5263.682886850905561
 20
-24.4415211817448998
 30
0.0
 11
5263.682886850905561
 21
-24.4506049480943588
 31
0.0
  0
LINE
  5
22D89
  8
0
 10
5263.6578868509059248
 20
-24.4542374261658892
 30
0.0
 11
5263.6578868509059248
 21
-24.4415211817449105
 31
0.0
  0
LINE
  5
22D8A
  8
0
 10
5263.6878868509056701
 20
-24.4415211817448998
 30
0.0
 11
5263.7128868509071253
 21
-24.4415211817448998
 31
0.0
  0
LINE
  5
22D8B
  8
0
 10
5263.7128868509071253
 20
-24.4415211817448998
 30
0.0
 11
5263.7128868509071253
 21
-24.4423377007734501
 31
0.0
  0
LINE
  5
22D8C
  8
0
 10
5263.6878868509056701
 20
-24.4495318593251802
 30
0.0
 11
5263.6878868509056701
 21
-24.4415211817449105
 31
0.0
  0
LINE
  5
22D8D
  8
0
 10
5263.592886850906325
 20
-24.0068844166157298
 30
0.0
 11
5263.592886850906325
 21
-24.0115211817449108
 31
0.0
  0
LINE
  5
22D8E
  8
0
 10
5263.592886850906325
 20
-24.0115211817449108
 30
0.0
 11
5263.5741614376511279
 21
-24.0115211817449108
 31
0.0
  0
LINE
  5
22D8F
  8
0
 10
5263.6228868509069798
 20
-24.0028642327428692
 30
0.0
 11
5263.6228868509069798
 21
-24.0115211817449108
 31
0.0
  0
LINE
  5
22D90
  8
0
 10
5263.6228868509069798
 20
-24.0115211817449108
 30
0.0
 11
5263.5978868509064341
 21
-24.0115211817449108
 31
0.0
  0
LINE
  5
22D91
  8
0
 10
5263.5978868509064341
 20
-24.0115211817449108
 30
0.0
 11
5263.5978868509064341
 21
-24.0059286651694812
 31
0.0
  0
LINE
  5
22D92
  8
0
 10
5263.6528868509058157
 20
-24.0028642327362292
 30
0.0
 11
5263.6528868509058157
 21
-24.0115211817449108
 31
0.0
  0
LINE
  5
22D93
  8
0
 10
5263.6528868509058157
 20
-24.0115211817449108
 30
0.0
 11
5263.6278868509061795
 21
-24.0115211817449108
 31
0.0
  0
LINE
  5
22D94
  8
0
 10
5263.6278868509061795
 20
-24.0115211817449108
 30
0.0
 11
5263.6278868509061795
 21
-24.0025877069651514
 31
0.0
  0
LINE
  5
22D95
  8
0
 10
5263.682886850905561
 20
-24.0068844165954509
 30
0.0
 11
5263.682886850905561
 21
-24.0115211817449108
 31
0.0
  0
LINE
  5
22D96
  8
0
 10
5263.682886850905561
 20
-24.0115211817449108
 30
0.0
 11
5263.6578868509059248
 21
-24.0115211817449108
 31
0.0
  0
LINE
  5
22D97
  8
0
 10
5263.6578868509059248
 20
-24.0115211817449108
 30
0.0
 11
5263.6578868509059248
 21
-24.0032519385239098
 31
0.0
  0
LINE
  5
22D98
  8
0
 10
5263.701612264261712
 20
-24.0115211817449108
 30
0.0
 11
5263.6878868509056701
 21
-24.0115211817449108
 31
0.0
  0
LINE
  5
22D99
  8
0
 10
5263.6878868509056701
 20
-24.0115211817449108
 30
0.0
 11
5263.6878868509056701
 21
-24.0079575053646295
 31
0.0
  0
LINE
  5
22D9A
  8
0
 10
5264.0452316994233115
 20
-24.0318942886448994
 30
0.0
 11
5269.1360538133885711
 21
-24.0318942886448994
 31
0.0
  0
LINE
  5
22D9B
  8
0
 10
5264.0452316994233115
 20
-24.4255950760449103
 30
0.0
 11
5269.1360538133885711
 21
-24.4255950760449103
 31
0.0
  0
ARC
  5
22D9C
  8
0
 10
5263.6378868509573294
 20
-24.2287446823448995
 30
0.0
 40
0.1181102362499988
 50
108.1656794963562049
 51
109.7956610291232948
  0
ARC
  5
22D9D
  8
0
 10
5263.6378868509573294
 20
-24.2287446823448995
 30
0.0
 40
0.1181102362499988
 50
112.395638739800205
 51
126.3464722171148935
  0
ARC
  5
22D9E
  8
0
 10
5263.6378868509573294
 20
-24.2287446823448995
 30
0.0
 40
0.1181102362499988
 50
132.3968590349952876
 51
145.3084009126513934
  0
ARC
  5
22D9F
  8
0
 10
5263.6378868509573294
 20
-24.2287446823448995
 30
0.0
 40
0.1181102362499988
 50
152.7478551135112923
 51
159.0537304711172055
  0
ARC
  5
22DA0
  8
0
 10
5263.6378868509573294
 20
-24.2287446823448995
 30
0.0
 40
0.1181102362499988
 50
161.6295889678476954
 51
171.6149070055938921
  0
ARC
  5
22DA1
  8
0
 10
5263.6378868509573294
 20
-24.2287446823448995
 30
0.0
 40
0.1181102362499988
 50
174.0596912480355911
 51
183.7751439617343863
  0
ARC
  5
22DA2
  8
0
 10
5263.6378868509573294
 20
-24.2287446823448995
 30
0.0
 40
0.1181102362499988
 50
186.2100861872052917
 51
196.1115123093024124
  0
ARC
  5
22DA3
  8
0
 10
5263.6378868509573294
 20
-24.2287446823448995
 30
0.0
 40
0.1181102362499988
 50
198.6533112180325134
 51
207.2521448864887077
  0
ARC
  5
22DA4
  8
0
 10
5263.6378868509573294
 20
-24.2287446823448995
 30
0.0
 40
0.1181102362499988
 50
212.1490524032352027
 51
224.4945188064430113
  0
ARC
  5
22DA5
  8
0
 10
5263.6378868509573294
 20
-24.2287446823448995
 30
0.0
 40
0.1181102362499988
 50
228.0025291403771917
 51
230.5800155133040903
  0
ARC
  5
22DA6
  8
0
 10
5263.6378868509573294
 20
-24.2287446823448995
 30
0.0
 40
0.1181102362499988
 50
233.6535277828851065
 51
245.8542297539748915
  0
ARC
  5
22DA7
  8
0
 10
5263.6378868509573294
 20
-24.2287446823448995
 30
0.0
 40
0.1181102362499988
 50
252.7154644798472134
 51
262.7037320123458244
  0
ARC
  5
22DA8
  8
0
 10
5263.6378868509573294
 20
-24.2287446823448995
 30
0.0
 40
0.1181102362499988
 50
265.1431427970795767
 51
277.2962679387435969
  0
ARC
  5
22DA9
  8
0
 10
5263.6378868509573294
 20
-24.2287446823448995
 30
0.0
 40
0.1181102362499988
 50
279.7490598934774084
 51
287.284535520152815
  0
ARC
  5
22DAA
  8
0
 10
5263.6378868509573294
 20
-24.2287446823448995
 30
0.0
 40
0.1181102362499988
 50
295.0452143282931843
 51
309.4199844238972901
  0
ARC
  5
22DAB
  8
0
 10
5263.6378868509573294
 20
-24.2287446823448995
 30
0.0
 40
0.1181102362499988
 50
315.505481193556875
 51
327.8926196018965129
  0
ARC
  5
22DAC
  8
0
 10
5263.6378868509573294
 20
-24.2287446823448995
 30
0.0
 40
0.1181102362499988
 50
330.7136708142264183
 51
332.7478550075709904
  0
ARC
  5
22DAD
  8
0
 10
5263.6378868509573294
 20
-24.2287446823448995
 30
0.0
 40
0.1181102362499988
 50
338.6436202138892213
 51
341.3466887819674866
  0
ARC
  5
22DAE
  8
0
 10
5263.6378868509573294
 20
-24.2287446823448995
 30
0.0
 40
0.1181102362499988
 50
343.888487690697616
 51
353.7899138127947936
  0
ARC
  5
22DAF
  8
0
 10
5263.6378868509573294
 20
-24.2287446823448995
 30
0.0
 40
0.1181102362499988
 50
356.2248560382656137
 51
5.9403087519644471
  0
ARC
  5
22DB0
  8
0
 10
5263.6378868509573294
 20
-24.2287446823448995
 30
0.0
 40
0.1181102362499988
 50
8.3850929944061114
 51
18.3704110321523117
  0
ARC
  5
22DB1
  8
0
 10
5263.6378868509573294
 20
-24.2287446823448995
 30
0.0
 40
0.1181102362499988
 50
20.9462695288828016
 51
21.3563797861108498
  0
ARC
  5
22DB2
  8
0
 10
5263.6378868509573294
 20
-24.2287446823448995
 30
0.0
 40
0.1181102362499988
 50
27.2521449924290593
 51
31.7912258274911395
  0
ARC
  5
22DB3
  8
0
 10
5263.6378868509573294
 20
-24.2287446823448995
 30
0.0
 40
0.1181102362499988
 50
34.6915990873486066
 51
47.3643899351950424
  0
ARC
  5
22DB4
  8
0
 10
5263.6378868509573294
 20
-24.2287446823448995
 30
0.0
 40
0.1181102362499988
 50
51.3362323385805581
 51
64.9547856717067731
  0
ARC
  5
22DB5
  8
0
 10
5263.6378868509573294
 20
-24.2287446823448995
 30
0.0
 40
0.1181102362499988
 50
67.6043613126713154
 51
71.8343205036437524
  0
ARC
  5
22DB6
  8
0
 10
5263.6378868509573294
 20
-24.2287446823448995
 30
0.0
 40
0.1181102362499988
 50
82.9747297902753331
 51
94.8568572029203949
  0
ARC
  5
22DB7
  8
0
 10
5263.6378868509573294
 20
-24.2287446823448995
 30
0.0
 40
0.151574803149999
 50
95.6793456502992967
 51
105.3013694530387028
  0
ARC
  5
22DB8
  8
0
 10
5263.6378868509573294
 20
-24.2287446823448995
 30
0.0
 40
0.151574803149999
 50
107.2704917351282035
 51
110.2310611105670972
  0
ARC
  5
22DB9
  8
0
 10
5263.6378868509573294
 20
-24.2287446823448995
 30
0.0
 40
0.151574803149999
 50
115.1337619456353991
 51
117.5044938418659939
  0
ARC
  5
22DBA
  8
0
 10
5263.6378868509573294
 20
-24.2287446823448995
 30
0.0
 40
0.151574803149999
 50
119.6569055056791058
 51
129.3424593140975958
  0
ARC
  5
22DBB
  8
0
 10
5263.6378868509573294
 20
-24.2287446823448995
 30
0.0
 40
0.151574803149999
 50
133.8463857893169973
 51
142.5235302981234895
  0
ARC
  5
22DBC
  8
0
 10
5263.6378868509573294
 20
-24.2287446823448995
 30
0.0
 40
0.151574803149999
 50
144.8689495616146132
 51
149.0551149037281959
  0
ARC
  5
22DBD
  8
0
 10
5263.6378868509573294
 20
-24.2287446823448995
 30
0.0
 40
0.151574803149999
 50
152.954957769508809
 51
153.6725591262012074
  0
ARC
  5
22DBE
  8
0
 10
5263.6378868509573294
 20
-24.2287446823448995
 30
0.0
 40
0.151574803149999
 50
155.762904826172587
 51
163.8253961121297095
  0
ARC
  5
22DBF
  8
0
 10
5263.6378868509573294
 20
-24.2287446823448995
 30
0.0
 40
0.151574803149999
 50
165.7839809076814959
 51
173.4753669435000063
  0
ARC
  5
22DC0
  8
0
 10
5263.6378868509573294
 20
-24.2287446823448995
 30
0.0
 40
0.151574803149999
 50
175.3744532740300031
 51
182.9408337202590928
  0
ARC
  5
22DC1
  8
0
 10
5263.6378868509573294
 20
-24.2287446823448995
 30
0.0
 40
0.151574803149999
 50
184.8352966904265031
 51
192.4882715928104062
  0
ARC
  5
22DC2
  8
0
 10
5263.6378868509573294
 20
-24.2287446823448995
 30
0.0
 40
0.151574803149999
 50
194.431761457491092
 51
202.40647315821559
  0
ARC
  5
22DC3
  8
0
 10
5263.6378868509573294
 20
-24.2287446823448995
 30
0.0
 40
0.151574803149999
 50
204.4665446537109119
 51
207.045042230491191
  0
ARC
  5
22DC4
  8
0
 10
5263.6378868509573294
 20
-24.2287446823448995
 30
0.0
 40
0.151574803149999
 50
210.9448850962718041
 51
213.1005424513519984
  0
ARC
  5
22DC5
  8
0
 10
5263.6378868509573294
 20
-24.2287446823448995
 30
0.0
 40
0.151574803149999
 50
215.3870487968123939
 51
225.3199996288500984
  0
ARC
  5
22DC6
  8
0
 10
5263.6378868509573294
 20
-24.2287446823448995
 30
0.0
 40
0.151574803149999
 50
228.7199334429535043
 51
240.3430944943208942
  0
ARC
  5
22DC7
  8
0
 10
5263.6378868509573294
 20
-24.2287446823448995
 30
0.0
 40
0.151574803149999
 50
245.3629914683239974
 51
252.7295082648718108
  0
ARC
  5
22DC8
  8
0
 10
5263.6378868509573294
 20
-24.2287446823448995
 30
0.0
 40
0.151574803149999
 50
254.6986305469611978
 51
264.3206543497007033
  0
ARC
  5
22DC9
  8
0
 10
5263.6378868509573294
 20
-24.2287446823448995
 30
0.0
 40
0.151574803149999
 50
266.2172192058570772
 51
275.6793456122809971
  0
ARC
  5
22DCA
  8
0
 10
5263.6378868509573294
 20
-24.2287446823448995
 30
0.0
 40
0.151574803149999
 50
277.5821773008452737
 51
287.2704916955627255
  0
ARC
  5
22DCB
  8
0
 10
5263.6378868509573294
 20
-24.2287446823448995
 30
0.0
 40
0.151574803149999
 50
289.2608930755396841
 51
294.6370085316759173
  0
ARC
  5
22DCC
  8
0
 10
5263.6378868509573294
 20
-24.2287446823448995
 30
0.0
 40
0.151574803149999
 50
298.8388260661546951
 51
299.6569054621534747
  0
ARC
  5
22DCD
  8
0
 10
5263.6378868509573294
 20
-24.2287446823448995
 30
0.0
 40
0.151574803149999
 50
301.8564041950597812
 51
311.923980261983786
  0
ARC
  5
22DCE
  8
0
 10
5263.6378868509573294
 20
-24.2287446823448995
 30
0.0
 40
0.151574803149999
 50
316.5283004285010975
 51
324.6129512031874924
  0
ARC
  5
22DCF
  8
0
 10
5263.6378868509573294
 20
-24.2287446823448995
 30
0.0
 40
0.151574803149999
 50
326.899457548647888
 51
332.9549576863853986
  0
ARC
  5
22DD0
  8
0
 10
5263.6378868509573294
 20
-24.2287446823448995
 30
0.0
 40
0.151574803149999
 50
337.5935268417841826
 51
345.5682385425085954
  0
ARC
  5
22DD1
  8
0
 10
5263.6378868509573294
 20
-24.2287446823448995
 30
0.0
 40
0.151574803149999
 50
347.5117284071894233
 51
355.1647033095734969
  0
ARC
  5
22DD2
  8
0
 10
5263.6378868509573294
 20
-24.2287446823448995
 30
0.0
 40
0.151574803149999
 50
357.0591662797407935
 51
4.6255467259700227
  0
ARC
  5
22DD3
  8
0
 10
5263.6378868509573294
 20
-24.2287446823448995
 30
0.0
 40
0.151574803149999
 50
6.5246330565000461
 51
14.21601909231868
  0
ARC
  5
22DD4
  8
0
 10
5263.6378868509573294
 20
-24.2287446823448995
 30
0.0
 40
0.151574803149999
 50
16.1746038878702407
 51
22.5363796774088883
  0
ARC
  5
22DD5
  8
0
 10
5263.6378868509573294
 20
-24.2287446823448995
 30
0.0
 40
0.151574803149999
 50
27.0450423136145801
 51
35.1310504383854294
  0
ARC
  5
22DD6
  8
0
 10
5263.6378868509573294
 20
-24.2287446823448995
 30
0.0
 40
0.151574803149999
 50
37.4764697018764181
 51
43.4716995714989309
  0
ARC
  5
22DD7
  8
0
 10
5263.6378868509573294
 20
-24.2287446823448995
 30
0.0
 40
0.151574803149999
 50
46.1536142630812591
 51
47.7641038842850776
  0
ARC
  5
22DD8
  8
0
 10
5263.6378868509573294
 20
-24.2287446823448995
 30
0.0
 40
0.151574803149999
 50
50.6575406859023829
 51
58.1435958049402117
  0
ARC
  5
22DD9
  8
0
 10
5263.6378868509573294
 20
-24.2287446823448995
 30
0.0
 40
0.151574803149999
 50
60.3430945378465395
 51
64.8662380543645298
  0
ARC
  5
22DDA
  8
0
 10
5263.6378868509573294
 20
-24.2287446823448995
 30
0.0
 40
0.151574803149999
 50
69.7689388894328175
 51
70.7391069244603301
  0
ARC
  5
22DDB
  8
0
 10
5263.6378868509573294
 20
-24.2287446823448995
 30
0.0
 40
0.151574803149999
 50
72.7295083044373172
 51
82.4178226991546836
  0
ARC
  5
22DDC
  8
0
 10
5263.6378868509573294
 20
-24.2287446823448995
 30
0.0
 40
0.151574803149999
 50
84.3206543877190171
 51
93.7827807941429654
  0
CIRCLE
  5
22DDD
  8
0
 10
5269.5433986618563722
 20
-24.2287446823448995
 30
0.0
 40
0.4524156308878445
  0
CIRCLE
  5
22DDE
  8
0
 10
5269.5433986618563722
 20
-24.2287446823448995
 30
0.0
 40
0.4444156308878445
  0
CIRCLE
  5
22DDF
  8
0
 10
5269.5433986618563722
 20
-24.2287446823448995
 30
0.0
 40
0.374516767217556
  0
CIRCLE
  5
22DE0
  8
0
 10
5269.5433986618563722
 20
-24.2287446823448995
 30
0.0
 40
0.2263779528000001
  0
LINE
  5
22DE1
  8
0
 10
5269.7633986619057396
 20
-24.2165211817448984
 30
0.0
 11
5269.7383986619051939
 21
-24.2165211817448984
 31
0.0
  0
LINE
  5
22DE2
  8
0
 10
5269.7383986619051939
 20
-24.2165211817448984
 30
0.0
 11
5269.7383986619051939
 21
-24.2365211817449016
 31
0.0
  0
LINE
  5
22DE3
  8
0
 10
5269.7383986619051939
 20
-24.2365211817449016
 30
0.0
 11
5269.7633986619057396
 21
-24.2365211817449016
 31
0.0
  0
LINE
  5
22DE4
  8
0
 10
5269.7633986619057396
 20
-24.2365211817449016
 30
0.0
 11
5269.7633986619057396
 21
-24.2165211817448984
 31
0.0
  0
LINE
  5
22DE5
  8
0
 10
5269.7333986619050847
 20
-24.2165211817448984
 30
0.0
 11
5269.7083986619054485
 21
-24.2165211817448984
 31
0.0
  0
LINE
  5
22DE6
  8
0
 10
5269.7083986619054485
 20
-24.2165211817448984
 30
0.0
 11
5269.7083986619054485
 21
-24.2365211817449016
 31
0.0
  0
LINE
  5
22DE7
  8
0
 10
5269.7083986619054485
 20
-24.2365211817449016
 30
0.0
 11
5269.7333986619050847
 21
-24.2365211817449016
 31
0.0
  0
LINE
  5
22DE8
  8
0
 10
5269.7333986619050847
 20
-24.2365211817449016
 30
0.0
 11
5269.7333986619050847
 21
-24.2165211817448984
 31
0.0
  0
LINE
  5
22DE9
  8
0
 10
5269.7033986619053394
 20
-24.2165211817448984
 30
0.0
 11
5269.6783986619057032
 21
-24.2165211817448984
 31
0.0
  0
LINE
  5
22DEA
  8
0
 10
5269.6783986619057032
 20
-24.2165211817448984
 30
0.0
 11
5269.6783986619057032
 21
-24.2365211817449016
 31
0.0
  0
LINE
  5
22DEB
  8
0
 10
5269.6783986619057032
 20
-24.2365211817449016
 30
0.0
 11
5269.7033986619053394
 21
-24.2365211817449016
 31
0.0
  0
LINE
  5
22DEC
  8
0
 10
5269.7033986619053394
 20
-24.2365211817449016
 30
0.0
 11
5269.7033986619053394
 21
-24.2165211817448984
 31
0.0
  0
LINE
  5
22DED
  8
0
 10
5269.6733986619055941
 20
-24.2165211817448984
 30
0.0
 11
5269.6483986619050484
 21
-24.2165211817448984
 31
0.0
  0
LINE
  5
22DEE
  8
0
 10
5269.6483986619050484
 20
-24.2165211817448984
 30
0.0
 11
5269.6483986619050484
 21
-24.2365211817449016
 31
0.0
  0
LINE
  5
22DEF
  8
0
 10
5269.6483986619050484
 20
-24.2365211817449016
 30
0.0
 11
5269.6733986619055941
 21
-24.2365211817449016
 31
0.0
  0
LINE
  5
22DF0
  8
0
 10
5269.6733986619055941
 20
-24.2365211817449016
 30
0.0
 11
5269.6733986619055941
 21
-24.2165211817448984
 31
0.0
  0
LINE
  5
22DF1
  8
0
 10
5269.6433986619058487
 20
-24.2165211817448984
 30
0.0
 11
5269.618398661905303
 21
-24.2165211817448984
 31
0.0
  0
LINE
  5
22DF2
  8
0
 10
5269.618398661905303
 20
-24.2165211817448984
 30
0.0
 11
5269.618398661905303
 21
-24.2365211817449016
 31
0.0
  0
LINE
  5
22DF3
  8
0
 10
5269.618398661905303
 20
-24.2365211817449016
 30
0.0
 11
5269.6433986619058487
 21
-24.2365211817449016
 31
0.0
  0
LINE
  5
22DF4
  8
0
 10
5269.6433986619058487
 20
-24.2365211817449016
 30
0.0
 11
5269.6433986619058487
 21
-24.2165211817448984
 31
0.0
  0
LINE
  5
22DF5
  8
0
 10
5269.6133986619051939
 20
-24.2165211817448984
 30
0.0
 11
5269.5883986619046482
 21
-24.2165211817448984
 31
0.0
  0
LINE
  5
22DF6
  8
0
 10
5269.5883986619046482
 20
-24.2165211817448984
 30
0.0
 11
5269.5883986619046482
 21
-24.2365211817449016
 31
0.0
  0
LINE
  5
22DF7
  8
0
 10
5269.5883986619046482
 20
-24.2365211817449016
 30
0.0
 11
5269.6133986619051939
 21
-24.2365211817449016
 31
0.0
  0
LINE
  5
22DF8
  8
0
 10
5269.6133986619051939
 20
-24.2365211817449016
 30
0.0
 11
5269.6133986619051939
 21
-24.2165211817448984
 31
0.0
  0
LINE
  5
22DF9
  8
0
 10
5269.583398661906358
 20
-24.2165211817448984
 30
0.0
 11
5269.5583986619058123
 21
-24.2165211817448984
 31
0.0
  0
LINE
  5
22DFA
  8
0
 10
5269.5583986619058123
 20
-24.2165211817448984
 30
0.0
 11
5269.5583986619058123
 21
-24.2365211817449016
 31
0.0
  0
LINE
  5
22DFB
  8
0
 10
5269.5583986619058123
 20
-24.2365211817449016
 30
0.0
 11
5269.583398661906358
 21
-24.2365211817449016
 31
0.0
  0
LINE
  5
22DFC
  8
0
 10
5269.583398661906358
 20
-24.2365211817449016
 30
0.0
 11
5269.583398661906358
 21
-24.2165211817448984
 31
0.0
  0
LINE
  5
22DFD
  8
0
 10
5269.5533986619057032
 20
-24.2165211817448984
 30
0.0
 11
5269.5283986619051575
 21
-24.2165211817448984
 31
0.0
  0
LINE
  5
22DFE
  8
0
 10
5269.5283986619051575
 20
-24.2165211817448984
 30
0.0
 11
5269.5283986619051575
 21
-24.2365211817449016
 31
0.0
  0
LINE
  5
22DFF
  8
0
 10
5269.5283986619051575
 20
-24.2365211817449016
 30
0.0
 11
5269.5533986619057032
 21
-24.2365211817449016
 31
0.0
  0
LINE
  5
22E00
  8
0
 10
5269.5533986619057032
 20
-24.2365211817449016
 30
0.0
 11
5269.5533986619057032
 21
-24.2165211817448984
 31
0.0
  0
LINE
  5
22E01
  8
0
 10
5269.5233986619050484
 20
-24.2165211817448984
 30
0.0
 11
5269.4983986619054122
 21
-24.2165211817448984
 31
0.0
  0
LINE
  5
22E02
  8
0
 10
5269.4983986619054122
 20
-24.2165211817448984
 30
0.0
 11
5269.4983986619054122
 21
-24.2365211817449016
 31
0.0
  0
LINE
  5
22E03
  8
0
 10
5269.4983986619054122
 20
-24.2365211817449016
 30
0.0
 11
5269.5233986619050484
 21
-24.2365211817449016
 31
0.0
  0
LINE
  5
22E04
  8
0
 10
5269.5233986619050484
 20
-24.2365211817449016
 30
0.0
 11
5269.5233986619050484
 21
-24.2165211817448984
 31
0.0
  0
LINE
  5
22E05
  8
0
 10
5269.493398661905303
 20
-24.2165211817448984
 30
0.0
 11
5269.4683986619047573
 21
-24.2165211817448984
 31
0.0
  0
LINE
  5
22E06
  8
0
 10
5269.4683986619047573
 20
-24.2165211817448984
 30
0.0
 11
5269.4683986619047573
 21
-24.2365211817449016
 31
0.0
  0
LINE
  5
22E07
  8
0
 10
5269.4683986619047573
 20
-24.2365211817449016
 30
0.0
 11
5269.493398661905303
 21
-24.2365211817449016
 31
0.0
  0
LINE
  5
22E08
  8
0
 10
5269.493398661905303
 20
-24.2365211817449016
 30
0.0
 11
5269.493398661905303
 21
-24.2165211817448984
 31
0.0
  0
LINE
  5
22E09
  8
0
 10
5269.4633986619055577
 20
-24.2165211817448984
 30
0.0
 11
5269.438398661905012
 21
-24.2165211817448984
 31
0.0
  0
LINE
  5
22E0A
  8
0
 10
5269.438398661905012
 20
-24.2165211817448984
 30
0.0
 11
5269.438398661905012
 21
-24.2365211817449016
 31
0.0
  0
LINE
  5
22E0B
  8
0
 10
5269.438398661905012
 20
-24.2365211817449016
 30
0.0
 11
5269.4633986619055577
 21
-24.2365211817449016
 31
0.0
  0
LINE
  5
22E0C
  8
0
 10
5269.4633986619055577
 20
-24.2365211817449016
 30
0.0
 11
5269.4633986619055577
 21
-24.2165211817448984
 31
0.0
  0
LINE
  5
22E0D
  8
0
 10
5269.4333986619058123
 20
-24.2165211817448984
 30
0.0
 11
5269.4083986619052666
 21
-24.2165211817448984
 31
0.0
  0
LINE
  5
22E0E
  8
0
 10
5269.4083986619052666
 20
-24.2165211817448984
 30
0.0
 11
5269.4083986619052666
 21
-24.2365211817449016
 31
0.0
  0
LINE
  5
22E0F
  8
0
 10
5269.4083986619052666
 20
-24.2365211817449016
 30
0.0
 11
5269.4333986619058123
 21
-24.2365211817449016
 31
0.0
  0
LINE
  5
22E10
  8
0
 10
5269.4333986619058123
 20
-24.2365211817449016
 30
0.0
 11
5269.4333986619058123
 21
-24.2165211817448984
 31
0.0
  0
LINE
  5
22E11
  8
0
 10
5269.4033986619051575
 20
-24.2165211817448984
 30
0.0
 11
5269.3783986619046118
 21
-24.2165211817448984
 31
0.0
  0
LINE
  5
22E12
  8
0
 10
5269.3783986619046118
 20
-24.2165211817448984
 30
0.0
 11
5269.3783986619046118
 21
-24.2365211817449016
 31
0.0
  0
LINE
  5
22E13
  8
0
 10
5269.3783986619046118
 20
-24.2365211817449016
 30
0.0
 11
5269.4033986619051575
 21
-24.2365211817449016
 31
0.0
  0
LINE
  5
22E14
  8
0
 10
5269.4033986619051575
 20
-24.2365211817449016
 30
0.0
 11
5269.4033986619051575
 21
-24.2165211817448984
 31
0.0
  0
LINE
  5
22E15
  8
0
 10
5269.3733986619063216
 20
-24.2165211817448984
 30
0.0
 11
5269.348398661905776
 21
-24.2165211817448984
 31
0.0
  0
LINE
  5
22E16
  8
0
 10
5269.348398661905776
 20
-24.2165211817448984
 30
0.0
 11
5269.348398661905776
 21
-24.2365211817449016
 31
0.0
  0
LINE
  5
22E17
  8
0
 10
5269.348398661905776
 20
-24.2365211817449016
 30
0.0
 11
5269.3733986619063216
 21
-24.2365211817449016
 31
0.0
  0
LINE
  5
22E18
  8
0
 10
5269.3733986619063216
 20
-24.2365211817449016
 30
0.0
 11
5269.3733986619063216
 21
-24.2165211817448984
 31
0.0
  0
LINE
  5
22E19
  8
0
 10
5269.3433986619056668
 20
-24.2165211817448984
 30
0.0
 11
5269.3183986619051211
 21
-24.2165211817448984
 31
0.0
  0
LINE
  5
22E1A
  8
0
 10
5269.3183986619051211
 20
-24.2165211817448984
 30
0.0
 11
5269.3183986619051211
 21
-24.2365211817449016
 31
0.0
  0
LINE
  5
22E1B
  8
0
 10
5269.3183986619051211
 20
-24.2365211817449016
 30
0.0
 11
5269.3433986619056668
 21
-24.2365211817449016
 31
0.0
  0
LINE
  5
22E1C
  8
0
 10
5269.3433986619056668
 20
-24.2365211817449016
 30
0.0
 11
5269.3433986619056668
 21
-24.2165211817448984
 31
0.0
  0
LINE
  5
22E1D
  8
0
 10
5269.7694463637835725
 20
-24.2165211817448984
 30
0.0
 11
5269.7683986619058487
 21
-24.2165211817448984
 31
0.0
  0
LINE
  5
22E1E
  8
0
 10
5269.7683986619058487
 20
-24.2165211817448984
 30
0.0
 11
5269.7683986619058487
 21
-24.2365211817449016
 31
0.0
  0
LINE
  5
22E1F
  8
0
 10
5269.7683986619058487
 20
-24.2365211817449016
 30
0.0
 11
5269.7696430127425629
 21
-24.23652100574499
 31
0.0
  0
LINE
  5
22E20
  8
0
 10
5269.7633986619057396
 20
-24.1915211817449105
 30
0.0
 11
5269.7383986619051939
 21
-24.1915211817449105
 31
0.0
  0
LINE
  5
22E21
  8
0
 10
5269.7383986619051939
 20
-24.1915211817449105
 30
0.0
 11
5269.7383986619051939
 21
-24.2115211817448994
 31
0.0
  0
LINE
  5
22E22
  8
0
 10
5269.7383986619051939
 20
-24.2115211817448994
 30
0.0
 11
5269.7633986619057396
 21
-24.2115211817448994
 31
0.0
  0
LINE
  5
22E23
  8
0
 10
5269.7633986619057396
 20
-24.2115211817448994
 30
0.0
 11
5269.7633986619057396
 21
-24.1915211817449105
 31
0.0
  0
LINE
  5
22E24
  8
0
 10
5269.7333986619050847
 20
-24.1915211817449105
 30
0.0
 11
5269.7083986619054485
 21
-24.1915211817449105
 31
0.0
  0
LINE
  5
22E25
  8
0
 10
5269.7083986619054485
 20
-24.1915211817449105
 30
0.0
 11
5269.7083986619054485
 21
-24.2115211817448994
 31
0.0
  0
LINE
  5
22E26
  8
0
 10
5269.7083986619054485
 20
-24.2115211817448994
 30
0.0
 11
5269.7333986619050847
 21
-24.2115211817448994
 31
0.0
  0
LINE
  5
22E27
  8
0
 10
5269.7333986619050847
 20
-24.2115211817448994
 30
0.0
 11
5269.7333986619050847
 21
-24.1915211817449105
 31
0.0
  0
LINE
  5
22E28
  8
0
 10
5269.7033986619053394
 20
-24.1915211817449105
 30
0.0
 11
5269.6783986619057032
 21
-24.1915211817449105
 31
0.0
  0
LINE
  5
22E29
  8
0
 10
5269.6783986619057032
 20
-24.1915211817449105
 30
0.0
 11
5269.6783986619057032
 21
-24.2115211817448994
 31
0.0
  0
LINE
  5
22E2A
  8
0
 10
5269.6783986619057032
 20
-24.2115211817448994
 30
0.0
 11
5269.7033986619053394
 21
-24.2115211817448994
 31
0.0
  0
LINE
  5
22E2B
  8
0
 10
5269.7033986619053394
 20
-24.2115211817448994
 30
0.0
 11
5269.7033986619053394
 21
-24.1915211817449105
 31
0.0
  0
LINE
  5
22E2C
  8
0
 10
5269.6733986619055941
 20
-24.1915211817449105
 30
0.0
 11
5269.6483986619050484
 21
-24.1915211817449105
 31
0.0
  0
LINE
  5
22E2D
  8
0
 10
5269.6483986619050484
 20
-24.1915211817449105
 30
0.0
 11
5269.6483986619050484
 21
-24.2115211817448994
 31
0.0
  0
LINE
  5
22E2E
  8
0
 10
5269.6483986619050484
 20
-24.2115211817448994
 30
0.0
 11
5269.6733986619055941
 21
-24.2115211817448994
 31
0.0
  0
LINE
  5
22E2F
  8
0
 10
5269.6733986619055941
 20
-24.2115211817448994
 30
0.0
 11
5269.6733986619055941
 21
-24.1915211817449105
 31
0.0
  0
LINE
  5
22E30
  8
0
 10
5269.6433986619058487
 20
-24.1915211817449105
 30
0.0
 11
5269.618398661905303
 21
-24.1915211817449105
 31
0.0
  0
LINE
  5
22E31
  8
0
 10
5269.618398661905303
 20
-24.1915211817449105
 30
0.0
 11
5269.618398661905303
 21
-24.2115211817448994
 31
0.0
  0
LINE
  5
22E32
  8
0
 10
5269.618398661905303
 20
-24.2115211817448994
 30
0.0
 11
5269.6433986619058487
 21
-24.2115211817448994
 31
0.0
  0
LINE
  5
22E33
  8
0
 10
5269.6433986619058487
 20
-24.2115211817448994
 30
0.0
 11
5269.6433986619058487
 21
-24.1915211817449105
 31
0.0
  0
LINE
  5
22E34
  8
0
 10
5269.6133986619051939
 20
-24.1915211817449105
 30
0.0
 11
5269.5883986619046482
 21
-24.1915211817449105
 31
0.0
  0
LINE
  5
22E35
  8
0
 10
5269.5883986619046482
 20
-24.1915211817449105
 30
0.0
 11
5269.5883986619046482
 21
-24.2115211817448994
 31
0.0
  0
LINE
  5
22E36
  8
0
 10
5269.5883986619046482
 20
-24.2115211817448994
 30
0.0
 11
5269.6133986619051939
 21
-24.2115211817448994
 31
0.0
  0
LINE
  5
22E37
  8
0
 10
5269.6133986619051939
 20
-24.2115211817448994
 30
0.0
 11
5269.6133986619051939
 21
-24.1915211817449105
 31
0.0
  0
LINE
  5
22E38
  8
0
 10
5269.583398661906358
 20
-24.1915211817449105
 30
0.0
 11
5269.5583986619058123
 21
-24.1915211817449105
 31
0.0
  0
LINE
  5
22E39
  8
0
 10
5269.5583986619058123
 20
-24.1915211817449105
 30
0.0
 11
5269.5583986619058123
 21
-24.2115211817448994
 31
0.0
  0
LINE
  5
22E3A
  8
0
 10
5269.5583986619058123
 20
-24.2115211817448994
 30
0.0
 11
5269.583398661906358
 21
-24.2115211817448994
 31
0.0
  0
LINE
  5
22E3B
  8
0
 10
5269.583398661906358
 20
-24.2115211817448994
 30
0.0
 11
5269.583398661906358
 21
-24.1915211817449105
 31
0.0
  0
LINE
  5
22E3C
  8
0
 10
5269.5533986619057032
 20
-24.1915211817449105
 30
0.0
 11
5269.5283986619051575
 21
-24.1915211817449105
 31
0.0
  0
LINE
  5
22E3D
  8
0
 10
5269.5283986619051575
 20
-24.1915211817449105
 30
0.0
 11
5269.5283986619051575
 21
-24.2115211817448994
 31
0.0
  0
LINE
  5
22E3E
  8
0
 10
5269.5283986619051575
 20
-24.2115211817448994
 30
0.0
 11
5269.5533986619057032
 21
-24.2115211817448994
 31
0.0
  0
LINE
  5
22E3F
  8
0
 10
5269.5533986619057032
 20
-24.2115211817448994
 30
0.0
 11
5269.5533986619057032
 21
-24.1915211817449105
 31
0.0
  0
LINE
  5
22E40
  8
0
 10
5269.5233986619050484
 20
-24.1915211817449105
 30
0.0
 11
5269.4983986619054122
 21
-24.1915211817449105
 31
0.0
  0
LINE
  5
22E41
  8
0
 10
5269.4983986619054122
 20
-24.1915211817449105
 30
0.0
 11
5269.4983986619054122
 21
-24.2115211817448994
 31
0.0
  0
LINE
  5
22E42
  8
0
 10
5269.4983986619054122
 20
-24.2115211817448994
 30
0.0
 11
5269.5233986619050484
 21
-24.2115211817448994
 31
0.0
  0
LINE
  5
22E43
  8
0
 10
5269.5233986619050484
 20
-24.2115211817448994
 30
0.0
 11
5269.5233986619050484
 21
-24.1915211817449105
 31
0.0
  0
LINE
  5
22E44
  8
0
 10
5269.493398661905303
 20
-24.1915211817449105
 30
0.0
 11
5269.4683986619047573
 21
-24.1915211817449105
 31
0.0
  0
LINE
  5
22E45
  8
0
 10
5269.4683986619047573
 20
-24.1915211817449105
 30
0.0
 11
5269.4683986619047573
 21
-24.2115211817448994
 31
0.0
  0
LINE
  5
22E46
  8
0
 10
5269.4683986619047573
 20
-24.2115211817448994
 30
0.0
 11
5269.493398661905303
 21
-24.2115211817448994
 31
0.0
  0
LINE
  5
22E47
  8
0
 10
5269.493398661905303
 20
-24.2115211817448994
 30
0.0
 11
5269.493398661905303
 21
-24.1915211817449105
 31
0.0
  0
LINE
  5
22E48
  8
0
 10
5269.4633986619055577
 20
-24.1915211817449105
 30
0.0
 11
5269.438398661905012
 21
-24.1915211817449105
 31
0.0
  0
LINE
  5
22E49
  8
0
 10
5269.438398661905012
 20
-24.1915211817449105
 30
0.0
 11
5269.438398661905012
 21
-24.2115211817448994
 31
0.0
  0
LINE
  5
22E4A
  8
0
 10
5269.438398661905012
 20
-24.2115211817448994
 30
0.0
 11
5269.4633986619055577
 21
-24.2115211817448994
 31
0.0
  0
LINE
  5
22E4B
  8
0
 10
5269.4633986619055577
 20
-24.2115211817448994
 30
0.0
 11
5269.4633986619055577
 21
-24.1915211817449105
 31
0.0
  0
LINE
  5
22E4C
  8
0
 10
5269.4333986619058123
 20
-24.1915211817449105
 30
0.0
 11
5269.4083986619052666
 21
-24.1915211817449105
 31
0.0
  0
LINE
  5
22E4D
  8
0
 10
5269.4083986619052666
 20
-24.1915211817449105
 30
0.0
 11
5269.4083986619052666
 21
-24.2115211817448994
 31
0.0
  0
LINE
  5
22E4E
  8
0
 10
5269.4083986619052666
 20
-24.2115211817448994
 30
0.0
 11
5269.4333986619058123
 21
-24.2115211817448994
 31
0.0
  0
LINE
  5
22E4F
  8
0
 10
5269.4333986619058123
 20
-24.2115211817448994
 30
0.0
 11
5269.4333986619058123
 21
-24.1915211817449105
 31
0.0
  0
LINE
  5
22E50
  8
0
 10
5269.4033986619051575
 20
-24.1915211817449105
 30
0.0
 11
5269.3783986619046118
 21
-24.1915211817449105
 31
0.0
  0
LINE
  5
22E51
  8
0
 10
5269.3783986619046118
 20
-24.1915211817449105
 30
0.0
 11
5269.3783986619046118
 21
-24.2115211817448994
 31
0.0
  0
LINE
  5
22E52
  8
0
 10
5269.3783986619046118
 20
-24.2115211817448994
 30
0.0
 11
5269.4033986619051575
 21
-24.2115211817448994
 31
0.0
  0
LINE
  5
22E53
  8
0
 10
5269.4033986619051575
 20
-24.2115211817448994
 30
0.0
 11
5269.4033986619051575
 21
-24.1915211817449105
 31
0.0
  0
LINE
  5
22E54
  8
0
 10
5269.3733986619063216
 20
-24.1915211817449105
 30
0.0
 11
5269.348398661905776
 21
-24.1915211817449105
 31
0.0
  0
LINE
  5
22E55
  8
0
 10
5269.348398661905776
 20
-24.1915211817449105
 30
0.0
 11
5269.348398661905776
 21
-24.2115211817448994
 31
0.0
  0
LINE
  5
22E56
  8
0
 10
5269.348398661905776
 20
-24.2115211817448994
 30
0.0
 11
5269.3733986619063216
 21
-24.2115211817448994
 31
0.0
  0
LINE
  5
22E57
  8
0
 10
5269.3733986619063216
 20
-24.2115211817448994
 30
0.0
 11
5269.3733986619063216
 21
-24.1915211817449105
 31
0.0
  0
LINE
  5
22E58
  8
0
 10
5269.3433986619056668
 20
-24.1915211817449105
 30
0.0
 11
5269.320102023911204
 21
-24.1915211817449105
 31
0.0
  0
LINE
  5
22E59
  8
0
 10
5269.3183986619051211
 20
-24.2038052048760584
 30
0.0
 11
5269.3183986619051211
 21
-24.2115211817448994
 31
0.0
  0
LINE
  5
22E5A
  8
0
 10
5269.3183986619051211
 20
-24.2115211817448994
 30
0.0
 11
5269.3433986619056668
 21
-24.2115211817448994
 31
0.0
  0
LINE
  5
22E5B
  8
0
 10
5269.3433986619056668
 20
-24.2115211817448994
 30
0.0
 11
5269.3433986619056668
 21
-24.1915211817449105
 31
0.0
  0
LINE
  5
22E5C
  8
0
 10
5269.7683986619058487
 20
-24.2038052057782309
 30
0.0
 11
5269.7683986619058487
 21
-24.2115211817448994
 31
0.0
  0
LINE
  5
22E5D
  8
0
 10
5269.7683986619058487
 20
-24.2115211817448994
 30
0.0
 11
5269.7691204486282004
 21
-24.2115210796560199
 31
0.0
  0
LINE
  5
22E5E
  8
0
 10
5269.7610571408704345
 20
-24.1665211817449084
 30
0.0
 11
5269.7383986619051939
 21
-24.1665211817449084
 31
0.0
  0
LINE
  5
22E5F
  8
0
 10
5269.7383986619051939
 20
-24.1665211817449084
 30
0.0
 11
5269.7383986619051939
 21
-24.1865211817449008
 31
0.0
  0
LINE
  5
22E60
  8
0
 10
5269.7383986619051939
 20
-24.1865211817449008
 30
0.0
 11
5269.7633986619057396
 21
-24.1865211817449008
 31
0.0
  0
LINE
  5
22E61
  8
0
 10
5269.7633986619057396
 20
-24.1865211817449008
 30
0.0
 11
5269.7633986619057396
 21
-24.175387606976031
 31
0.0
  0
LINE
  5
22E62
  8
0
 10
5269.7333986619050847
 20
-24.1665211817449084
 30
0.0
 11
5269.7083986619054485
 21
-24.1665211817449084
 31
0.0
  0
LINE
  5
22E63
  8
0
 10
5269.7083986619054485
 20
-24.1665211817449084
 30
0.0
 11
5269.7083986619054485
 21
-24.1865211817449008
 31
0.0
  0
LINE
  5
22E64
  8
0
 10
5269.7083986619054485
 20
-24.1865211817449008
 30
0.0
 11
5269.7333986619050847
 21
-24.1865211817449008
 31
0.0
  0
LINE
  5
22E65
  8
0
 10
5269.7333986619050847
 20
-24.1865211817449008
 30
0.0
 11
5269.7333986619050847
 21
-24.1665211817449084
 31
0.0
  0
LINE
  5
22E66
  8
0
 10
5269.7033986619053394
 20
-24.1665211817449084
 30
0.0
 11
5269.6783986619057032
 21
-24.1665211817449084
 31
0.0
  0
LINE
  5
22E67
  8
0
 10
5269.6783986619057032
 20
-24.1665211817449084
 30
0.0
 11
5269.6783986619057032
 21
-24.1865211817449008
 31
0.0
  0
LINE
  5
22E68
  8
0
 10
5269.6783986619057032
 20
-24.1865211817449008
 30
0.0
 11
5269.7033986619053394
 21
-24.1865211817449008
 31
0.0
  0
LINE
  5
22E69
  8
0
 10
5269.7033986619053394
 20
-24.1865211817449008
 30
0.0
 11
5269.7033986619053394
 21
-24.1665211817449084
 31
0.0
  0
LINE
  5
22E6A
  8
0
 10
5269.6733986619055941
 20
-24.1665211817449084
 30
0.0
 11
5269.6483986619050484
 21
-24.1665211817449084
 31
0.0
  0
LINE
  5
22E6B
  8
0
 10
5269.6483986619050484
 20
-24.1665211817449084
 30
0.0
 11
5269.6483986619050484
 21
-24.1865211817449008
 31
0.0
  0
LINE
  5
22E6C
  8
0
 10
5269.6483986619050484
 20
-24.1865211817449008
 30
0.0
 11
5269.6733986619055941
 21
-24.1865211817449008
 31
0.0
  0
LINE
  5
22E6D
  8
0
 10
5269.6733986619055941
 20
-24.1865211817449008
 30
0.0
 11
5269.6733986619055941
 21
-24.1665211817449084
 31
0.0
  0
LINE
  5
22E6E
  8
0
 10
5269.6433986619058487
 20
-24.1665211817449084
 30
0.0
 11
5269.618398661905303
 21
-24.1665211817449084
 31
0.0
  0
LINE
  5
22E6F
  8
0
 10
5269.618398661905303
 20
-24.1665211817449084
 30
0.0
 11
5269.618398661905303
 21
-24.1865211817449008
 31
0.0
  0
LINE
  5
22E70
  8
0
 10
5269.618398661905303
 20
-24.1865211817449008
 30
0.0
 11
5269.6433986619058487
 21
-24.1865211817449008
 31
0.0
  0
LINE
  5
22E71
  8
0
 10
5269.6433986619058487
 20
-24.1865211817449008
 30
0.0
 11
5269.6433986619058487
 21
-24.1665211817449084
 31
0.0
  0
LINE
  5
22E72
  8
0
 10
5269.6133986619051939
 20
-24.1665211817449084
 30
0.0
 11
5269.5883986619046482
 21
-24.1665211817449084
 31
0.0
  0
LINE
  5
22E73
  8
0
 10
5269.5883986619046482
 20
-24.1665211817449084
 30
0.0
 11
5269.5883986619046482
 21
-24.1865211817449008
 31
0.0
  0
LINE
  5
22E74
  8
0
 10
5269.5883986619046482
 20
-24.1865211817449008
 30
0.0
 11
5269.6133986619051939
 21
-24.1865211817449008
 31
0.0
  0
LINE
  5
22E75
  8
0
 10
5269.6133986619051939
 20
-24.1865211817449008
 30
0.0
 11
5269.6133986619051939
 21
-24.1665211817449084
 31
0.0
  0
LINE
  5
22E76
  8
0
 10
5269.583398661906358
 20
-24.1665211817449084
 30
0.0
 11
5269.5583986619058123
 21
-24.1665211817449084
 31
0.0
  0
LINE
  5
22E77
  8
0
 10
5269.5583986619058123
 20
-24.1665211817449084
 30
0.0
 11
5269.5583986619058123
 21
-24.1865211817449008
 31
0.0
  0
LINE
  5
22E78
  8
0
 10
5269.5583986619058123
 20
-24.1865211817449008
 30
0.0
 11
5269.583398661906358
 21
-24.1865211817449008
 31
0.0
  0
LINE
  5
22E79
  8
0
 10
5269.583398661906358
 20
-24.1865211817449008
 30
0.0
 11
5269.583398661906358
 21
-24.1665211817449084
 31
0.0
  0
LINE
  5
22E7A
  8
0
 10
5269.5533986619057032
 20
-24.1665211817449084
 30
0.0
 11
5269.5283986619051575
 21
-24.1665211817449084
 31
0.0
  0
LINE
  5
22E7B
  8
0
 10
5269.5283986619051575
 20
-24.1665211817449084
 30
0.0
 11
5269.5283986619051575
 21
-24.1865211817449008
 31
0.0
  0
LINE
  5
22E7C
  8
0
 10
5269.5283986619051575
 20
-24.1865211817449008
 30
0.0
 11
5269.5533986619057032
 21
-24.1865211817449008
 31
0.0
  0
LINE
  5
22E7D
  8
0
 10
5269.5533986619057032
 20
-24.1865211817449008
 30
0.0
 11
5269.5533986619057032
 21
-24.1665211817449084
 31
0.0
  0
LINE
  5
22E7E
  8
0
 10
5269.5233986619050484
 20
-24.1665211817449084
 30
0.0
 11
5269.4983986619054122
 21
-24.1665211817449084
 31
0.0
  0
LINE
  5
22E7F
  8
0
 10
5269.4983986619054122
 20
-24.1665211817449084
 30
0.0
 11
5269.4983986619054122
 21
-24.1865211817449008
 31
0.0
  0
LINE
  5
22E80
  8
0
 10
5269.4983986619054122
 20
-24.1865211817449008
 30
0.0
 11
5269.5233986619050484
 21
-24.1865211817449008
 31
0.0
  0
LINE
  5
22E81
  8
0
 10
5269.5233986619050484
 20
-24.1865211817449008
 30
0.0
 11
5269.5233986619050484
 21
-24.1665211817449084
 31
0.0
  0
LINE
  5
22E82
  8
0
 10
5269.493398661905303
 20
-24.1665211817449084
 30
0.0
 11
5269.4683986619047573
 21
-24.1665211817449084
 31
0.0
  0
LINE
  5
22E83
  8
0
 10
5269.4683986619047573
 20
-24.1665211817449084
 30
0.0
 11
5269.4683986619047573
 21
-24.1865211817449008
 31
0.0
  0
LINE
  5
22E84
  8
0
 10
5269.4683986619047573
 20
-24.1865211817449008
 30
0.0
 11
5269.493398661905303
 21
-24.1865211817449008
 31
0.0
  0
LINE
  5
22E85
  8
0
 10
5269.493398661905303
 20
-24.1865211817449008
 30
0.0
 11
5269.493398661905303
 21
-24.1665211817449084
 31
0.0
  0
LINE
  5
22E86
  8
0
 10
5269.4633986619055577
 20
-24.1665211817449084
 30
0.0
 11
5269.438398661905012
 21
-24.1665211817449084
 31
0.0
  0
LINE
  5
22E87
  8
0
 10
5269.438398661905012
 20
-24.1665211817449084
 30
0.0
 11
5269.438398661905012
 21
-24.1865211817449008
 31
0.0
  0
LINE
  5
22E88
  8
0
 10
5269.438398661905012
 20
-24.1865211817449008
 30
0.0
 11
5269.4633986619055577
 21
-24.1865211817449008
 31
0.0
  0
LINE
  5
22E89
  8
0
 10
5269.4633986619055577
 20
-24.1865211817449008
 30
0.0
 11
5269.4633986619055577
 21
-24.1665211817449084
 31
0.0
  0
LINE
  5
22E8A
  8
0
 10
5269.4333986619058123
 20
-24.1665211817449084
 30
0.0
 11
5269.4083986619052666
 21
-24.1665211817449084
 31
0.0
  0
LINE
  5
22E8B
  8
0
 10
5269.4083986619052666
 20
-24.1665211817449084
 30
0.0
 11
5269.4083986619052666
 21
-24.1865211817449008
 31
0.0
  0
LINE
  5
22E8C
  8
0
 10
5269.4083986619052666
 20
-24.1865211817449008
 30
0.0
 11
5269.4333986619058123
 21
-24.1865211817449008
 31
0.0
  0
LINE
  5
22E8D
  8
0
 10
5269.4333986619058123
 20
-24.1865211817449008
 30
0.0
 11
5269.4333986619058123
 21
-24.1665211817449084
 31
0.0
  0
LINE
  5
22E8E
  8
0
 10
5269.4033986619051575
 20
-24.1665211817449084
 30
0.0
 11
5269.3783986619046118
 21
-24.1665211817449084
 31
0.0
  0
LINE
  5
22E8F
  8
0
 10
5269.3783986619046118
 20
-24.1665211817449084
 30
0.0
 11
5269.3783986619046118
 21
-24.1865211817449008
 31
0.0
  0
LINE
  5
22E90
  8
0
 10
5269.3783986619046118
 20
-24.1865211817449008
 30
0.0
 11
5269.4033986619051575
 21
-24.1865211817449008
 31
0.0
  0
LINE
  5
22E91
  8
0
 10
5269.4033986619051575
 20
-24.1865211817449008
 30
0.0
 11
5269.4033986619051575
 21
-24.1665211817449084
 31
0.0
  0
LINE
  5
22E92
  8
0
 10
5269.3733986619063216
 20
-24.1665211817449084
 30
0.0
 11
5269.348398661905776
 21
-24.1665211817449084
 31
0.0
  0
LINE
  5
22E93
  8
0
 10
5269.348398661905776
 20
-24.1665211817449084
 30
0.0
 11
5269.348398661905776
 21
-24.1865211817449008
 31
0.0
  0
LINE
  5
22E94
  8
0
 10
5269.348398661905776
 20
-24.1865211817449008
 30
0.0
 11
5269.3733986619063216
 21
-24.1865211817449008
 31
0.0
  0
LINE
  5
22E95
  8
0
 10
5269.3733986619063216
 20
-24.1865211817449008
 30
0.0
 11
5269.3733986619063216
 21
-24.1665211817449084
 31
0.0
  0
LINE
  5
22E96
  8
0
 10
5269.3433986619056668
 20
-24.1665211817449084
 30
0.0
 11
5269.3257401828395814
 21
-24.1665211817449084
 31
0.0
  0
LINE
  5
22E97
  8
0
 10
5269.32099328082586
 20
-24.1865211817449008
 30
0.0
 11
5269.3433986619056668
 21
-24.1865211817449008
 31
0.0
  0
LINE
  5
22E98
  8
0
 10
5269.3433986619056668
 20
-24.1865211817449008
 30
0.0
 11
5269.3433986619056668
 21
-24.1665211817449084
 31
0.0
  0
LINE
  5
22E99
  8
0
 10
5269.7522982512682574
 20
-24.1415211817448991
 30
0.0
 11
5269.7383986619051939
 21
-24.1415211817448991
 31
0.0
  0
LINE
  5
22E9A
  8
0
 10
5269.7383986619051939
 20
-24.1415211817448991
 30
0.0
 11
5269.7383986619051939
 21
-24.1615211817448987
 31
0.0
  0
LINE
  5
22E9B
  8
0
 10
5269.7383986619051939
 20
-24.1615211817448987
 30
0.0
 11
5269.7595652144973428
 21
-24.1615211817448987
 31
0.0
  0
LINE
  5
22E9C
  8
0
 10
5269.7333986619050847
 20
-24.1415211817448991
 30
0.0
 11
5269.7083986619054485
 21
-24.1415211817448991
 31
0.0
  0
LINE
  5
22E9D
  8
0
 10
5269.7083986619054485
 20
-24.1415211817448991
 30
0.0
 11
5269.7083986619054485
 21
-24.1615211817448987
 31
0.0
  0
LINE
  5
22E9E
  8
0
 10
5269.7083986619054485
 20
-24.1615211817448987
 30
0.0
 11
5269.7333986619050847
 21
-24.1615211817448987
 31
0.0
  0
LINE
  5
22E9F
  8
0
 10
5269.7333986619050847
 20
-24.1615211817448987
 30
0.0
 11
5269.7333986619050847
 21
-24.1415211817449098
 31
0.0
  0
LINE
  5
22EA0
  8
0
 10
5269.7033986619053394
 20
-24.1415211817448991
 30
0.0
 11
5269.6783986619057032
 21
-24.1415211817448991
 31
0.0
  0
LINE
  5
22EA1
  8
0
 10
5269.6783986619057032
 20
-24.1415211817448991
 30
0.0
 11
5269.6783986619057032
 21
-24.1615211817448987
 31
0.0
  0
LINE
  5
22EA2
  8
0
 10
5269.6783986619057032
 20
-24.1615211817448987
 30
0.0
 11
5269.7033986619053394
 21
-24.1615211817448987
 31
0.0
  0
LINE
  5
22EA3
  8
0
 10
5269.7033986619053394
 20
-24.1615211817448987
 30
0.0
 11
5269.7033986619053394
 21
-24.1415211817449098
 31
0.0
  0
LINE
  5
22EA4
  8
0
 10
5269.6733986619055941
 20
-24.1415211817448991
 30
0.0
 11
5269.6483986619050484
 21
-24.1415211817448991
 31
0.0
  0
LINE
  5
22EA5
  8
0
 10
5269.6483986619050484
 20
-24.1415211817448991
 30
0.0
 11
5269.6483986619050484
 21
-24.1615211817448987
 31
0.0
  0
LINE
  5
22EA6
  8
0
 10
5269.6483986619050484
 20
-24.1615211817448987
 30
0.0
 11
5269.6733986619055941
 21
-24.1615211817448987
 31
0.0
  0
LINE
  5
22EA7
  8
0
 10
5269.6733986619055941
 20
-24.1615211817448987
 30
0.0
 11
5269.6733986619055941
 21
-24.1415211817449098
 31
0.0
  0
LINE
  5
22EA8
  8
0
 10
5269.6433986619058487
 20
-24.1415211817448991
 30
0.0
 11
5269.618398661905303
 21
-24.1415211817448991
 31
0.0
  0
LINE
  5
22EA9
  8
0
 10
5269.618398661905303
 20
-24.1415211817448991
 30
0.0
 11
5269.618398661905303
 21
-24.1615211817448987
 31
0.0
  0
LINE
  5
22EAA
  8
0
 10
5269.618398661905303
 20
-24.1615211817448987
 30
0.0
 11
5269.6433986619058487
 21
-24.1615211817448987
 31
0.0
  0
LINE
  5
22EAB
  8
0
 10
5269.6433986619058487
 20
-24.1615211817448987
 30
0.0
 11
5269.6433986619058487
 21
-24.1415211817449098
 31
0.0
  0
LINE
  5
22EAC
  8
0
 10
5269.6133986619051939
 20
-24.1415211817448991
 30
0.0
 11
5269.5883986619046482
 21
-24.1415211817448991
 31
0.0
  0
LINE
  5
22EAD
  8
0
 10
5269.5883986619046482
 20
-24.1415211817448991
 30
0.0
 11
5269.5883986619046482
 21
-24.1615211817448987
 31
0.0
  0
LINE
  5
22EAE
  8
0
 10
5269.5883986619046482
 20
-24.1615211817448987
 30
0.0
 11
5269.6133986619051939
 21
-24.1615211817448987
 31
0.0
  0
LINE
  5
22EAF
  8
0
 10
5269.6133986619051939
 20
-24.1615211817448987
 30
0.0
 11
5269.6133986619051939
 21
-24.1415211817449098
 31
0.0
  0
LINE
  5
22EB0
  8
0
 10
5269.583398661906358
 20
-24.1415211817448991
 30
0.0
 11
5269.5583986619058123
 21
-24.1415211817448991
 31
0.0
  0
LINE
  5
22EB1
  8
0
 10
5269.5583986619058123
 20
-24.1415211817448991
 30
0.0
 11
5269.5583986619058123
 21
-24.1615211817448987
 31
0.0
  0
LINE
  5
22EB2
  8
0
 10
5269.5583986619058123
 20
-24.1615211817448987
 30
0.0
 11
5269.583398661906358
 21
-24.1615211817448987
 31
0.0
  0
LINE
  5
22EB3
  8
0
 10
5269.583398661906358
 20
-24.1615211817448987
 30
0.0
 11
5269.583398661906358
 21
-24.1415211817449098
 31
0.0
  0
LINE
  5
22EB4
  8
0
 10
5269.5533986619057032
 20
-24.1415211817448991
 30
0.0
 11
5269.5283986619051575
 21
-24.1415211817448991
 31
0.0
  0
LINE
  5
22EB5
  8
0
 10
5269.5283986619051575
 20
-24.1415211817448991
 30
0.0
 11
5269.5283986619051575
 21
-24.1615211817448987
 31
0.0
  0
LINE
  5
22EB6
  8
0
 10
5269.5283986619051575
 20
-24.1615211817448987
 30
0.0
 11
5269.5533986619057032
 21
-24.1615211817448987
 31
0.0
  0
LINE
  5
22EB7
  8
0
 10
5269.5533986619057032
 20
-24.1615211817448987
 30
0.0
 11
5269.5533986619057032
 21
-24.1415211817449098
 31
0.0
  0
LINE
  5
22EB8
  8
0
 10
5269.5233986619050484
 20
-24.1415211817448991
 30
0.0
 11
5269.4983986619054122
 21
-24.1415211817448991
 31
0.0
  0
LINE
  5
22EB9
  8
0
 10
5269.4983986619054122
 20
-24.1415211817448991
 30
0.0
 11
5269.4983986619054122
 21
-24.1615211817448987
 31
0.0
  0
LINE
  5
22EBA
  8
0
 10
5269.4983986619054122
 20
-24.1615211817448987
 30
0.0
 11
5269.5233986619050484
 21
-24.1615211817448987
 31
0.0
  0
LINE
  5
22EBB
  8
0
 10
5269.5233986619050484
 20
-24.1615211817448987
 30
0.0
 11
5269.5233986619050484
 21
-24.1415211817449098
 31
0.0
  0
LINE
  5
22EBC
  8
0
 10
5269.493398661905303
 20
-24.1415211817448991
 30
0.0
 11
5269.4683986619047573
 21
-24.1415211817448991
 31
0.0
  0
LINE
  5
22EBD
  8
0
 10
5269.4683986619047573
 20
-24.1415211817448991
 30
0.0
 11
5269.4683986619047573
 21
-24.1615211817448987
 31
0.0
  0
LINE
  5
22EBE
  8
0
 10
5269.4683986619047573
 20
-24.1615211817448987
 30
0.0
 11
5269.493398661905303
 21
-24.1615211817448987
 31
0.0
  0
LINE
  5
22EBF
  8
0
 10
5269.493398661905303
 20
-24.1615211817448987
 30
0.0
 11
5269.493398661905303
 21
-24.1415211817449098
 31
0.0
  0
LINE
  5
22EC0
  8
0
 10
5269.4633986619055577
 20
-24.1415211817448991
 30
0.0
 11
5269.438398661905012
 21
-24.1415211817448991
 31
0.0
  0
LINE
  5
22EC1
  8
0
 10
5269.438398661905012
 20
-24.1415211817448991
 30
0.0
 11
5269.438398661905012
 21
-24.1615211817448987
 31
0.0
  0
LINE
  5
22EC2
  8
0
 10
5269.438398661905012
 20
-24.1615211817448987
 30
0.0
 11
5269.4633986619055577
 21
-24.1615211817448987
 31
0.0
  0
LINE
  5
22EC3
  8
0
 10
5269.4633986619055577
 20
-24.1615211817448987
 30
0.0
 11
5269.4633986619055577
 21
-24.1415211817449098
 31
0.0
  0
LINE
  5
22EC4
  8
0
 10
5269.4333986619058123
 20
-24.1415211817448991
 30
0.0
 11
5269.4083986619052666
 21
-24.1415211817448991
 31
0.0
  0
LINE
  5
22EC5
  8
0
 10
5269.4083986619052666
 20
-24.1415211817448991
 30
0.0
 11
5269.4083986619052666
 21
-24.1615211817448987
 31
0.0
  0
LINE
  5
22EC6
  8
0
 10
5269.4083986619052666
 20
-24.1615211817448987
 30
0.0
 11
5269.4333986619058123
 21
-24.1615211817448987
 31
0.0
  0
LINE
  5
22EC7
  8
0
 10
5269.4333986619058123
 20
-24.1615211817448987
 30
0.0
 11
5269.4333986619058123
 21
-24.1415211817449098
 31
0.0
  0
LINE
  5
22EC8
  8
0
 10
5269.4033986619051575
 20
-24.1415211817448991
 30
0.0
 11
5269.3783986619046118
 21
-24.1415211817448991
 31
0.0
  0
LINE
  5
22EC9
  8
0
 10
5269.3783986619046118
 20
-24.1415211817448991
 30
0.0
 11
5269.3783986619046118
 21
-24.1615211817448987
 31
0.0
  0
LINE
  5
22ECA
  8
0
 10
5269.3783986619046118
 20
-24.1615211817448987
 30
0.0
 11
5269.4033986619051575
 21
-24.1615211817448987
 31
0.0
  0
LINE
  5
22ECB
  8
0
 10
5269.4033986619051575
 20
-24.1615211817448987
 30
0.0
 11
5269.4033986619051575
 21
-24.1415211817449098
 31
0.0
  0
LINE
  5
22ECC
  8
0
 10
5269.3733986619063216
 20
-24.1415211817448991
 30
0.0
 11
5269.348398661905776
 21
-24.1415211817448991
 31
0.0
  0
LINE
  5
22ECD
  8
0
 10
5269.348398661905776
 20
-24.1415211817448991
 30
0.0
 11
5269.348398661905776
 21
-24.1615211817448987
 31
0.0
  0
LINE
  5
22ECE
  8
0
 10
5269.348398661905776
 20
-24.1615211817448987
 30
0.0
 11
5269.3733986619063216
 21
-24.1615211817448987
 31
0.0
  0
LINE
  5
22ECF
  8
0
 10
5269.3733986619063216
 20
-24.1615211817448987
 30
0.0
 11
5269.3733986619063216
 21
-24.1415211817449098
 31
0.0
  0
LINE
  5
22ED0
  8
0
 10
5269.3433986619056668
 20
-24.1415211817448991
 30
0.0
 11
5269.3344990724417585
 21
-24.1415211817448991
 31
0.0
  0
LINE
  5
22ED1
  8
0
 10
5269.3272321092135826
 20
-24.1615211817448987
 30
0.0
 11
5269.3433986619056668
 21
-24.1615211817448987
 31
0.0
  0
LINE
  5
22ED2
  8
0
 10
5269.3433986619056668
 20
-24.1615211817448987
 30
0.0
 11
5269.3433986619056668
 21
-24.1415211817449098
 31
0.0
  0
LINE
  5
22ED3
  8
0
 10
5269.7400019767492267
 20
-24.1165211817449112
 30
0.0
 11
5269.7383986619051939
 21
-24.1165211817449112
 31
0.0
  0
LINE
  5
22ED4
  8
0
 10
5269.7383986619051939
 20
-24.1165211817449112
 30
0.0
 11
5269.7383986619051939
 21
-24.1365211817449001
 31
0.0
  0
LINE
  5
22ED5
  8
0
 10
5269.7383986619051939
 20
-24.1365211817449001
 30
0.0
 11
5269.7501395708477503
 21
-24.1365211817449108
 31
0.0
  0
LINE
  5
22ED6
  8
0
 10
5269.7333986619050847
 20
-24.1165211817449112
 30
0.0
 11
5269.7083986619054485
 21
-24.1165211817449112
 31
0.0
  0
LINE
  5
22ED7
  8
0
 10
5269.7083986619054485
 20
-24.1165211817449112
 30
0.0
 11
5269.7083986619054485
 21
-24.1365211817449001
 31
0.0
  0
LINE
  5
22ED8
  8
0
 10
5269.7083986619054485
 20
-24.1365211817449001
 30
0.0
 11
5269.7333986619050847
 21
-24.1365211817449001
 31
0.0
  0
LINE
  5
22ED9
  8
0
 10
5269.7333986619050847
 20
-24.1365211817449001
 30
0.0
 11
5269.7333986619050847
 21
-24.1165211817449112
 31
0.0
  0
LINE
  5
22EDA
  8
0
 10
5269.7033986619053394
 20
-24.1165211817449112
 30
0.0
 11
5269.6783986619057032
 21
-24.1165211817449112
 31
0.0
  0
LINE
  5
22EDB
  8
0
 10
5269.6783986619057032
 20
-24.1165211817449112
 30
0.0
 11
5269.6783986619057032
 21
-24.1365211817449001
 31
0.0
  0
LINE
  5
22EDC
  8
0
 10
5269.6783986619057032
 20
-24.1365211817449001
 30
0.0
 11
5269.7033986619053394
 21
-24.1365211817449001
 31
0.0
  0
LINE
  5
22EDD
  8
0
 10
5269.7033986619053394
 20
-24.1365211817449001
 30
0.0
 11
5269.7033986619053394
 21
-24.1165211817449112
 31
0.0
  0
LINE
  5
22EDE
  8
0
 10
5269.6733986619055941
 20
-24.1165211817449112
 30
0.0
 11
5269.6483986619050484
 21
-24.1165211817449112
 31
0.0
  0
LINE
  5
22EDF
  8
0
 10
5269.6483986619050484
 20
-24.1165211817449112
 30
0.0
 11
5269.6483986619050484
 21
-24.1365211817449001
 31
0.0
  0
LINE
  5
22EE0
  8
0
 10
5269.6483986619050484
 20
-24.1365211817449001
 30
0.0
 11
5269.6733986619055941
 21
-24.1365211817449001
 31
0.0
  0
LINE
  5
22EE1
  8
0
 10
5269.6733986619055941
 20
-24.1365211817449001
 30
0.0
 11
5269.6733986619055941
 21
-24.1165211817449112
 31
0.0
  0
LINE
  5
22EE2
  8
0
 10
5269.6433986619058487
 20
-24.1165211817449112
 30
0.0
 11
5269.618398661905303
 21
-24.1165211817449112
 31
0.0
  0
LINE
  5
22EE3
  8
0
 10
5269.618398661905303
 20
-24.1165211817449112
 30
0.0
 11
5269.618398661905303
 21
-24.1365211817449001
 31
0.0
  0
LINE
  5
22EE4
  8
0
 10
5269.618398661905303
 20
-24.1365211817449001
 30
0.0
 11
5269.6433986619058487
 21
-24.1365211817449001
 31
0.0
  0
LINE
  5
22EE5
  8
0
 10
5269.6433986619058487
 20
-24.1365211817449001
 30
0.0
 11
5269.6433986619058487
 21
-24.1165211817449112
 31
0.0
  0
LINE
  5
22EE6
  8
0
 10
5269.6133986619051939
 20
-24.1165211817449112
 30
0.0
 11
5269.5883986619046482
 21
-24.1165211817449112
 31
0.0
  0
LINE
  5
22EE7
  8
0
 10
5269.5883986619046482
 20
-24.1165211817449112
 30
0.0
 11
5269.5883986619046482
 21
-24.1365211817449001
 31
0.0
  0
LINE
  5
22EE8
  8
0
 10
5269.5883986619046482
 20
-24.1365211817449001
 30
0.0
 11
5269.6133986619051939
 21
-24.1365211817449001
 31
0.0
  0
LINE
  5
22EE9
  8
0
 10
5269.6133986619051939
 20
-24.1365211817449001
 30
0.0
 11
5269.6133986619051939
 21
-24.1165211817449112
 31
0.0
  0
LINE
  5
22EEA
  8
0
 10
5269.583398661906358
 20
-24.1165211817449112
 30
0.0
 11
5269.5583986619058123
 21
-24.1165211817449112
 31
0.0
  0
LINE
  5
22EEB
  8
0
 10
5269.5583986619058123
 20
-24.1165211817449112
 30
0.0
 11
5269.5583986619058123
 21
-24.1365211817449001
 31
0.0
  0
LINE
  5
22EEC
  8
0
 10
5269.5583986619058123
 20
-24.1365211817449001
 30
0.0
 11
5269.583398661906358
 21
-24.1365211817449001
 31
0.0
  0
LINE
  5
22EED
  8
0
 10
5269.583398661906358
 20
-24.1365211817449001
 30
0.0
 11
5269.583398661906358
 21
-24.1165211817449112
 31
0.0
  0
LINE
  5
22EEE
  8
0
 10
5269.5533986619057032
 20
-24.1165211817449112
 30
0.0
 11
5269.5283986619051575
 21
-24.1165211817449112
 31
0.0
  0
LINE
  5
22EEF
  8
0
 10
5269.5283986619051575
 20
-24.1165211817449112
 30
0.0
 11
5269.5283986619051575
 21
-24.1365211817449001
 31
0.0
  0
LINE
  5
22EF0
  8
0
 10
5269.5283986619051575
 20
-24.1365211817449001
 30
0.0
 11
5269.5533986619057032
 21
-24.1365211817449001
 31
0.0
  0
LINE
  5
22EF1
  8
0
 10
5269.5533986619057032
 20
-24.1365211817449001
 30
0.0
 11
5269.5533986619057032
 21
-24.1165211817449112
 31
0.0
  0
LINE
  5
22EF2
  8
0
 10
5269.5233986619050484
 20
-24.1165211817449112
 30
0.0
 11
5269.4983986619054122
 21
-24.1165211817449112
 31
0.0
  0
LINE
  5
22EF3
  8
0
 10
5269.4983986619054122
 20
-24.1165211817449112
 30
0.0
 11
5269.4983986619054122
 21
-24.1365211817449001
 31
0.0
  0
LINE
  5
22EF4
  8
0
 10
5269.4983986619054122
 20
-24.1365211817449001
 30
0.0
 11
5269.5233986619050484
 21
-24.1365211817449001
 31
0.0
  0
LINE
  5
22EF5
  8
0
 10
5269.5233986619050484
 20
-24.1365211817449001
 30
0.0
 11
5269.5233986619050484
 21
-24.1165211817449112
 31
0.0
  0
LINE
  5
22EF6
  8
0
 10
5269.493398661905303
 20
-24.1165211817449112
 30
0.0
 11
5269.4683986619047573
 21
-24.1165211817449112
 31
0.0
  0
LINE
  5
22EF7
  8
0
 10
5269.4683986619047573
 20
-24.1165211817449112
 30
0.0
 11
5269.4683986619047573
 21
-24.1365211817449001
 31
0.0
  0
LINE
  5
22EF8
  8
0
 10
5269.4683986619047573
 20
-24.1365211817449001
 30
0.0
 11
5269.493398661905303
 21
-24.1365211817449001
 31
0.0
  0
LINE
  5
22EF9
  8
0
 10
5269.493398661905303
 20
-24.1365211817449001
 30
0.0
 11
5269.493398661905303
 21
-24.1165211817449112
 31
0.0
  0
LINE
  5
22EFA
  8
0
 10
5269.4633986619055577
 20
-24.1165211817449112
 30
0.0
 11
5269.438398661905012
 21
-24.1165211817449112
 31
0.0
  0
LINE
  5
22EFB
  8
0
 10
5269.438398661905012
 20
-24.1165211817449112
 30
0.0
 11
5269.438398661905012
 21
-24.1365211817449001
 31
0.0
  0
LINE
  5
22EFC
  8
0
 10
5269.438398661905012
 20
-24.1365211817449001
 30
0.0
 11
5269.4633986619055577
 21
-24.1365211817449001
 31
0.0
  0
LINE
  5
22EFD
  8
0
 10
5269.4633986619055577
 20
-24.1365211817449001
 30
0.0
 11
5269.4633986619055577
 21
-24.1165211817449112
 31
0.0
  0
LINE
  5
22EFE
  8
0
 10
5269.4333986619058123
 20
-24.1165211817449112
 30
0.0
 11
5269.4083986619052666
 21
-24.1165211817449112
 31
0.0
  0
LINE
  5
22EFF
  8
0
 10
5269.4083986619052666
 20
-24.1165211817449112
 30
0.0
 11
5269.4083986619052666
 21
-24.1365211817449001
 31
0.0
  0
LINE
  5
22F00
  8
0
 10
5269.4083986619052666
 20
-24.1365211817449001
 30
0.0
 11
5269.4333986619058123
 21
-24.1365211817449001
 31
0.0
  0
LINE
  5
22F01
  8
0
 10
5269.4333986619058123
 20
-24.1365211817449001
 30
0.0
 11
5269.4333986619058123
 21
-24.1165211817449112
 31
0.0
  0
LINE
  5
22F02
  8
0
 10
5269.4033986619051575
 20
-24.1165211817449112
 30
0.0
 11
5269.3783986619046118
 21
-24.1165211817449112
 31
0.0
  0
LINE
  5
22F03
  8
0
 10
5269.3783986619046118
 20
-24.1165211817449112
 30
0.0
 11
5269.3783986619046118
 21
-24.1365211817449001
 31
0.0
  0
LINE
  5
22F04
  8
0
 10
5269.3783986619046118
 20
-24.1365211817449001
 30
0.0
 11
5269.4033986619051575
 21
-24.1365211817449001
 31
0.0
  0
LINE
  5
22F05
  8
0
 10
5269.4033986619051575
 20
-24.1365211817449001
 30
0.0
 11
5269.4033986619051575
 21
-24.1165211817449112
 31
0.0
  0
LINE
  5
22F06
  8
0
 10
5269.3733986619063216
 20
-24.1165211817449112
 30
0.0
 11
5269.348398661905776
 21
-24.1165211817449112
 31
0.0
  0
LINE
  5
22F07
  8
0
 10
5269.348398661905776
 20
-24.1165211817449112
 30
0.0
 11
5269.348398661905776
 21
-24.1365211817449001
 31
0.0
  0
LINE
  5
22F08
  8
0
 10
5269.348398661905776
 20
-24.1365211817449001
 30
0.0
 11
5269.3733986619063216
 21
-24.1365211817449001
 31
0.0
  0
LINE
  5
22F09
  8
0
 10
5269.3733986619063216
 20
-24.1365211817449001
 30
0.0
 11
5269.3733986619063216
 21
-24.1165211817449112
 31
0.0
  0
LINE
  5
22F0A
  8
0
 10
5269.3366577528631751
 20
-24.1365211817449108
 30
0.0
 11
5269.3433986619056668
 21
-24.1365211817449001
 31
0.0
  0
LINE
  5
22F0B
  8
0
 10
5269.3433986619056668
 20
-24.1365211817449001
 30
0.0
 11
5269.3433986619056668
 21
-24.1226929141657784
 31
0.0
  0
LINE
  5
22F0C
  8
0
 10
5269.723445012546108
 20
-24.0915211817449091
 30
0.0
 11
5269.7083986619054485
 21
-24.0915211817449091
 31
0.0
  0
LINE
  5
22F0D
  8
0
 10
5269.7083986619054485
 20
-24.0915211817449091
 30
0.0
 11
5269.7083986619054485
 21
-24.1115211817449087
 31
0.0
  0
LINE
  5
22F0E
  8
0
 10
5269.7083986619054485
 20
-24.1115211817449087
 30
0.0
 11
5269.7333986619050847
 21
-24.1115211817449087
 31
0.0
  0
LINE
  5
22F0F
  8
0
 10
5269.7333986619050847
 20
-24.1115211817449087
 30
0.0
 11
5269.7333986619050847
 21
-24.1056716247940415
 31
0.0
  0
LINE
  5
22F10
  8
0
 10
5269.7033986619053394
 20
-24.0915211817449091
 30
0.0
 11
5269.6783986619057032
 21
-24.0915211817449091
 31
0.0
  0
LINE
  5
22F11
  8
0
 10
5269.6783986619057032
 20
-24.0915211817449091
 30
0.0
 11
5269.6783986619057032
 21
-24.1115211817449087
 31
0.0
  0
LINE
  5
22F12
  8
0
 10
5269.6783986619057032
 20
-24.1115211817449087
 30
0.0
 11
5269.7033986619053394
 21
-24.1115211817449087
 31
0.0
  0
LINE
  5
22F13
  8
0
 10
5269.7033986619053394
 20
-24.1115211817449087
 30
0.0
 11
5269.7033986619053394
 21
-24.0915211817449091
 31
0.0
  0
LINE
  5
22F14
  8
0
 10
5269.6733986619055941
 20
-24.0915211817449091
 30
0.0
 11
5269.6483986619050484
 21
-24.0915211817449091
 31
0.0
  0
LINE
  5
22F15
  8
0
 10
5269.6483986619050484
 20
-24.0915211817449091
 30
0.0
 11
5269.6483986619050484
 21
-24.1115211817449087
 31
0.0
  0
LINE
  5
22F16
  8
0
 10
5269.6483986619050484
 20
-24.1115211817449087
 30
0.0
 11
5269.6733986619055941
 21
-24.1115211817449087
 31
0.0
  0
LINE
  5
22F17
  8
0
 10
5269.6733986619055941
 20
-24.1115211817449087
 30
0.0
 11
5269.6733986619055941
 21
-24.0915211817449091
 31
0.0
  0
LINE
  5
22F18
  8
0
 10
5269.6433986619058487
 20
-24.0915211817449091
 30
0.0
 11
5269.618398661905303
 21
-24.0915211817449091
 31
0.0
  0
LINE
  5
22F19
  8
0
 10
5269.618398661905303
 20
-24.0915211817449091
 30
0.0
 11
5269.618398661905303
 21
-24.1115211817449087
 31
0.0
  0
LINE
  5
22F1A
  8
0
 10
5269.618398661905303
 20
-24.1115211817449087
 30
0.0
 11
5269.6433986619058487
 21
-24.1115211817449087
 31
0.0
  0
LINE
  5
22F1B
  8
0
 10
5269.6433986619058487
 20
-24.1115211817449087
 30
0.0
 11
5269.6433986619058487
 21
-24.0915211817449091
 31
0.0
  0
LINE
  5
22F1C
  8
0
 10
5269.6133986619051939
 20
-24.0915211817449091
 30
0.0
 11
5269.5883986619046482
 21
-24.0915211817449091
 31
0.0
  0
LINE
  5
22F1D
  8
0
 10
5269.5883986619046482
 20
-24.0915211817449091
 30
0.0
 11
5269.5883986619046482
 21
-24.1115211817449087
 31
0.0
  0
LINE
  5
22F1E
  8
0
 10
5269.5883986619046482
 20
-24.1115211817449087
 30
0.0
 11
5269.6133986619051939
 21
-24.1115211817449087
 31
0.0
  0
LINE
  5
22F1F
  8
0
 10
5269.6133986619051939
 20
-24.1115211817449087
 30
0.0
 11
5269.6133986619051939
 21
-24.0915211817449091
 31
0.0
  0
LINE
  5
22F20
  8
0
 10
5269.583398661906358
 20
-24.0915211817449091
 30
0.0
 11
5269.5583986619058123
 21
-24.0915211817449091
 31
0.0
  0
LINE
  5
22F21
  8
0
 10
5269.5583986619058123
 20
-24.0915211817449091
 30
0.0
 11
5269.5583986619058123
 21
-24.1115211817449087
 31
0.0
  0
LINE
  5
22F22
  8
0
 10
5269.5583986619058123
 20
-24.1115211817449087
 30
0.0
 11
5269.583398661906358
 21
-24.1115211817449087
 31
0.0
  0
LINE
  5
22F23
  8
0
 10
5269.583398661906358
 20
-24.1115211817449087
 30
0.0
 11
5269.583398661906358
 21
-24.0915211817449091
 31
0.0
  0
LINE
  5
22F24
  8
0
 10
5269.5533986619057032
 20
-24.0915211817449091
 30
0.0
 11
5269.5283986619051575
 21
-24.0915211817449091
 31
0.0
  0
LINE
  5
22F25
  8
0
 10
5269.5283986619051575
 20
-24.0915211817449091
 30
0.0
 11
5269.5283986619051575
 21
-24.1115211817449087
 31
0.0
  0
LINE
  5
22F26
  8
0
 10
5269.5283986619051575
 20
-24.1115211817449087
 30
0.0
 11
5269.5533986619057032
 21
-24.1115211817449087
 31
0.0
  0
LINE
  5
22F27
  8
0
 10
5269.5533986619057032
 20
-24.1115211817449087
 30
0.0
 11
5269.5533986619057032
 21
-24.0915211817449091
 31
0.0
  0
LINE
  5
22F28
  8
0
 10
5269.5233986619050484
 20
-24.0915211817449091
 30
0.0
 11
5269.4983986619054122
 21
-24.0915211817449091
 31
0.0
  0
LINE
  5
22F29
  8
0
 10
5269.4983986619054122
 20
-24.0915211817449091
 30
0.0
 11
5269.4983986619054122
 21
-24.1115211817449087
 31
0.0
  0
LINE
  5
22F2A
  8
0
 10
5269.4983986619054122
 20
-24.1115211817449087
 30
0.0
 11
5269.5233986619050484
 21
-24.1115211817449087
 31
0.0
  0
LINE
  5
22F2B
  8
0
 10
5269.5233986619050484
 20
-24.1115211817449087
 30
0.0
 11
5269.5233986619050484
 21
-24.0915211817449091
 31
0.0
  0
LINE
  5
22F2C
  8
0
 10
5269.493398661905303
 20
-24.0915211817449091
 30
0.0
 11
5269.4683986619047573
 21
-24.0915211817449091
 31
0.0
  0
LINE
  5
22F2D
  8
0
 10
5269.4683986619047573
 20
-24.0915211817449091
 30
0.0
 11
5269.4683986619047573
 21
-24.1115211817449087
 31
0.0
  0
LINE
  5
22F2E
  8
0
 10
5269.4683986619047573
 20
-24.1115211817449087
 30
0.0
 11
5269.493398661905303
 21
-24.1115211817449087
 31
0.0
  0
LINE
  5
22F2F
  8
0
 10
5269.493398661905303
 20
-24.1115211817449087
 30
0.0
 11
5269.493398661905303
 21
-24.0915211817449091
 31
0.0
  0
LINE
  5
22F30
  8
0
 10
5269.4633986619055577
 20
-24.0915211817449091
 30
0.0
 11
5269.438398661905012
 21
-24.0915211817449091
 31
0.0
  0
LINE
  5
22F31
  8
0
 10
5269.438398661905012
 20
-24.0915211817449091
 30
0.0
 11
5269.438398661905012
 21
-24.1115211817449087
 31
0.0
  0
LINE
  5
22F32
  8
0
 10
5269.438398661905012
 20
-24.1115211817449087
 30
0.0
 11
5269.4633986619055577
 21
-24.1115211817449087
 31
0.0
  0
LINE
  5
22F33
  8
0
 10
5269.4633986619055577
 20
-24.1115211817449087
 30
0.0
 11
5269.4633986619055577
 21
-24.0915211817449091
 31
0.0
  0
LINE
  5
22F34
  8
0
 10
5269.4333986619058123
 20
-24.0915211817449091
 30
0.0
 11
5269.4083986619052666
 21
-24.0915211817449091
 31
0.0
  0
LINE
  5
22F35
  8
0
 10
5269.4083986619052666
 20
-24.0915211817449091
 30
0.0
 11
5269.4083986619052666
 21
-24.1115211817449087
 31
0.0
  0
LINE
  5
22F36
  8
0
 10
5269.4083986619052666
 20
-24.1115211817449087
 30
0.0
 11
5269.4333986619058123
 21
-24.1115211817449087
 31
0.0
  0
LINE
  5
22F37
  8
0
 10
5269.4333986619058123
 20
-24.1115211817449087
 30
0.0
 11
5269.4333986619058123
 21
-24.0915211817449091
 31
0.0
  0
LINE
  5
22F38
  8
0
 10
5269.4033986619051575
 20
-24.0915211817449091
 30
0.0
 11
5269.3783986619046118
 21
-24.0915211817449091
 31
0.0
  0
LINE
  5
22F39
  8
0
 10
5269.3783986619046118
 20
-24.0915211817449091
 30
0.0
 11
5269.3783986619046118
 21
-24.1115211817449087
 31
0.0
  0
LINE
  5
22F3A
  8
0
 10
5269.3783986619046118
 20
-24.1115211817449087
 30
0.0
 11
5269.4033986619051575
 21
-24.1115211817449087
 31
0.0
  0
LINE
  5
22F3B
  8
0
 10
5269.4033986619051575
 20
-24.1115211817449087
 30
0.0
 11
5269.4033986619051575
 21
-24.0915211817449091
 31
0.0
  0
LINE
  5
22F3C
  8
0
 10
5269.3733986619063216
 20
-24.0915211817449091
 30
0.0
 11
5269.3633523111648174
 21
-24.0915211817449091
 31
0.0
  0
LINE
  5
22F3D
  8
0
 10
5269.3497349625686184
 20
-24.1115211817449087
 30
0.0
 11
5269.3733986619063216
 21
-24.1115211817449087
 31
0.0
  0
LINE
  5
22F3E
  8
0
 10
5269.3733986619063216
 20
-24.1115211817449087
 30
0.0
 11
5269.3733986619063216
 21
-24.0915211817449091
 31
0.0
  0
LINE
  5
22F3F
  8
0
 10
5269.7083986619054485
 20
-24.0737544326599107
 30
0.0
 11
5269.7083986619054485
 21
-24.0865211817449101
 31
0.0
  0
LINE
  5
22F40
  8
0
 10
5269.7083986619054485
 20
-24.0865211817449101
 30
0.0
 11
5269.7195220657258687
 21
-24.0865211817449101
 31
0.0
  0
LINE
  5
22F41
  8
0
 10
5269.7012926559382322
 20
-24.0665211817449105
 30
0.0
 11
5269.6783986619057032
 21
-24.0665211817449105
 31
0.0
  0
LINE
  5
22F42
  8
0
 10
5269.6783986619057032
 20
-24.0665211817449105
 30
0.0
 11
5269.6783986619057032
 21
-24.0865211817449101
 31
0.0
  0
LINE
  5
22F43
  8
0
 10
5269.6783986619057032
 20
-24.0865211817449101
 30
0.0
 11
5269.7033986619053394
 21
-24.0865211817449101
 31
0.0
  0
LINE
  5
22F44
  8
0
 10
5269.7033986619053394
 20
-24.0865211817449101
 30
0.0
 11
5269.7033986619053394
 21
-24.0685979449509801
 31
0.0
  0
LINE
  5
22F45
  8
0
 10
5269.6733986619055941
 20
-24.0665211817449105
 30
0.0
 11
5269.6483986619050484
 21
-24.0665211817449105
 31
0.0
  0
LINE
  5
22F46
  8
0
 10
5269.6483986619050484
 20
-24.0665211817449105
 30
0.0
 11
5269.6483986619050484
 21
-24.0865211817449101
 31
0.0
  0
LINE
  5
22F47
  8
0
 10
5269.6483986619050484
 20
-24.0865211817449101
 30
0.0
 11
5269.6733986619055941
 21
-24.0865211817449101
 31
0.0
  0
LINE
  5
22F48
  8
0
 10
5269.6733986619055941
 20
-24.0865211817449101
 30
0.0
 11
5269.6733986619055941
 21
-24.0665211817449105
 31
0.0
  0
LINE
  5
22F49
  8
0
 10
5269.6433986619058487
 20
-24.0665211817449105
 30
0.0
 11
5269.618398661905303
 21
-24.0665211817449105
 31
0.0
  0
LINE
  5
22F4A
  8
0
 10
5269.618398661905303
 20
-24.0665211817449105
 30
0.0
 11
5269.618398661905303
 21
-24.0865211817449101
 31
0.0
  0
LINE
  5
22F4B
  8
0
 10
5269.618398661905303
 20
-24.0865211817449101
 30
0.0
 11
5269.6433986619058487
 21
-24.0865211817449101
 31
0.0
  0
LINE
  5
22F4C
  8
0
 10
5269.6433986619058487
 20
-24.0865211817449101
 30
0.0
 11
5269.6433986619058487
 21
-24.0665211817449105
 31
0.0
  0
LINE
  5
22F4D
  8
0
 10
5269.6133986619051939
 20
-24.0665211817449105
 30
0.0
 11
5269.5883986619046482
 21
-24.0665211817449105
 31
0.0
  0
LINE
  5
22F4E
  8
0
 10
5269.5883986619046482
 20
-24.0665211817449105
 30
0.0
 11
5269.5883986619046482
 21
-24.0865211817449101
 31
0.0
  0
LINE
  5
22F4F
  8
0
 10
5269.5883986619046482
 20
-24.0865211817449101
 30
0.0
 11
5269.6133986619051939
 21
-24.0865211817449101
 31
0.0
  0
LINE
  5
22F50
  8
0
 10
5269.6133986619051939
 20
-24.0865211817449101
 30
0.0
 11
5269.6133986619051939
 21
-24.0665211817449105
 31
0.0
  0
LINE
  5
22F51
  8
0
 10
5269.583398661906358
 20
-24.0665211817449105
 30
0.0
 11
5269.5583986619058123
 21
-24.0665211817449105
 31
0.0
  0
LINE
  5
22F52
  8
0
 10
5269.5583986619058123
 20
-24.0665211817449105
 30
0.0
 11
5269.5583986619058123
 21
-24.0865211817449101
 31
0.0
  0
LINE
  5
22F53
  8
0
 10
5269.5583986619058123
 20
-24.0865211817449101
 30
0.0
 11
5269.583398661906358
 21
-24.0865211817449101
 31
0.0
  0
LINE
  5
22F54
  8
0
 10
5269.583398661906358
 20
-24.0865211817449101
 30
0.0
 11
5269.583398661906358
 21
-24.0665211817449105
 31
0.0
  0
LINE
  5
22F55
  8
0
 10
5269.5533986619057032
 20
-24.0665211817449105
 30
0.0
 11
5269.5283986619051575
 21
-24.0665211817449105
 31
0.0
  0
LINE
  5
22F56
  8
0
 10
5269.5283986619051575
 20
-24.0665211817449105
 30
0.0
 11
5269.5283986619051575
 21
-24.0865211817449101
 31
0.0
  0
LINE
  5
22F57
  8
0
 10
5269.5283986619051575
 20
-24.0865211817449101
 30
0.0
 11
5269.5533986619057032
 21
-24.0865211817449101
 31
0.0
  0
LINE
  5
22F58
  8
0
 10
5269.5533986619057032
 20
-24.0865211817449101
 30
0.0
 11
5269.5533986619057032
 21
-24.0665211817449105
 31
0.0
  0
LINE
  5
22F59
  8
0
 10
5269.5233986619050484
 20
-24.0665211817449105
 30
0.0
 11
5269.4983986619054122
 21
-24.0665211817449105
 31
0.0
  0
LINE
  5
22F5A
  8
0
 10
5269.4983986619054122
 20
-24.0665211817449105
 30
0.0
 11
5269.4983986619054122
 21
-24.0865211817449101
 31
0.0
  0
LINE
  5
22F5B
  8
0
 10
5269.4983986619054122
 20
-24.0865211817449101
 30
0.0
 11
5269.5233986619050484
 21
-24.0865211817449101
 31
0.0
  0
LINE
  5
22F5C
  8
0
 10
5269.5233986619050484
 20
-24.0865211817449101
 30
0.0
 11
5269.5233986619050484
 21
-24.0665211817449105
 31
0.0
  0
LINE
  5
22F5D
  8
0
 10
5269.493398661905303
 20
-24.0665211817449105
 30
0.0
 11
5269.4683986619047573
 21
-24.0665211817449105
 31
0.0
  0
LINE
  5
22F5E
  8
0
 10
5269.4683986619047573
 20
-24.0665211817449105
 30
0.0
 11
5269.4683986619047573
 21
-24.0865211817449101
 31
0.0
  0
LINE
  5
22F5F
  8
0
 10
5269.4683986619047573
 20
-24.0865211817449101
 30
0.0
 11
5269.493398661905303
 21
-24.0865211817449101
 31
0.0
  0
LINE
  5
22F60
  8
0
 10
5269.493398661905303
 20
-24.0865211817449101
 30
0.0
 11
5269.493398661905303
 21
-24.0665211817449105
 31
0.0
  0
LINE
  5
22F61
  8
0
 10
5269.4633986619055577
 20
-24.0665211817449105
 30
0.0
 11
5269.438398661905012
 21
-24.0665211817449105
 31
0.0
  0
LINE
  5
22F62
  8
0
 10
5269.438398661905012
 20
-24.0665211817449105
 30
0.0
 11
5269.438398661905012
 21
-24.0865211817449101
 31
0.0
  0
LINE
  5
22F63
  8
0
 10
5269.438398661905012
 20
-24.0865211817449101
 30
0.0
 11
5269.4633986619055577
 21
-24.0865211817449101
 31
0.0
  0
LINE
  5
22F64
  8
0
 10
5269.4633986619055577
 20
-24.0865211817449101
 30
0.0
 11
5269.4633986619055577
 21
-24.0665211817449105
 31
0.0
  0
LINE
  5
22F65
  8
0
 10
5269.4333986619058123
 20
-24.0665211817449105
 30
0.0
 11
5269.4083986619052666
 21
-24.0665211817449105
 31
0.0
  0
LINE
  5
22F66
  8
0
 10
5269.4083986619052666
 20
-24.0665211817449105
 30
0.0
 11
5269.4083986619052666
 21
-24.0865211817449101
 31
0.0
  0
LINE
  5
22F67
  8
0
 10
5269.4083986619052666
 20
-24.0865211817449101
 30
0.0
 11
5269.4333986619058123
 21
-24.0865211817449101
 31
0.0
  0
LINE
  5
22F68
  8
0
 10
5269.4333986619058123
 20
-24.0865211817449101
 30
0.0
 11
5269.4333986619058123
 21
-24.0665211817449105
 31
0.0
  0
LINE
  5
22F69
  8
0
 10
5269.4033986619051575
 20
-24.0665211817449105
 30
0.0
 11
5269.3855046677736027
 21
-24.0665211817449105
 31
0.0
  0
LINE
  5
22F6A
  8
0
 10
5269.3783986619046118
 20
-24.0737544325534394
 30
0.0
 11
5269.3783986619046118
 21
-24.0865211817449101
 31
0.0
  0
LINE
  5
22F6B
  8
0
 10
5269.3783986619046118
 20
-24.0865211817449101
 30
0.0
 11
5269.4033986619051575
 21
-24.0865211817449101
 31
0.0
  0
LINE
  5
22F6C
  8
0
 10
5269.4033986619051575
 20
-24.0865211817449101
 30
0.0
 11
5269.4033986619051575
 21
-24.0665211817449105
 31
0.0
  0
LINE
  5
22F6D
  8
0
 10
5269.3672752579850567
 20
-24.0865211817449101
 30
0.0
 11
5269.3733986619063216
 21
-24.0865211817449101
 31
0.0
  0
LINE
  5
22F6E
  8
0
 10
5269.3733986619063216
 20
-24.0865211817449101
 30
0.0
 11
5269.3733986619063216
 21
-24.079255627458199
 31
0.0
  0
LINE
  5
22F6F
  8
0
 10
5269.6783986619057032
 20
-24.0470251800882089
 30
0.0
 11
5269.6783986619057032
 21
-24.0615211817449008
 31
0.0
  0
LINE
  5
22F70
  8
0
 10
5269.6783986619057032
 20
-24.0615211817449008
 30
0.0
 11
5269.6959872536999683
 21
-24.0615211817449008
 31
0.0
  0
LINE
  5
22F71
  8
0
 10
5269.6706556394128711
 20
-24.0415211817449013
 30
0.0
 11
5269.6483986619050484
 21
-24.0415211817449013
 31
0.0
  0
LINE
  5
22F72
  8
0
 10
5269.6483986619050484
 20
-24.0415211817449013
 30
0.0
 11
5269.6483986619050484
 21
-24.0615211817449008
 31
0.0
  0
LINE
  5
22F73
  8
0
 10
5269.6483986619050484
 20
-24.0615211817449008
 30
0.0
 11
5269.6733986619055941
 21
-24.0615211817449008
 31
0.0
  0
LINE
  5
22F74
  8
0
 10
5269.6733986619055941
 20
-24.0615211817449008
 30
0.0
 11
5269.6733986619055941
 21
-24.0434153066352785
 31
0.0
  0
LINE
  5
22F75
  8
0
 10
5269.6433986619058487
 20
-24.0415211817449013
 30
0.0
 11
5269.618398661905303
 21
-24.0415211817449013
 31
0.0
  0
LINE
  5
22F76
  8
0
 10
5269.618398661905303
 20
-24.0415211817449013
 30
0.0
 11
5269.618398661905303
 21
-24.0615211817449008
 31
0.0
  0
LINE
  5
22F77
  8
0
 10
5269.618398661905303
 20
-24.0615211817449008
 30
0.0
 11
5269.6433986619058487
 21
-24.0615211817449008
 31
0.0
  0
LINE
  5
22F78
  8
0
 10
5269.6433986619058487
 20
-24.0615211817449008
 30
0.0
 11
5269.6433986619058487
 21
-24.0415211817449013
 31
0.0
  0
LINE
  5
22F79
  8
0
 10
5269.6133986619051939
 20
-24.0415211817449013
 30
0.0
 11
5269.5883986619046482
 21
-24.0415211817449013
 31
0.0
  0
LINE
  5
22F7A
  8
0
 10
5269.5883986619046482
 20
-24.0415211817449013
 30
0.0
 11
5269.5883986619046482
 21
-24.0615211817449008
 31
0.0
  0
LINE
  5
22F7B
  8
0
 10
5269.5883986619046482
 20
-24.0615211817449008
 30
0.0
 11
5269.6133986619051939
 21
-24.0615211817449008
 31
0.0
  0
LINE
  5
22F7C
  8
0
 10
5269.6133986619051939
 20
-24.0615211817449008
 30
0.0
 11
5269.6133986619051939
 21
-24.0415211817449013
 31
0.0
  0
LINE
  5
22F7D
  8
0
 10
5269.583398661906358
 20
-24.0415211817449013
 30
0.0
 11
5269.5583986619058123
 21
-24.0415211817449013
 31
0.0
  0
LINE
  5
22F7E
  8
0
 10
5269.5583986619058123
 20
-24.0415211817449013
 30
0.0
 11
5269.5583986619058123
 21
-24.0615211817449008
 31
0.0
  0
LINE
  5
22F7F
  8
0
 10
5269.5583986619058123
 20
-24.0615211817449008
 30
0.0
 11
5269.583398661906358
 21
-24.0615211817449008
 31
0.0
  0
LINE
  5
22F80
  8
0
 10
5269.583398661906358
 20
-24.0615211817449008
 30
0.0
 11
5269.583398661906358
 21
-24.0415211817449013
 31
0.0
  0
LINE
  5
22F81
  8
0
 10
5269.5533986619057032
 20
-24.0415211817449013
 30
0.0
 11
5269.5283986619051575
 21
-24.0415211817449013
 31
0.0
  0
LINE
  5
22F82
  8
0
 10
5269.5283986619051575
 20
-24.0415211817449013
 30
0.0
 11
5269.5283986619051575
 21
-24.0615211817449008
 31
0.0
  0
LINE
  5
22F83
  8
0
 10
5269.5283986619051575
 20
-24.0615211817449008
 30
0.0
 11
5269.5533986619057032
 21
-24.0615211817449008
 31
0.0
  0
LINE
  5
22F84
  8
0
 10
5269.5533986619057032
 20
-24.0615211817449008
 30
0.0
 11
5269.5533986619057032
 21
-24.0415211817449013
 31
0.0
  0
LINE
  5
22F85
  8
0
 10
5269.5233986619050484
 20
-24.0415211817449013
 30
0.0
 11
5269.4983986619054122
 21
-24.0415211817449013
 31
0.0
  0
LINE
  5
22F86
  8
0
 10
5269.4983986619054122
 20
-24.0415211817449013
 30
0.0
 11
5269.4983986619054122
 21
-24.0615211817449008
 31
0.0
  0
LINE
  5
22F87
  8
0
 10
5269.4983986619054122
 20
-24.0615211817449008
 30
0.0
 11
5269.5233986619050484
 21
-24.0615211817449008
 31
0.0
  0
LINE
  5
22F88
  8
0
 10
5269.5233986619050484
 20
-24.0615211817449008
 30
0.0
 11
5269.5233986619050484
 21
-24.0415211817449013
 31
0.0
  0
LINE
  5
22F89
  8
0
 10
5269.493398661905303
 20
-24.0415211817449013
 30
0.0
 11
5269.4683986619047573
 21
-24.0415211817449013
 31
0.0
  0
LINE
  5
22F8A
  8
0
 10
5269.4683986619047573
 20
-24.0415211817449013
 30
0.0
 11
5269.4683986619047573
 21
-24.0615211817449008
 31
0.0
  0
LINE
  5
22F8B
  8
0
 10
5269.4683986619047573
 20
-24.0615211817449008
 30
0.0
 11
5269.493398661905303
 21
-24.0615211817449008
 31
0.0
  0
LINE
  5
22F8C
  8
0
 10
5269.493398661905303
 20
-24.0615211817449008
 30
0.0
 11
5269.493398661905303
 21
-24.0415211817449013
 31
0.0
  0
LINE
  5
22F8D
  8
0
 10
5269.4633986619055577
 20
-24.0415211817449013
 30
0.0
 11
5269.438398661905012
 21
-24.0415211817449013
 31
0.0
  0
LINE
  5
22F8E
  8
0
 10
5269.438398661905012
 20
-24.0415211817449013
 30
0.0
 11
5269.438398661905012
 21
-24.0615211817449008
 31
0.0
  0
LINE
  5
22F8F
  8
0
 10
5269.438398661905012
 20
-24.0615211817449008
 30
0.0
 11
5269.4633986619055577
 21
-24.0615211817449008
 31
0.0
  0
LINE
  5
22F90
  8
0
 10
5269.4633986619055577
 20
-24.0615211817449008
 30
0.0
 11
5269.4633986619055577
 21
-24.0415211817449013
 31
0.0
  0
LINE
  5
22F91
  8
0
 10
5269.4333986619058123
 20
-24.0415211817449013
 30
0.0
 11
5269.4161416842980543
 21
-24.0415211817449013
 31
0.0
  0
LINE
  5
22F92
  8
0
 10
5269.4083986619052666
 20
-24.0470251800139287
 30
0.0
 11
5269.4083986619052666
 21
-24.0615211817449008
 31
0.0
  0
LINE
  5
22F93
  8
0
 10
5269.4083986619052666
 20
-24.0615211817449008
 30
0.0
 11
5269.4333986619058123
 21
-24.0615211817449008
 31
0.0
  0
LINE
  5
22F94
  8
0
 10
5269.4333986619058123
 20
-24.0615211817449008
 30
0.0
 11
5269.4333986619058123
 21
-24.0415211817449013
 31
0.0
  0
LINE
  5
22F95
  8
0
 10
5269.3908100700109571
 20
-24.0615211817449008
 30
0.0
 11
5269.4033986619051575
 21
-24.0615211817449008
 31
0.0
  0
LINE
  5
22F96
  8
0
 10
5269.4033986619051575
 20
-24.0615211817449008
 30
0.0
 11
5269.4033986619051575
 21
-24.0508487084502782
 31
0.0
  0
LINE
  5
22F97
  8
0
 10
5269.6483986619050484
 20
-24.0281905063638987
 30
0.0
 11
5269.6483986619050484
 21
-24.0365211817448987
 31
0.0
  0
LINE
  5
22F98
  8
0
 10
5269.6483986619050484
 20
-24.0365211817448987
 30
0.0
 11
5269.6629691570924479
 21
-24.0365211817448987
 31
0.0
  0
LINE
  5
22F99
  8
0
 10
5269.6221905605952998
 20
-24.0165211817448991
 30
0.0
 11
5269.618398661905303
 21
-24.0165211817448991
 31
0.0
  0
LINE
  5
22F9A
  8
0
 10
5269.618398661905303
 20
-24.0165211817448991
 30
0.0
 11
5269.618398661905303
 21
-24.0365211817448987
 31
0.0
  0
LINE
  5
22F9B
  8
0
 10
5269.618398661905303
 20
-24.0365211817448987
 30
0.0
 11
5269.6433986619058487
 21
-24.0365211817448987
 31
0.0
  0
LINE
  5
22F9C
  8
0
 10
5269.6433986619058487
 20
-24.0365211817448987
 30
0.0
 11
5269.6433986619058487
 21
-24.0256511632362901
 31
0.0
  0
LINE
  5
22F9D
  8
0
 10
5269.6133986619051939
 20
-24.0165211817448991
 30
0.0
 11
5269.5883986619046482
 21
-24.0165211817448991
 31
0.0
  0
LINE
  5
22F9E
  8
0
 10
5269.5883986619046482
 20
-24.0165211817448991
 30
0.0
 11
5269.5883986619046482
 21
-24.0365211817448987
 31
0.0
  0
LINE
  5
22F9F
  8
0
 10
5269.5883986619046482
 20
-24.0365211817448987
 30
0.0
 11
5269.6133986619051939
 21
-24.0365211817448987
 31
0.0
  0
LINE
  5
22FA0
  8
0
 10
5269.6133986619051939
 20
-24.0365211817448987
 30
0.0
 11
5269.6133986619051939
 21
-24.0165211817449098
 31
0.0
  0
LINE
  5
22FA1
  8
0
 10
5269.583398661906358
 20
-24.0165211817448991
 30
0.0
 11
5269.5583986619058123
 21
-24.0165211817448991
 31
0.0
  0
LINE
  5
22FA2
  8
0
 10
5269.5583986619058123
 20
-24.0165211817448991
 30
0.0
 11
5269.5583986619058123
 21
-24.0365211817448987
 31
0.0
  0
LINE
  5
22FA3
  8
0
 10
5269.5583986619058123
 20
-24.0365211817448987
 30
0.0
 11
5269.583398661906358
 21
-24.0365211817448987
 31
0.0
  0
LINE
  5
22FA4
  8
0
 10
5269.583398661906358
 20
-24.0365211817448987
 30
0.0
 11
5269.583398661906358
 21
-24.0165211817449098
 31
0.0
  0
LINE
  5
22FA5
  8
0
 10
5269.5533986619057032
 20
-24.0165211817448991
 30
0.0
 11
5269.5283986619051575
 21
-24.0165211817448991
 31
0.0
  0
LINE
  5
22FA6
  8
0
 10
5269.5283986619051575
 20
-24.0165211817448991
 30
0.0
 11
5269.5283986619051575
 21
-24.0365211817448987
 31
0.0
  0
LINE
  5
22FA7
  8
0
 10
5269.5283986619051575
 20
-24.0365211817448987
 30
0.0
 11
5269.5533986619057032
 21
-24.0365211817448987
 31
0.0
  0
LINE
  5
22FA8
  8
0
 10
5269.5533986619057032
 20
-24.0365211817448987
 30
0.0
 11
5269.5533986619057032
 21
-24.0165211817449098
 31
0.0
  0
LINE
  5
22FA9
  8
0
 10
5269.5233986619050484
 20
-24.0165211817448991
 30
0.0
 11
5269.4983986619054122
 21
-24.0165211817448991
 31
0.0
  0
LINE
  5
22FAA
  8
0
 10
5269.4983986619054122
 20
-24.0165211817448991
 30
0.0
 11
5269.4983986619054122
 21
-24.0365211817448987
 31
0.0
  0
LINE
  5
22FAB
  8
0
 10
5269.4983986619054122
 20
-24.0365211817448987
 30
0.0
 11
5269.5233986619050484
 21
-24.0365211817448987
 31
0.0
  0
LINE
  5
22FAC
  8
0
 10
5269.5233986619050484
 20
-24.0365211817448987
 30
0.0
 11
5269.5233986619050484
 21
-24.0165211817449098
 31
0.0
  0
LINE
  5
22FAD
  8
0
 10
5269.493398661905303
 20
-24.0165211817448991
 30
0.0
 11
5269.4683986619047573
 21
-24.0165211817448991
 31
0.0
  0
LINE
  5
22FAE
  8
0
 10
5269.4683986619047573
 20
-24.0165211817448991
 30
0.0
 11
5269.4683986619047573
 21
-24.0365211817448987
 31
0.0
  0
LINE
  5
22FAF
  8
0
 10
5269.4683986619047573
 20
-24.0365211817448987
 30
0.0
 11
5269.493398661905303
 21
-24.0365211817448987
 31
0.0
  0
LINE
  5
22FB0
  8
0
 10
5269.493398661905303
 20
-24.0365211817448987
 30
0.0
 11
5269.493398661905303
 21
-24.0165211817449098
 31
0.0
  0
LINE
  5
22FB1
  8
0
 10
5269.438398661905012
 20
-24.0281905063115495
 30
0.0
 11
5269.438398661905012
 21
-24.0365211817448987
 31
0.0
  0
LINE
  5
22FB2
  8
0
 10
5269.438398661905012
 20
-24.0365211817448987
 30
0.0
 11
5269.4633986619055577
 21
-24.0365211817448987
 31
0.0
  0
LINE
  5
22FB3
  8
0
 10
5269.4633986619055577
 20
-24.0365211817448987
 30
0.0
 11
5269.4633986619055577
 21
-24.0169736325720002
 31
0.0
  0
LINE
  5
22FB4
  8
0
 10
5269.423828166619387
 20
-24.0365211817448987
 30
0.0
 11
5269.4333986619058123
 21
-24.0365211817448987
 31
0.0
  0
LINE
  5
22FB5
  8
0
 10
5269.4333986619058123
 20
-24.0365211817448987
 30
0.0
 11
5269.4333986619058123
 21
-24.0308887308930501
 31
0.0
  0
LINE
  5
22FB6
  8
0
 10
5269.7633986619057396
 20
-24.2415211817449112
 30
0.0
 11
5269.7383986619051939
 21
-24.2415211817449112
 31
0.0
  0
LINE
  5
22FB7
  8
0
 10
5269.7383986619051939
 20
-24.2415211817449112
 30
0.0
 11
5269.7383986619051939
 21
-24.2615211817449108
 31
0.0
  0
LINE
  5
22FB8
  8
0
 10
5269.7383986619051939
 20
-24.2615211817449108
 30
0.0
 11
5269.7633986619057396
 21
-24.2615211817449108
 31
0.0
  0
LINE
  5
22FB9
  8
0
 10
5269.7633986619057396
 20
-24.2615211817449108
 30
0.0
 11
5269.7633986619057396
 21
-24.2415211817449112
 31
0.0
  0
LINE
  5
22FBA
  8
0
 10
5269.7333986619050847
 20
-24.2415211817449112
 30
0.0
 11
5269.7083986619054485
 21
-24.2415211817449112
 31
0.0
  0
LINE
  5
22FBB
  8
0
 10
5269.7083986619054485
 20
-24.2415211817449112
 30
0.0
 11
5269.7083986619054485
 21
-24.2615211817449108
 31
0.0
  0
LINE
  5
22FBC
  8
0
 10
5269.7083986619054485
 20
-24.2615211817449108
 30
0.0
 11
5269.7333986619050847
 21
-24.2615211817449108
 31
0.0
  0
LINE
  5
22FBD
  8
0
 10
5269.7333986619050847
 20
-24.2615211817449108
 30
0.0
 11
5269.7333986619050847
 21
-24.2415211817449112
 31
0.0
  0
LINE
  5
22FBE
  8
0
 10
5269.7033986619053394
 20
-24.2415211817449112
 30
0.0
 11
5269.6783986619057032
 21
-24.2415211817449112
 31
0.0
  0
LINE
  5
22FBF
  8
0
 10
5269.6783986619057032
 20
-24.2415211817449112
 30
0.0
 11
5269.6783986619057032
 21
-24.2615211817449108
 31
0.0
  0
LINE
  5
22FC0
  8
0
 10
5269.6783986619057032
 20
-24.2615211817449108
 30
0.0
 11
5269.7033986619053394
 21
-24.2615211817449108
 31
0.0
  0
LINE
  5
22FC1
  8
0
 10
5269.7033986619053394
 20
-24.2615211817449108
 30
0.0
 11
5269.7033986619053394
 21
-24.2415211817449112
 31
0.0
  0
LINE
  5
22FC2
  8
0
 10
5269.6733986619055941
 20
-24.2415211817449112
 30
0.0
 11
5269.6483986619050484
 21
-24.2415211817449112
 31
0.0
  0
LINE
  5
22FC3
  8
0
 10
5269.6483986619050484
 20
-24.2415211817449112
 30
0.0
 11
5269.6483986619050484
 21
-24.2615211817449108
 31
0.0
  0
LINE
  5
22FC4
  8
0
 10
5269.6483986619050484
 20
-24.2615211817449108
 30
0.0
 11
5269.6733986619055941
 21
-24.2615211817449108
 31
0.0
  0
LINE
  5
22FC5
  8
0
 10
5269.6733986619055941
 20
-24.2615211817449108
 30
0.0
 11
5269.6733986619055941
 21
-24.2415211817449112
 31
0.0
  0
LINE
  5
22FC6
  8
0
 10
5269.6433986619058487
 20
-24.2415211817449112
 30
0.0
 11
5269.618398661905303
 21
-24.2415211817449112
 31
0.0
  0
LINE
  5
22FC7
  8
0
 10
5269.618398661905303
 20
-24.2415211817449112
 30
0.0
 11
5269.618398661905303
 21
-24.2615211817449108
 31
0.0
  0
LINE
  5
22FC8
  8
0
 10
5269.618398661905303
 20
-24.2615211817449108
 30
0.0
 11
5269.6433986619058487
 21
-24.2615211817449108
 31
0.0
  0
LINE
  5
22FC9
  8
0
 10
5269.6433986619058487
 20
-24.2615211817449108
 30
0.0
 11
5269.6433986619058487
 21
-24.2415211817449112
 31
0.0
  0
LINE
  5
22FCA
  8
0
 10
5269.6133986619051939
 20
-24.2415211817449112
 30
0.0
 11
5269.5883986619046482
 21
-24.2415211817449112
 31
0.0
  0
LINE
  5
22FCB
  8
0
 10
5269.5883986619046482
 20
-24.2415211817449112
 30
0.0
 11
5269.5883986619046482
 21
-24.2615211817449108
 31
0.0
  0
LINE
  5
22FCC
  8
0
 10
5269.5883986619046482
 20
-24.2615211817449108
 30
0.0
 11
5269.6133986619051939
 21
-24.2615211817449108
 31
0.0
  0
LINE
  5
22FCD
  8
0
 10
5269.6133986619051939
 20
-24.2615211817449108
 30
0.0
 11
5269.6133986619051939
 21
-24.2415211817449112
 31
0.0
  0
LINE
  5
22FCE
  8
0
 10
5269.583398661906358
 20
-24.2415211817449112
 30
0.0
 11
5269.5583986619058123
 21
-24.2415211817449112
 31
0.0
  0
LINE
  5
22FCF
  8
0
 10
5269.5583986619058123
 20
-24.2415211817449112
 30
0.0
 11
5269.5583986619058123
 21
-24.2615211817449108
 31
0.0
  0
LINE
  5
22FD0
  8
0
 10
5269.5583986619058123
 20
-24.2615211817449108
 30
0.0
 11
5269.583398661906358
 21
-24.2615211817449108
 31
0.0
  0
LINE
  5
22FD1
  8
0
 10
5269.583398661906358
 20
-24.2615211817449108
 30
0.0
 11
5269.583398661906358
 21
-24.2415211817449112
 31
0.0
  0
LINE
  5
22FD2
  8
0
 10
5269.5533986619057032
 20
-24.2415211817449112
 30
0.0
 11
5269.5283986619051575
 21
-24.2415211817449112
 31
0.0
  0
LINE
  5
22FD3
  8
0
 10
5269.5283986619051575
 20
-24.2415211817449112
 30
0.0
 11
5269.5283986619051575
 21
-24.2615211817449108
 31
0.0
  0
LINE
  5
22FD4
  8
0
 10
5269.5283986619051575
 20
-24.2615211817449108
 30
0.0
 11
5269.5533986619057032
 21
-24.2615211817449108
 31
0.0
  0
LINE
  5
22FD5
  8
0
 10
5269.5533986619057032
 20
-24.2615211817449108
 30
0.0
 11
5269.5533986619057032
 21
-24.2415211817449112
 31
0.0
  0
LINE
  5
22FD6
  8
0
 10
5269.5233986619050484
 20
-24.2415211817449112
 30
0.0
 11
5269.4983986619054122
 21
-24.2415211817449112
 31
0.0
  0
LINE
  5
22FD7
  8
0
 10
5269.4983986619054122
 20
-24.2415211817449112
 30
0.0
 11
5269.4983986619054122
 21
-24.2615211817449108
 31
0.0
  0
LINE
  5
22FD8
  8
0
 10
5269.4983986619054122
 20
-24.2615211817449108
 30
0.0
 11
5269.5233986619050484
 21
-24.2615211817449108
 31
0.0
  0
LINE
  5
22FD9
  8
0
 10
5269.5233986619050484
 20
-24.2615211817449108
 30
0.0
 11
5269.5233986619050484
 21
-24.2415211817449112
 31
0.0
  0
LINE
  5
22FDA
  8
0
 10
5269.493398661905303
 20
-24.2415211817449112
 30
0.0
 11
5269.4683986619047573
 21
-24.2415211817449112
 31
0.0
  0
LINE
  5
22FDB
  8
0
 10
5269.4683986619047573
 20
-24.2415211817449112
 30
0.0
 11
5269.4683986619047573
 21
-24.2615211817449108
 31
0.0
  0
LINE
  5
22FDC
  8
0
 10
5269.4683986619047573
 20
-24.2615211817449108
 30
0.0
 11
5269.493398661905303
 21
-24.2615211817449108
 31
0.0
  0
LINE
  5
22FDD
  8
0
 10
5269.493398661905303
 20
-24.2615211817449108
 30
0.0
 11
5269.493398661905303
 21
-24.2415211817449112
 31
0.0
  0
LINE
  5
22FDE
  8
0
 10
5269.4633986619055577
 20
-24.2415211817449112
 30
0.0
 11
5269.438398661905012
 21
-24.2415211817449112
 31
0.0
  0
LINE
  5
22FDF
  8
0
 10
5269.438398661905012
 20
-24.2415211817449112
 30
0.0
 11
5269.438398661905012
 21
-24.2615211817449108
 31
0.0
  0
LINE
  5
22FE0
  8
0
 10
5269.438398661905012
 20
-24.2615211817449108
 30
0.0
 11
5269.4633986619055577
 21
-24.2615211817449108
 31
0.0
  0
LINE
  5
22FE1
  8
0
 10
5269.4633986619055577
 20
-24.2615211817449108
 30
0.0
 11
5269.4633986619055577
 21
-24.2415211817449112
 31
0.0
  0
LINE
  5
22FE2
  8
0
 10
5269.4333986619058123
 20
-24.2415211817449112
 30
0.0
 11
5269.4083986619052666
 21
-24.2415211817449112
 31
0.0
  0
LINE
  5
22FE3
  8
0
 10
5269.4083986619052666
 20
-24.2415211817449112
 30
0.0
 11
5269.4083986619052666
 21
-24.2615211817449108
 31
0.0
  0
LINE
  5
22FE4
  8
0
 10
5269.4083986619052666
 20
-24.2615211817449108
 30
0.0
 11
5269.4333986619058123
 21
-24.2615211817449108
 31
0.0
  0
LINE
  5
22FE5
  8
0
 10
5269.4333986619058123
 20
-24.2615211817449108
 30
0.0
 11
5269.4333986619058123
 21
-24.2415211817449112
 31
0.0
  0
LINE
  5
22FE6
  8
0
 10
5269.4033986619051575
 20
-24.2415211817449112
 30
0.0
 11
5269.3783986619046118
 21
-24.2415211817449112
 31
0.0
  0
LINE
  5
22FE7
  8
0
 10
5269.3783986619046118
 20
-24.2415211817449112
 30
0.0
 11
5269.3783986619046118
 21
-24.2615211817449108
 31
0.0
  0
LINE
  5
22FE8
  8
0
 10
5269.3783986619046118
 20
-24.2615211817449108
 30
0.0
 11
5269.4033986619051575
 21
-24.2615211817449108
 31
0.0
  0
LINE
  5
22FE9
  8
0
 10
5269.4033986619051575
 20
-24.2615211817449108
 30
0.0
 11
5269.4033986619051575
 21
-24.2415211817449112
 31
0.0
  0
LINE
  5
22FEA
  8
0
 10
5269.3733986619063216
 20
-24.2415211817449112
 30
0.0
 11
5269.348398661905776
 21
-24.2415211817449112
 31
0.0
  0
LINE
  5
22FEB
  8
0
 10
5269.348398661905776
 20
-24.2415211817449112
 30
0.0
 11
5269.348398661905776
 21
-24.2615211817449108
 31
0.0
  0
LINE
  5
22FEC
  8
0
 10
5269.348398661905776
 20
-24.2615211817449108
 30
0.0
 11
5269.3733986619063216
 21
-24.2615211817449108
 31
0.0
  0
LINE
  5
22FED
  8
0
 10
5269.3733986619063216
 20
-24.2615211817449108
 30
0.0
 11
5269.3733986619063216
 21
-24.2415211817449112
 31
0.0
  0
LINE
  5
22FEE
  8
0
 10
5269.3433986619056668
 20
-24.2415211817449112
 30
0.0
 11
5269.3183986619051211
 21
-24.2415211817449112
 31
0.0
  0
LINE
  5
22FEF
  8
0
 10
5269.3183986619051211
 20
-24.2415211817449112
 30
0.0
 11
5269.3183986619051211
 21
-24.2536841598137407
 31
0.0
  0
LINE
  5
22FF0
  8
0
 10
5269.3194060758150954
 20
-24.2615211817449108
 30
0.0
 11
5269.3433986619056668
 21
-24.2615211817449108
 31
0.0
  0
LINE
  5
22FF1
  8
0
 10
5269.3433986619056668
 20
-24.2615211817449108
 30
0.0
 11
5269.3433986619056668
 21
-24.2415211817449112
 31
0.0
  0
LINE
  5
22FF2
  8
0
 10
5269.7694463637835725
 20
-24.2415211817449112
 30
0.0
 11
5269.7683986619058487
 21
-24.2415211817449112
 31
0.0
  0
LINE
  5
22FF3
  8
0
 10
5269.7683986619058487
 20
-24.2415211817449112
 30
0.0
 11
5269.7683986619058487
 21
-24.2536841589115717
 31
0.0
  0
LINE
  5
22FF4
  8
0
 10
5269.7633986619057396
 20
-24.2665211817448991
 30
0.0
 11
5269.7383986619051939
 21
-24.2665211817448991
 31
0.0
  0
LINE
  5
22FF5
  8
0
 10
5269.7383986619051939
 20
-24.2665211817448991
 30
0.0
 11
5269.7383986619051939
 21
-24.2865211817448987
 31
0.0
  0
LINE
  5
22FF6
  8
0
 10
5269.7383986619051939
 20
-24.2865211817448987
 30
0.0
 11
5269.7622795738388959
 21
-24.2865211817448987
 31
0.0
  0
LINE
  5
22FF7
  8
0
 10
5269.7633986619057396
 20
-24.2821017577137788
 30
0.0
 11
5269.7633986619057396
 21
-24.2665211817449098
 31
0.0
  0
LINE
  5
22FF8
  8
0
 10
5269.7333986619050847
 20
-24.2665211817448991
 30
0.0
 11
5269.7083986619054485
 21
-24.2665211817448991
 31
0.0
  0
LINE
  5
22FF9
  8
0
 10
5269.7083986619054485
 20
-24.2665211817448991
 30
0.0
 11
5269.7083986619054485
 21
-24.2865211817448987
 31
0.0
  0
LINE
  5
22FFA
  8
0
 10
5269.7083986619054485
 20
-24.2865211817448987
 30
0.0
 11
5269.7333986619050847
 21
-24.2865211817448987
 31
0.0
  0
LINE
  5
22FFB
  8
0
 10
5269.7333986619050847
 20
-24.2865211817448987
 30
0.0
 11
5269.7333986619050847
 21
-24.2665211817449098
 31
0.0
  0
LINE
  5
22FFC
  8
0
 10
5269.7033986619053394
 20
-24.2665211817448991
 30
0.0
 11
5269.6783986619057032
 21
-24.2665211817448991
 31
0.0
  0
LINE
  5
22FFD
  8
0
 10
5269.6783986619057032
 20
-24.2665211817448991
 30
0.0
 11
5269.6783986619057032
 21
-24.2865211817448987
 31
0.0
  0
LINE
  5
22FFE
  8
0
 10
5269.6783986619057032
 20
-24.2865211817448987
 30
0.0
 11
5269.7033986619053394
 21
-24.2865211817448987
 31
0.0
  0
LINE
  5
22FFF
  8
0
 10
5269.7033986619053394
 20
-24.2865211817448987
 30
0.0
 11
5269.7033986619053394
 21
-24.2665211817449098
 31
0.0
  0
LINE
  5
23000
  8
0
 10
5269.6733986619055941
 20
-24.2665211817448991
 30
0.0
 11
5269.6483986619050484
 21
-24.2665211817448991
 31
0.0
  0
LINE
  5
23001
  8
0
 10
5269.6483986619050484
 20
-24.2665211817448991
 30
0.0
 11
5269.6483986619050484
 21
-24.2865211817448987
 31
0.0
  0
LINE
  5
23002
  8
0
 10
5269.6483986619050484
 20
-24.2865211817448987
 30
0.0
 11
5269.6733986619055941
 21
-24.2865211817448987
 31
0.0
  0
LINE
  5
23003
  8
0
 10
5269.6733986619055941
 20
-24.2865211817448987
 30
0.0
 11
5269.6733986619055941
 21
-24.2665211817449098
 31
0.0
  0
LINE
  5
23004
  8
0
 10
5269.6433986619058487
 20
-24.2665211817448991
 30
0.0
 11
5269.618398661905303
 21
-24.2665211817448991
 31
0.0
  0
LINE
  5
23005
  8
0
 10
5269.618398661905303
 20
-24.2665211817448991
 30
0.0
 11
5269.618398661905303
 21
-24.2865211817448987
 31
0.0
  0
LINE
  5
23006
  8
0
 10
5269.618398661905303
 20
-24.2865211817448987
 30
0.0
 11
5269.6433986619058487
 21
-24.2865211817448987
 31
0.0
  0
LINE
  5
23007
  8
0
 10
5269.6433986619058487
 20
-24.2865211817448987
 30
0.0
 11
5269.6433986619058487
 21
-24.2665211817449098
 31
0.0
  0
LINE
  5
23008
  8
0
 10
5269.6133986619051939
 20
-24.2665211817448991
 30
0.0
 11
5269.5883986619046482
 21
-24.2665211817448991
 31
0.0
  0
LINE
  5
23009
  8
0
 10
5269.5883986619046482
 20
-24.2665211817448991
 30
0.0
 11
5269.5883986619046482
 21
-24.2865211817448987
 31
0.0
  0
LINE
  5
2300A
  8
0
 10
5269.5883986619046482
 20
-24.2865211817448987
 30
0.0
 11
5269.6133986619051939
 21
-24.2865211817448987
 31
0.0
  0
LINE
  5
2300B
  8
0
 10
5269.6133986619051939
 20
-24.2865211817448987
 30
0.0
 11
5269.6133986619051939
 21
-24.2665211817449098
 31
0.0
  0
LINE
  5
2300C
  8
0
 10
5269.583398661906358
 20
-24.2665211817448991
 30
0.0
 11
5269.5583986619058123
 21
-24.2665211817448991
 31
0.0
  0
LINE
  5
2300D
  8
0
 10
5269.5583986619058123
 20
-24.2665211817448991
 30
0.0
 11
5269.5583986619058123
 21
-24.2865211817448987
 31
0.0
  0
LINE
  5
2300E
  8
0
 10
5269.5583986619058123
 20
-24.2865211817448987
 30
0.0
 11
5269.583398661906358
 21
-24.2865211817448987
 31
0.0
  0
LINE
  5
2300F
  8
0
 10
5269.583398661906358
 20
-24.2865211817448987
 30
0.0
 11
5269.583398661906358
 21
-24.2665211817449098
 31
0.0
  0
LINE
  5
23010
  8
0
 10
5269.5533986619057032
 20
-24.2665211817448991
 30
0.0
 11
5269.5283986619051575
 21
-24.2665211817448991
 31
0.0
  0
LINE
  5
23011
  8
0
 10
5269.5283986619051575
 20
-24.2665211817448991
 30
0.0
 11
5269.5283986619051575
 21
-24.2865211817448987
 31
0.0
  0
LINE
  5
23012
  8
0
 10
5269.5283986619051575
 20
-24.2865211817448987
 30
0.0
 11
5269.5533986619057032
 21
-24.2865211817448987
 31
0.0
  0
LINE
  5
23013
  8
0
 10
5269.5533986619057032
 20
-24.2865211817448987
 30
0.0
 11
5269.5533986619057032
 21
-24.2665211817449098
 31
0.0
  0
LINE
  5
23014
  8
0
 10
5269.5233986619050484
 20
-24.2665211817448991
 30
0.0
 11
5269.4983986619054122
 21
-24.2665211817448991
 31
0.0
  0
LINE
  5
23015
  8
0
 10
5269.4983986619054122
 20
-24.2665211817448991
 30
0.0
 11
5269.4983986619054122
 21
-24.2865211817448987
 31
0.0
  0
LINE
  5
23016
  8
0
 10
5269.4983986619054122
 20
-24.2865211817448987
 30
0.0
 11
5269.5233986619050484
 21
-24.2865211817448987
 31
0.0
  0
LINE
  5
23017
  8
0
 10
5269.5233986619050484
 20
-24.2865211817448987
 30
0.0
 11
5269.5233986619050484
 21
-24.2665211817449098
 31
0.0
  0
LINE
  5
23018
  8
0
 10
5269.493398661905303
 20
-24.2665211817448991
 30
0.0
 11
5269.4683986619047573
 21
-24.2665211817448991
 31
0.0
  0
LINE
  5
23019
  8
0
 10
5269.4683986619047573
 20
-24.2665211817448991
 30
0.0
 11
5269.4683986619047573
 21
-24.2865211817448987
 31
0.0
  0
LINE
  5
2301A
  8
0
 10
5269.4683986619047573
 20
-24.2865211817448987
 30
0.0
 11
5269.493398661905303
 21
-24.2865211817448987
 31
0.0
  0
LINE
  5
2301B
  8
0
 10
5269.493398661905303
 20
-24.2865211817448987
 30
0.0
 11
5269.493398661905303
 21
-24.2665211817449098
 31
0.0
  0
LINE
  5
2301C
  8
0
 10
5269.4633986619055577
 20
-24.2665211817448991
 30
0.0
 11
5269.438398661905012
 21
-24.2665211817448991
 31
0.0
  0
LINE
  5
2301D
  8
0
 10
5269.438398661905012
 20
-24.2665211817448991
 30
0.0
 11
5269.438398661905012
 21
-24.2865211817448987
 31
0.0
  0
LINE
  5
2301E
  8
0
 10
5269.438398661905012
 20
-24.2865211817448987
 30
0.0
 11
5269.4633986619055577
 21
-24.2865211817448987
 31
0.0
  0
LINE
  5
2301F
  8
0
 10
5269.4633986619055577
 20
-24.2865211817448987
 30
0.0
 11
5269.4633986619055577
 21
-24.2665211817449098
 31
0.0
  0
LINE
  5
23020
  8
0
 10
5269.4333986619058123
 20
-24.2665211817448991
 30
0.0
 11
5269.4083986619052666
 21
-24.2665211817448991
 31
0.0
  0
LINE
  5
23021
  8
0
 10
5269.4083986619052666
 20
-24.2665211817448991
 30
0.0
 11
5269.4083986619052666
 21
-24.2865211817448987
 31
0.0
  0
LINE
  5
23022
  8
0
 10
5269.4083986619052666
 20
-24.2865211817448987
 30
0.0
 11
5269.4333986619058123
 21
-24.2865211817448987
 31
0.0
  0
LINE
  5
23023
  8
0
 10
5269.4333986619058123
 20
-24.2865211817448987
 30
0.0
 11
5269.4333986619058123
 21
-24.2665211817449098
 31
0.0
  0
LINE
  5
23024
  8
0
 10
5269.4033986619051575
 20
-24.2665211817448991
 30
0.0
 11
5269.3783986619046118
 21
-24.2665211817448991
 31
0.0
  0
LINE
  5
23025
  8
0
 10
5269.3783986619046118
 20
-24.2665211817448991
 30
0.0
 11
5269.3783986619046118
 21
-24.2865211817448987
 31
0.0
  0
LINE
  5
23026
  8
0
 10
5269.3783986619046118
 20
-24.2865211817448987
 30
0.0
 11
5269.4033986619051575
 21
-24.2865211817448987
 31
0.0
  0
LINE
  5
23027
  8
0
 10
5269.4033986619051575
 20
-24.2865211817448987
 30
0.0
 11
5269.4033986619051575
 21
-24.2665211817449098
 31
0.0
  0
LINE
  5
23028
  8
0
 10
5269.3733986619063216
 20
-24.2665211817448991
 30
0.0
 11
5269.348398661905776
 21
-24.2665211817448991
 31
0.0
  0
LINE
  5
23029
  8
0
 10
5269.348398661905776
 20
-24.2665211817448991
 30
0.0
 11
5269.348398661905776
 21
-24.2865211817448987
 31
0.0
  0
LINE
  5
2302A
  8
0
 10
5269.348398661905776
 20
-24.2865211817448987
 30
0.0
 11
5269.3733986619063216
 21
-24.2865211817448987
 31
0.0
  0
LINE
  5
2302B
  8
0
 10
5269.3733986619063216
 20
-24.2865211817448987
 30
0.0
 11
5269.3733986619063216
 21
-24.2665211817449098
 31
0.0
  0
LINE
  5
2302C
  8
0
 10
5269.3433986619056668
 20
-24.2665211817448991
 30
0.0
 11
5269.320194912766965
 21
-24.2665211817448991
 31
0.0
  0
LINE
  5
2302D
  8
0
 10
5269.32451774987112
 20
-24.2865211817448987
 30
0.0
 11
5269.3433986619056668
 21
-24.2865211817448987
 31
0.0
  0
LINE
  5
2302E
  8
0
 10
5269.3433986619056668
 20
-24.2865211817448987
 30
0.0
 11
5269.3433986619056668
 21
-24.2665211817449098
 31
0.0
  0
LINE
  5
2302F
  8
0
 10
5269.7608982909059705
 20
-24.2915211817449084
 30
0.0
 11
5269.7383986619051939
 21
-24.2915211817449013
 31
0.0
  0
LINE
  5
23030
  8
0
 10
5269.7383986619051939
 20
-24.2915211817449013
 30
0.0
 11
5269.7383986619051939
 21
-24.3115211817449008
 31
0.0
  0
LINE
  5
23031
  8
0
 10
5269.7383986619051939
 20
-24.3115211817449008
 30
0.0
 11
5269.7540999401171575
 21
-24.3115211817449008
 31
0.0
  0
LINE
  5
23032
  8
0
 10
5269.7333986619050847
 20
-24.2915211817449013
 30
0.0
 11
5269.7083986619054485
 21
-24.2915211817449013
 31
0.0
  0
LINE
  5
23033
  8
0
 10
5269.7083986619054485
 20
-24.2915211817449013
 30
0.0
 11
5269.7083986619054485
 21
-24.3115211817449008
 31
0.0
  0
LINE
  5
23034
  8
0
 10
5269.7083986619054485
 20
-24.3115211817449008
 30
0.0
 11
5269.7333986619050847
 21
-24.3115211817449008
 31
0.0
  0
LINE
  5
23035
  8
0
 10
5269.7333986619050847
 20
-24.3115211817449008
 30
0.0
 11
5269.7333986619050847
 21
-24.2915211817449084
 31
0.0
  0
LINE
  5
23036
  8
0
 10
5269.7033986619053394
 20
-24.2915211817449013
 30
0.0
 11
5269.6783986619057032
 21
-24.2915211817449013
 31
0.0
  0
LINE
  5
23037
  8
0
 10
5269.6783986619057032
 20
-24.2915211817449013
 30
0.0
 11
5269.6783986619057032
 21
-24.3115211817449008
 31
0.0
  0
LINE
  5
23038
  8
0
 10
5269.6783986619057032
 20
-24.3115211817449008
 30
0.0
 11
5269.7033986619053394
 21
-24.3115211817449008
 31
0.0
  0
LINE
  5
23039
  8
0
 10
5269.7033986619053394
 20
-24.3115211817449008
 30
0.0
 11
5269.7033986619053394
 21
-24.2915211817449084
 31
0.0
  0
LINE
  5
2303A
  8
0
 10
5269.6733986619055941
 20
-24.2915211817449013
 30
0.0
 11
5269.6483986619050484
 21
-24.2915211817449013
 31
0.0
  0
LINE
  5
2303B
  8
0
 10
5269.6483986619050484
 20
-24.2915211817449013
 30
0.0
 11
5269.6483986619050484
 21
-24.3115211817449008
 31
0.0
  0
LINE
  5
2303C
  8
0
 10
5269.6483986619050484
 20
-24.3115211817449008
 30
0.0
 11
5269.6733986619055941
 21
-24.3115211817449008
 31
0.0
  0
LINE
  5
2303D
  8
0
 10
5269.6733986619055941
 20
-24.3115211817449008
 30
0.0
 11
5269.6733986619055941
 21
-24.2915211817449084
 31
0.0
  0
LINE
  5
2303E
  8
0
 10
5269.6433986619058487
 20
-24.2915211817449013
 30
0.0
 11
5269.618398661905303
 21
-24.2915211817449013
 31
0.0
  0
LINE
  5
2303F
  8
0
 10
5269.618398661905303
 20
-24.2915211817449013
 30
0.0
 11
5269.618398661905303
 21
-24.3115211817449008
 31
0.0
  0
LINE
  5
23040
  8
0
 10
5269.618398661905303
 20
-24.3115211817449008
 30
0.0
 11
5269.6433986619058487
 21
-24.3115211817449008
 31
0.0
  0
LINE
  5
23041
  8
0
 10
5269.6433986619058487
 20
-24.3115211817449008
 30
0.0
 11
5269.6433986619058487
 21
-24.2915211817449084
 31
0.0
  0
LINE
  5
23042
  8
0
 10
5269.6133986619051939
 20
-24.2915211817449013
 30
0.0
 11
5269.5883986619046482
 21
-24.2915211817449013
 31
0.0
  0
LINE
  5
23043
  8
0
 10
5269.5883986619046482
 20
-24.2915211817449013
 30
0.0
 11
5269.5883986619046482
 21
-24.3115211817449008
 31
0.0
  0
LINE
  5
23044
  8
0
 10
5269.5883986619046482
 20
-24.3115211817449008
 30
0.0
 11
5269.6133986619051939
 21
-24.3115211817449008
 31
0.0
  0
LINE
  5
23045
  8
0
 10
5269.6133986619051939
 20
-24.3115211817449008
 30
0.0
 11
5269.6133986619051939
 21
-24.2915211817449084
 31
0.0
  0
LINE
  5
23046
  8
0
 10
5269.583398661906358
 20
-24.2915211817449013
 30
0.0
 11
5269.5583986619058123
 21
-24.2915211817449013
 31
0.0
  0
LINE
  5
23047
  8
0
 10
5269.5583986619058123
 20
-24.2915211817449013
 30
0.0
 11
5269.5583986619058123
 21
-24.3115211817449008
 31
0.0
  0
LINE
  5
23048
  8
0
 10
5269.5583986619058123
 20
-24.3115211817449008
 30
0.0
 11
5269.583398661906358
 21
-24.3115211817449008
 31
0.0
  0
LINE
  5
23049
  8
0
 10
5269.583398661906358
 20
-24.3115211817449008
 30
0.0
 11
5269.583398661906358
 21
-24.2915211817449084
 31
0.0
  0
LINE
  5
2304A
  8
0
 10
5269.5533986619057032
 20
-24.2915211817449013
 30
0.0
 11
5269.5283986619051575
 21
-24.2915211817449013
 31
0.0
  0
LINE
  5
2304B
  8
0
 10
5269.5283986619051575
 20
-24.2915211817449013
 30
0.0
 11
5269.5283986619051575
 21
-24.3115211817449008
 31
0.0
  0
LINE
  5
2304C
  8
0
 10
5269.5283986619051575
 20
-24.3115211817449008
 30
0.0
 11
5269.5533986619057032
 21
-24.3115211817449008
 31
0.0
  0
LINE
  5
2304D
  8
0
 10
5269.5533986619057032
 20
-24.3115211817449008
 30
0.0
 11
5269.5533986619057032
 21
-24.2915211817449084
 31
0.0
  0
LINE
  5
2304E
  8
0
 10
5269.5233986619050484
 20
-24.2915211817449013
 30
0.0
 11
5269.4983986619054122
 21
-24.2915211817449013
 31
0.0
  0
LINE
  5
2304F
  8
0
 10
5269.4983986619054122
 20
-24.2915211817449013
 30
0.0
 11
5269.4983986619054122
 21
-24.3115211817449008
 31
0.0
  0
LINE
  5
23050
  8
0
 10
5269.4983986619054122
 20
-24.3115211817449008
 30
0.0
 11
5269.5233986619050484
 21
-24.3115211817449008
 31
0.0
  0
LINE
  5
23051
  8
0
 10
5269.5233986619050484
 20
-24.3115211817449008
 30
0.0
 11
5269.5233986619050484
 21
-24.2915211817449084
 31
0.0
  0
LINE
  5
23052
  8
0
 10
5269.493398661905303
 20
-24.2915211817449013
 30
0.0
 11
5269.4683986619047573
 21
-24.2915211817449013
 31
0.0
  0
LINE
  5
23053
  8
0
 10
5269.4683986619047573
 20
-24.2915211817449013
 30
0.0
 11
5269.4683986619047573
 21
-24.3115211817449008
 31
0.0
  0
LINE
  5
23054
  8
0
 10
5269.4683986619047573
 20
-24.3115211817449008
 30
0.0
 11
5269.493398661905303
 21
-24.3115211817449008
 31
0.0
  0
LINE
  5
23055
  8
0
 10
5269.493398661905303
 20
-24.3115211817449008
 30
0.0
 11
5269.493398661905303
 21
-24.2915211817449084
 31
0.0
  0
LINE
  5
23056
  8
0
 10
5269.4633986619055577
 20
-24.2915211817449013
 30
0.0
 11
5269.438398661905012
 21
-24.2915211817449013
 31
0.0
  0
LINE
  5
23057
  8
0
 10
5269.438398661905012
 20
-24.2915211817449013
 30
0.0
 11
5269.438398661905012
 21
-24.3115211817449008
 31
0.0
  0
LINE
  5
23058
  8
0
 10
5269.438398661905012
 20
-24.3115211817449008
 30
0.0
 11
5269.4633986619055577
 21
-24.3115211817449008
 31
0.0
  0
LINE
  5
23059
  8
0
 10
5269.4633986619055577
 20
-24.3115211817449008
 30
0.0
 11
5269.4633986619055577
 21
-24.2915211817449084
 31
0.0
  0
LINE
  5
2305A
  8
0
 10
5269.4333986619058123
 20
-24.2915211817449013
 30
0.0
 11
5269.4083986619052666
 21
-24.2915211817449013
 31
0.0
  0
LINE
  5
2305B
  8
0
 10
5269.4083986619052666
 20
-24.2915211817449013
 30
0.0
 11
5269.4083986619052666
 21
-24.3115211817449008
 31
0.0
  0
LINE
  5
2305C
  8
0
 10
5269.4083986619052666
 20
-24.3115211817449008
 30
0.0
 11
5269.4333986619058123
 21
-24.3115211817449008
 31
0.0
  0
LINE
  5
2305D
  8
0
 10
5269.4333986619058123
 20
-24.3115211817449008
 30
0.0
 11
5269.4333986619058123
 21
-24.2915211817449084
 31
0.0
  0
LINE
  5
2305E
  8
0
 10
5269.4033986619051575
 20
-24.2915211817449013
 30
0.0
 11
5269.3783986619046118
 21
-24.2915211817449013
 31
0.0
  0
LINE
  5
2305F
  8
0
 10
5269.3783986619046118
 20
-24.2915211817449013
 30
0.0
 11
5269.3783986619046118
 21
-24.3115211817449008
 31
0.0
  0
LINE
  5
23060
  8
0
 10
5269.3783986619046118
 20
-24.3115211817449008
 30
0.0
 11
5269.4033986619051575
 21
-24.3115211817449008
 31
0.0
  0
LINE
  5
23061
  8
0
 10
5269.4033986619051575
 20
-24.3115211817449008
 30
0.0
 11
5269.4033986619051575
 21
-24.2915211817449084
 31
0.0
  0
LINE
  5
23062
  8
0
 10
5269.3733986619063216
 20
-24.2915211817449013
 30
0.0
 11
5269.348398661905776
 21
-24.2915211817449013
 31
0.0
  0
LINE
  5
23063
  8
0
 10
5269.348398661905776
 20
-24.2915211817449013
 30
0.0
 11
5269.348398661905776
 21
-24.3115211817449008
 31
0.0
  0
LINE
  5
23064
  8
0
 10
5269.348398661905776
 20
-24.3115211817449008
 30
0.0
 11
5269.3733986619063216
 21
-24.3115211817449008
 31
0.0
  0
LINE
  5
23065
  8
0
 10
5269.3733986619063216
 20
-24.3115211817449008
 30
0.0
 11
5269.3733986619063216
 21
-24.2915211817449084
 31
0.0
  0
LINE
  5
23066
  8
0
 10
5269.3433986619056668
 20
-24.2915211817449013
 30
0.0
 11
5269.3258990328040454
 21
-24.2915211817449084
 31
0.0
  0
LINE
  5
23067
  8
0
 10
5269.3326973835928584
 20
-24.3115211817449008
 30
0.0
 11
5269.3433986619056668
 21
-24.3115211817449008
 31
0.0
  0
LINE
  5
23068
  8
0
 10
5269.3433986619056668
 20
-24.3115211817449008
 30
0.0
 11
5269.3433986619056668
 21
-24.2915211817449084
 31
0.0
  0
LINE
  5
23069
  8
0
 10
5269.7520664927897087
 20
-24.3165211817448998
 30
0.0
 11
5269.7383986619051939
 21
-24.3165211817448998
 31
0.0
  0
LINE
  5
2306A
  8
0
 10
5269.7383986619051939
 20
-24.3165211817448998
 30
0.0
 11
5269.7383986619051939
 21
-24.3365211817449101
 31
0.0
  0
LINE
  5
2306B
  8
0
 10
5269.7383986619051939
 20
-24.3365211817449101
 30
0.0
 11
5269.7424745360613088
 21
-24.3365211817449101
 31
0.0
  0
LINE
  5
2306C
  8
0
 10
5269.7333986619050847
 20
-24.3165211817448998
 30
0.0
 11
5269.7083986619054485
 21
-24.3165211817448998
 31
0.0
  0
LINE
  5
2306D
  8
0
 10
5269.7083986619054485
 20
-24.3165211817448998
 30
0.0
 11
5269.7083986619054485
 21
-24.3365211817449101
 31
0.0
  0
LINE
  5
2306E
  8
0
 10
5269.7083986619054485
 20
-24.3365211817449101
 30
0.0
 11
5269.7333986619050847
 21
-24.3365211817449101
 31
0.0
  0
LINE
  5
2306F
  8
0
 10
5269.7333986619050847
 20
-24.3365211817449101
 30
0.0
 11
5269.7333986619050847
 21
-24.3165211817449105
 31
0.0
  0
LINE
  5
23070
  8
0
 10
5269.7033986619053394
 20
-24.3165211817448998
 30
0.0
 11
5269.6783986619057032
 21
-24.3165211817448998
 31
0.0
  0
LINE
  5
23071
  8
0
 10
5269.6783986619057032
 20
-24.3165211817448998
 30
0.0
 11
5269.6783986619057032
 21
-24.3365211817449101
 31
0.0
  0
LINE
  5
23072
  8
0
 10
5269.6783986619057032
 20
-24.3365211817449101
 30
0.0
 11
5269.7033986619053394
 21
-24.3365211817449101
 31
0.0
  0
LINE
  5
23073
  8
0
 10
5269.7033986619053394
 20
-24.3365211817449101
 30
0.0
 11
5269.7033986619053394
 21
-24.3165211817449105
 31
0.0
  0
LINE
  5
23074
  8
0
 10
5269.6733986619055941
 20
-24.3165211817448998
 30
0.0
 11
5269.6483986619050484
 21
-24.3165211817448998
 31
0.0
  0
LINE
  5
23075
  8
0
 10
5269.6483986619050484
 20
-24.3165211817448998
 30
0.0
 11
5269.6483986619050484
 21
-24.3365211817449101
 31
0.0
  0
LINE
  5
23076
  8
0
 10
5269.6483986619050484
 20
-24.3365211817449101
 30
0.0
 11
5269.6733986619055941
 21
-24.3365211817449101
 31
0.0
  0
LINE
  5
23077
  8
0
 10
5269.6733986619055941
 20
-24.3365211817449101
 30
0.0
 11
5269.6733986619055941
 21
-24.3165211817449105
 31
0.0
  0
LINE
  5
23078
  8
0
 10
5269.6433986619058487
 20
-24.3165211817448998
 30
0.0
 11
5269.618398661905303
 21
-24.3165211817448998
 31
0.0
  0
LINE
  5
23079
  8
0
 10
5269.618398661905303
 20
-24.3165211817448998
 30
0.0
 11
5269.618398661905303
 21
-24.3365211817449101
 31
0.0
  0
LINE
  5
2307A
  8
0
 10
5269.618398661905303
 20
-24.3365211817449101
 30
0.0
 11
5269.6433986619058487
 21
-24.3365211817449101
 31
0.0
  0
LINE
  5
2307B
  8
0
 10
5269.6433986619058487
 20
-24.3365211817449101
 30
0.0
 11
5269.6433986619058487
 21
-24.3165211817449105
 31
0.0
  0
LINE
  5
2307C
  8
0
 10
5269.6133986619051939
 20
-24.3165211817448998
 30
0.0
 11
5269.5883986619046482
 21
-24.3165211817448998
 31
0.0
  0
LINE
  5
2307D
  8
0
 10
5269.5883986619046482
 20
-24.3165211817448998
 30
0.0
 11
5269.5883986619046482
 21
-24.3365211817449101
 31
0.0
  0
LINE
  5
2307E
  8
0
 10
5269.5883986619046482
 20
-24.3365211817449101
 30
0.0
 11
5269.6133986619051939
 21
-24.3365211817449101
 31
0.0
  0
LINE
  5
2307F
  8
0
 10
5269.6133986619051939
 20
-24.3365211817449101
 30
0.0
 11
5269.6133986619051939
 21
-24.3165211817449105
 31
0.0
  0
LINE
  5
23080
  8
0
 10
5269.583398661906358
 20
-24.3165211817448998
 30
0.0
 11
5269.5583986619058123
 21
-24.3165211817448998
 31
0.0
  0
LINE
  5
23081
  8
0
 10
5269.5583986619058123
 20
-24.3165211817448998
 30
0.0
 11
5269.5583986619058123
 21
-24.3365211817449101
 31
0.0
  0
LINE
  5
23082
  8
0
 10
5269.5583986619058123
 20
-24.3365211817449101
 30
0.0
 11
5269.583398661906358
 21
-24.3365211817449101
 31
0.0
  0
LINE
  5
23083
  8
0
 10
5269.583398661906358
 20
-24.3365211817449101
 30
0.0
 11
5269.583398661906358
 21
-24.3165211817449105
 31
0.0
  0
LINE
  5
23084
  8
0
 10
5269.5533986619057032
 20
-24.3165211817448998
 30
0.0
 11
5269.5283986619051575
 21
-24.3165211817448998
 31
0.0
  0
LINE
  5
23085
  8
0
 10
5269.5283986619051575
 20
-24.3165211817448998
 30
0.0
 11
5269.5283986619051575
 21
-24.3365211817449101
 31
0.0
  0
LINE
  5
23086
  8
0
 10
5269.5283986619051575
 20
-24.3365211817449101
 30
0.0
 11
5269.5533986619057032
 21
-24.3365211817449101
 31
0.0
  0
LINE
  5
23087
  8
0
 10
5269.5533986619057032
 20
-24.3365211817449101
 30
0.0
 11
5269.5533986619057032
 21
-24.3165211817449105
 31
0.0
  0
LINE
  5
23088
  8
0
 10
5269.5233986619050484
 20
-24.3165211817448998
 30
0.0
 11
5269.4983986619054122
 21
-24.3165211817448998
 31
0.0
  0
LINE
  5
23089
  8
0
 10
5269.4983986619054122
 20
-24.3165211817448998
 30
0.0
 11
5269.4983986619054122
 21
-24.3365211817449101
 31
0.0
  0
LINE
  5
2308A
  8
0
 10
5269.4983986619054122
 20
-24.3365211817449101
 30
0.0
 11
5269.5233986619050484
 21
-24.3365211817449101
 31
0.0
  0
LINE
  5
2308B
  8
0
 10
5269.5233986619050484
 20
-24.3365211817449101
 30
0.0
 11
5269.5233986619050484
 21
-24.3165211817449105
 31
0.0
  0
LINE
  5
2308C
  8
0
 10
5269.493398661905303
 20
-24.3165211817448998
 30
0.0
 11
5269.4683986619047573
 21
-24.3165211817448998
 31
0.0
  0
LINE
  5
2308D
  8
0
 10
5269.4683986619047573
 20
-24.3165211817448998
 30
0.0
 11
5269.4683986619047573
 21
-24.3365211817449101
 31
0.0
  0
LINE
  5
2308E
  8
0
 10
5269.4683986619047573
 20
-24.3365211817449101
 30
0.0
 11
5269.493398661905303
 21
-24.3365211817449101
 31
0.0
  0
LINE
  5
2308F
  8
0
 10
5269.493398661905303
 20
-24.3365211817449101
 30
0.0
 11
5269.493398661905303
 21
-24.3165211817449105
 31
0.0
  0
LINE
  5
23090
  8
0
 10
5269.4633986619055577
 20
-24.3165211817448998
 30
0.0
 11
5269.438398661905012
 21
-24.3165211817448998
 31
0.0
  0
LINE
  5
23091
  8
0
 10
5269.438398661905012
 20
-24.3165211817448998
 30
0.0
 11
5269.438398661905012
 21
-24.3365211817449101
 31
0.0
  0
LINE
  5
23092
  8
0
 10
5269.438398661905012
 20
-24.3365211817449101
 30
0.0
 11
5269.4633986619055577
 21
-24.3365211817449101
 31
0.0
  0
LINE
  5
23093
  8
0
 10
5269.4633986619055577
 20
-24.3365211817449101
 30
0.0
 11
5269.4633986619055577
 21
-24.3165211817449105
 31
0.0
  0
LINE
  5
23094
  8
0
 10
5269.4333986619058123
 20
-24.3165211817448998
 30
0.0
 11
5269.4083986619052666
 21
-24.3165211817448998
 31
0.0
  0
LINE
  5
23095
  8
0
 10
5269.4083986619052666
 20
-24.3165211817448998
 30
0.0
 11
5269.4083986619052666
 21
-24.3365211817449101
 31
0.0
  0
LINE
  5
23096
  8
0
 10
5269.4083986619052666
 20
-24.3365211817449101
 30
0.0
 11
5269.4333986619058123
 21
-24.3365211817449101
 31
0.0
  0
LINE
  5
23097
  8
0
 10
5269.4333986619058123
 20
-24.3365211817449101
 30
0.0
 11
5269.4333986619058123
 21
-24.3165211817449105
 31
0.0
  0
LINE
  5
23098
  8
0
 10
5269.4033986619051575
 20
-24.3165211817448998
 30
0.0
 11
5269.3783986619046118
 21
-24.3165211817448998
 31
0.0
  0
LINE
  5
23099
  8
0
 10
5269.3783986619046118
 20
-24.3165211817448998
 30
0.0
 11
5269.3783986619046118
 21
-24.3365211817449101
 31
0.0
  0
LINE
  5
2309A
  8
0
 10
5269.3783986619046118
 20
-24.3365211817449101
 30
0.0
 11
5269.4033986619051575
 21
-24.3365211817449101
 31
0.0
  0
LINE
  5
2309B
  8
0
 10
5269.4033986619051575
 20
-24.3365211817449101
 30
0.0
 11
5269.4033986619051575
 21
-24.3165211817449105
 31
0.0
  0
LINE
  5
2309C
  8
0
 10
5269.3733986619063216
 20
-24.3165211817448998
 30
0.0
 11
5269.348398661905776
 21
-24.3165211817448998
 31
0.0
  0
LINE
  5
2309D
  8
0
 10
5269.348398661905776
 20
-24.3165211817448998
 30
0.0
 11
5269.348398661905776
 21
-24.3365211817449101
 31
0.0
  0
LINE
  5
2309E
  8
0
 10
5269.348398661905776
 20
-24.3365211817449101
 30
0.0
 11
5269.3733986619063216
 21
-24.3365211817449101
 31
0.0
  0
LINE
  5
2309F
  8
0
 10
5269.3733986619063216
 20
-24.3365211817449101
 30
0.0
 11
5269.3733986619063216
 21
-24.3165211817449105
 31
0.0
  0
LINE
  5
230A0
  8
0
 10
5269.3433986619056668
 20
-24.3165211817448998
 30
0.0
 11
5269.3347308309203072
 21
-24.3165211817448998
 31
0.0
  0
LINE
  5
230A1
  8
0
 10
5269.3433986619056668
 20
-24.3347964505240313
 30
0.0
 11
5269.3433986619056668
 21
-24.3165211817449105
 31
0.0
  0
LINE
  5
230A2
  8
0
 10
5269.7396852856918485
 20
-24.3415211817448984
 30
0.0
 11
5269.7383986619051939
 21
-24.3415211817448984
 31
0.0
  0
LINE
  5
230A3
  8
0
 10
5269.7383986619051939
 20
-24.3415211817448984
 30
0.0
 11
5269.7383986619051939
 21
-24.3437315402653596
 31
0.0
  0
LINE
  5
230A4
  8
0
 10
5269.7333986619050847
 20
-24.3415211817448984
 30
0.0
 11
5269.7083986619054485
 21
-24.3415211817448984
 31
0.0
  0
LINE
  5
230A5
  8
0
 10
5269.7083986619054485
 20
-24.3415211817448984
 30
0.0
 11
5269.7083986619054485
 21
-24.3615211817449016
 31
0.0
  0
LINE
  5
230A6
  8
0
 10
5269.7083986619054485
 20
-24.3615211817449016
 30
0.0
 11
5269.7267490878721219
 21
-24.3615211817449016
 31
0.0
  0
LINE
  5
230A7
  8
0
 10
5269.7333986619050847
 20
-24.3518177398957683
 30
0.0
 11
5269.7333986619050847
 21
-24.3415211817449091
 31
0.0
  0
LINE
  5
230A8
  8
0
 10
5269.7033986619053394
 20
-24.3415211817448984
 30
0.0
 11
5269.6783986619057032
 21
-24.3415211817448984
 31
0.0
  0
LINE
  5
230A9
  8
0
 10
5269.6783986619057032
 20
-24.3415211817448984
 30
0.0
 11
5269.6783986619057032
 21
-24.3615211817449016
 31
0.0
  0
LINE
  5
230AA
  8
0
 10
5269.6783986619057032
 20
-24.3615211817449016
 30
0.0
 11
5269.7033986619053394
 21
-24.3615211817449016
 31
0.0
  0
LINE
  5
230AB
  8
0
 10
5269.7033986619053394
 20
-24.3615211817449016
 30
0.0
 11
5269.7033986619053394
 21
-24.3415211817449091
 31
0.0
  0
LINE
  5
230AC
  8
0
 10
5269.6733986619055941
 20
-24.3415211817448984
 30
0.0
 11
5269.6483986619050484
 21
-24.3415211817448984
 31
0.0
  0
LINE
  5
230AD
  8
0
 10
5269.6483986619050484
 20
-24.3415211817448984
 30
0.0
 11
5269.6483986619050484
 21
-24.3615211817449016
 31
0.0
  0
LINE
  5
230AE
  8
0
 10
5269.6483986619050484
 20
-24.3615211817449016
 30
0.0
 11
5269.6733986619055941
 21
-24.3615211817449016
 31
0.0
  0
LINE
  5
230AF
  8
0
 10
5269.6733986619055941
 20
-24.3615211817449016
 30
0.0
 11
5269.6733986619055941
 21
-24.3415211817449091
 31
0.0
  0
LINE
  5
230B0
  8
0
 10
5269.6433986619058487
 20
-24.3415211817448984
 30
0.0
 11
5269.618398661905303
 21
-24.3415211817448984
 31
0.0
  0
LINE
  5
230B1
  8
0
 10
5269.618398661905303
 20
-24.3415211817448984
 30
0.0
 11
5269.618398661905303
 21
-24.3615211817449016
 31
0.0
  0
LINE
  5
230B2
  8
0
 10
5269.618398661905303
 20
-24.3615211817449016
 30
0.0
 11
5269.6433986619058487
 21
-24.3615211817449016
 31
0.0
  0
LINE
  5
230B3
  8
0
 10
5269.6433986619058487
 20
-24.3615211817449016
 30
0.0
 11
5269.6433986619058487
 21
-24.3415211817449091
 31
0.0
  0
LINE
  5
230B4
  8
0
 10
5269.6133986619051939
 20
-24.3415211817448984
 30
0.0
 11
5269.5883986619046482
 21
-24.3415211817448984
 31
0.0
  0
LINE
  5
230B5
  8
0
 10
5269.5883986619046482
 20
-24.3415211817448984
 30
0.0
 11
5269.5883986619046482
 21
-24.3615211817449016
 31
0.0
  0
LINE
  5
230B6
  8
0
 10
5269.5883986619046482
 20
-24.3615211817449016
 30
0.0
 11
5269.6133986619051939
 21
-24.3615211817449016
 31
0.0
  0
LINE
  5
230B7
  8
0
 10
5269.6133986619051939
 20
-24.3615211817449016
 30
0.0
 11
5269.6133986619051939
 21
-24.3415211817449091
 31
0.0
  0
LINE
  5
230B8
  8
0
 10
5269.583398661906358
 20
-24.3415211817448984
 30
0.0
 11
5269.5583986619058123
 21
-24.3415211817448984
 31
0.0
  0
LINE
  5
230B9
  8
0
 10
5269.5583986619058123
 20
-24.3415211817448984
 30
0.0
 11
5269.5583986619058123
 21
-24.3615211817449016
 31
0.0
  0
LINE
  5
230BA
  8
0
 10
5269.5583986619058123
 20
-24.3615211817449016
 30
0.0
 11
5269.583398661906358
 21
-24.3615211817449016
 31
0.0
  0
LINE
  5
230BB
  8
0
 10
5269.583398661906358
 20
-24.3615211817449016
 30
0.0
 11
5269.583398661906358
 21
-24.3415211817449091
 31
0.0
  0
LINE
  5
230BC
  8
0
 10
5269.5533986619057032
 20
-24.3415211817448984
 30
0.0
 11
5269.5283986619051575
 21
-24.3415211817448984
 31
0.0
  0
LINE
  5
230BD
  8
0
 10
5269.5283986619051575
 20
-24.3415211817448984
 30
0.0
 11
5269.5283986619051575
 21
-24.3615211817449016
 31
0.0
  0
LINE
  5
230BE
  8
0
 10
5269.5283986619051575
 20
-24.3615211817449016
 30
0.0
 11
5269.5533986619057032
 21
-24.3615211817449016
 31
0.0
  0
LINE
  5
230BF
  8
0
 10
5269.5533986619057032
 20
-24.3615211817449016
 30
0.0
 11
5269.5533986619057032
 21
-24.3415211817449091
 31
0.0
  0
LINE
  5
230C0
  8
0
 10
5269.5233986619050484
 20
-24.3415211817448984
 30
0.0
 11
5269.4983986619054122
 21
-24.3415211817448984
 31
0.0
  0
LINE
  5
230C1
  8
0
 10
5269.4983986619054122
 20
-24.3415211817448984
 30
0.0
 11
5269.4983986619054122
 21
-24.3615211817449016
 31
0.0
  0
LINE
  5
230C2
  8
0
 10
5269.4983986619054122
 20
-24.3615211817449016
 30
0.0
 11
5269.5233986619050484
 21
-24.3615211817449016
 31
0.0
  0
LINE
  5
230C3
  8
0
 10
5269.5233986619050484
 20
-24.3615211817449016
 30
0.0
 11
5269.5233986619050484
 21
-24.3415211817449091
 31
0.0
  0
LINE
  5
230C4
  8
0
 10
5269.493398661905303
 20
-24.3415211817448984
 30
0.0
 11
5269.4683986619047573
 21
-24.3415211817448984
 31
0.0
  0
LINE
  5
230C5
  8
0
 10
5269.4683986619047573
 20
-24.3415211817448984
 30
0.0
 11
5269.4683986619047573
 21
-24.3615211817449016
 31
0.0
  0
LINE
  5
230C6
  8
0
 10
5269.4683986619047573
 20
-24.3615211817449016
 30
0.0
 11
5269.493398661905303
 21
-24.3615211817449016
 31
0.0
  0
LINE
  5
230C7
  8
0
 10
5269.493398661905303
 20
-24.3615211817449016
 30
0.0
 11
5269.493398661905303
 21
-24.3415211817449091
 31
0.0
  0
LINE
  5
230C8
  8
0
 10
5269.4633986619055577
 20
-24.3415211817448984
 30
0.0
 11
5269.438398661905012
 21
-24.3415211817448984
 31
0.0
  0
LINE
  5
230C9
  8
0
 10
5269.438398661905012
 20
-24.3415211817448984
 30
0.0
 11
5269.438398661905012
 21
-24.3615211817449016
 31
0.0
  0
LINE
  5
230CA
  8
0
 10
5269.438398661905012
 20
-24.3615211817449016
 30
0.0
 11
5269.4633986619055577
 21
-24.3615211817449016
 31
0.0
  0
LINE
  5
230CB
  8
0
 10
5269.4633986619055577
 20
-24.3615211817449016
 30
0.0
 11
5269.4633986619055577
 21
-24.3415211817449091
 31
0.0
  0
LINE
  5
230CC
  8
0
 10
5269.4333986619058123
 20
-24.3415211817448984
 30
0.0
 11
5269.4083986619052666
 21
-24.3415211817448984
 31
0.0
  0
LINE
  5
230CD
  8
0
 10
5269.4083986619052666
 20
-24.3415211817448984
 30
0.0
 11
5269.4083986619052666
 21
-24.3615211817449016
 31
0.0
  0
LINE
  5
230CE
  8
0
 10
5269.4083986619052666
 20
-24.3615211817449016
 30
0.0
 11
5269.4333986619058123
 21
-24.3615211817449016
 31
0.0
  0
LINE
  5
230CF
  8
0
 10
5269.4333986619058123
 20
-24.3615211817449016
 30
0.0
 11
5269.4333986619058123
 21
-24.3415211817449091
 31
0.0
  0
LINE
  5
230D0
  8
0
 10
5269.4033986619051575
 20
-24.3415211817448984
 30
0.0
 11
5269.3783986619046118
 21
-24.3415211817448984
 31
0.0
  0
LINE
  5
230D1
  8
0
 10
5269.3783986619046118
 20
-24.3415211817448984
 30
0.0
 11
5269.3783986619046118
 21
-24.3615211817449016
 31
0.0
  0
LINE
  5
230D2
  8
0
 10
5269.3783986619046118
 20
-24.3615211817449016
 30
0.0
 11
5269.4033986619051575
 21
-24.3615211817449016
 31
0.0
  0
LINE
  5
230D3
  8
0
 10
5269.4033986619051575
 20
-24.3615211817449016
 30
0.0
 11
5269.4033986619051575
 21
-24.3415211817449091
 31
0.0
  0
LINE
  5
230D4
  8
0
 10
5269.3733986619063216
 20
-24.3415211817448984
 30
0.0
 11
5269.348398661905776
 21
-24.3415211817448984
 31
0.0
  0
LINE
  5
230D5
  8
0
 10
5269.348398661905776
 20
-24.3415211817448984
 30
0.0
 11
5269.348398661905776
 21
-24.3437315404349413
 31
0.0
  0
LINE
  5
230D6
  8
0
 10
5269.3600482358369845
 20
-24.3615211817449016
 30
0.0
 11
5269.3733986619063216
 21
-24.3615211817449016
 31
0.0
  0
LINE
  5
230D7
  8
0
 10
5269.3733986619063216
 20
-24.3615211817449016
 30
0.0
 11
5269.3733986619063216
 21
-24.3415211817449091
 31
0.0
  0
LINE
  5
230D8
  8
0
 10
5269.7230221951876956
 20
-24.3665211817449112
 30
0.0
 11
5269.7083986619054485
 21
-24.3665211817449112
 31
0.0
  0
LINE
  5
230D9
  8
0
 10
5269.7083986619054485
 20
-24.3665211817449112
 30
0.0
 11
5269.7083986619054485
 21
-24.3837349320298991
 31
0.0
  0
LINE
  5
230DA
  8
0
 10
5269.7033986619053394
 20
-24.3665211817449112
 30
0.0
 11
5269.6783986619057032
 21
-24.3665211817449112
 31
0.0
  0
LINE
  5
230DB
  8
0
 10
5269.6783986619057032
 20
-24.3665211817449112
 30
0.0
 11
5269.6783986619057032
 21
-24.3865211817449001
 31
0.0
  0
LINE
  5
230DC
  8
0
 10
5269.6783986619057032
 20
-24.3865211817449001
 30
0.0
 11
5269.7033986619053394
 21
-24.3865211817449001
 31
0.0
  0
LINE
  5
230DD
  8
0
 10
5269.7033986619053394
 20
-24.3865211817449001
 30
0.0
 11
5269.7033986619053394
 21
-24.3665211817449112
 31
0.0
  0
LINE
  5
230DE
  8
0
 10
5269.6733986619055941
 20
-24.3665211817449112
 30
0.0
 11
5269.6483986619050484
 21
-24.3665211817449112
 31
0.0
  0
LINE
  5
230DF
  8
0
 10
5269.6483986619050484
 20
-24.3665211817449112
 30
0.0
 11
5269.6483986619050484
 21
-24.3865211817449001
 31
0.0
  0
LINE
  5
230E0
  8
0
 10
5269.6483986619050484
 20
-24.3865211817449001
 30
0.0
 11
5269.6733986619055941
 21
-24.3865211817449001
 31
0.0
  0
LINE
  5
230E1
  8
0
 10
5269.6733986619055941
 20
-24.3865211817449001
 30
0.0
 11
5269.6733986619055941
 21
-24.3665211817449112
 31
0.0
  0
LINE
  5
230E2
  8
0
 10
5269.6433986619058487
 20
-24.3665211817449112
 30
0.0
 11
5269.618398661905303
 21
-24.3665211817449112
 31
0.0
  0
LINE
  5
230E3
  8
0
 10
5269.618398661905303
 20
-24.3665211817449112
 30
0.0
 11
5269.618398661905303
 21
-24.3865211817449001
 31
0.0
  0
LINE
  5
230E4
  8
0
 10
5269.618398661905303
 20
-24.3865211817449001
 30
0.0
 11
5269.6433986619058487
 21
-24.3865211817449001
 31
0.0
  0
LINE
  5
230E5
  8
0
 10
5269.6433986619058487
 20
-24.3865211817449001
 30
0.0
 11
5269.6433986619058487
 21
-24.3665211817449112
 31
0.0
  0
LINE
  5
230E6
  8
0
 10
5269.6133986619051939
 20
-24.3665211817449112
 30
0.0
 11
5269.5883986619046482
 21
-24.3665211817449112
 31
0.0
  0
LINE
  5
230E7
  8
0
 10
5269.5883986619046482
 20
-24.3665211817449112
 30
0.0
 11
5269.5883986619046482
 21
-24.3865211817449001
 31
0.0
  0
LINE
  5
230E8
  8
0
 10
5269.5883986619046482
 20
-24.3865211817449001
 30
0.0
 11
5269.6133986619051939
 21
-24.3865211817449001
 31
0.0
  0
LINE
  5
230E9
  8
0
 10
5269.6133986619051939
 20
-24.3865211817449001
 30
0.0
 11
5269.6133986619051939
 21
-24.3665211817449112
 31
0.0
  0
LINE
  5
230EA
  8
0
 10
5269.583398661906358
 20
-24.3665211817449112
 30
0.0
 11
5269.5583986619058123
 21
-24.3665211817449112
 31
0.0
  0
LINE
  5
230EB
  8
0
 10
5269.5583986619058123
 20
-24.3665211817449112
 30
0.0
 11
5269.5583986619058123
 21
-24.3865211817449001
 31
0.0
  0
LINE
  5
230EC
  8
0
 10
5269.5583986619058123
 20
-24.3865211817449001
 30
0.0
 11
5269.583398661906358
 21
-24.3865211817449001
 31
0.0
  0
LINE
  5
230ED
  8
0
 10
5269.583398661906358
 20
-24.3865211817449001
 30
0.0
 11
5269.583398661906358
 21
-24.3665211817449112
 31
0.0
  0
LINE
  5
230EE
  8
0
 10
5269.5533986619057032
 20
-24.3665211817449112
 30
0.0
 11
5269.5283986619051575
 21
-24.3665211817449112
 31
0.0
  0
LINE
  5
230EF
  8
0
 10
5269.5283986619051575
 20
-24.3665211817449112
 30
0.0
 11
5269.5283986619051575
 21
-24.3865211817449001
 31
0.0
  0
LINE
  5
230F0
  8
0
 10
5269.5283986619051575
 20
-24.3865211817449001
 30
0.0
 11
5269.5533986619057032
 21
-24.3865211817449001
 31
0.0
  0
LINE
  5
230F1
  8
0
 10
5269.5533986619057032
 20
-24.3865211817449001
 30
0.0
 11
5269.5533986619057032
 21
-24.3665211817449112
 31
0.0
  0
LINE
  5
230F2
  8
0
 10
5269.5233986619050484
 20
-24.3665211817449112
 30
0.0
 11
5269.4983986619054122
 21
-24.3665211817449112
 31
0.0
  0
LINE
  5
230F3
  8
0
 10
5269.4983986619054122
 20
-24.3665211817449112
 30
0.0
 11
5269.4983986619054122
 21
-24.3865211817449001
 31
0.0
  0
LINE
  5
230F4
  8
0
 10
5269.4983986619054122
 20
-24.3865211817449001
 30
0.0
 11
5269.5233986619050484
 21
-24.3865211817449001
 31
0.0
  0
LINE
  5
230F5
  8
0
 10
5269.5233986619050484
 20
-24.3865211817449001
 30
0.0
 11
5269.5233986619050484
 21
-24.3665211817449112
 31
0.0
  0
LINE
  5
230F6
  8
0
 10
5269.493398661905303
 20
-24.3665211817449112
 30
0.0
 11
5269.4683986619047573
 21
-24.3665211817449112
 31
0.0
  0
LINE
  5
230F7
  8
0
 10
5269.4683986619047573
 20
-24.3665211817449112
 30
0.0
 11
5269.4683986619047573
 21
-24.3865211817449001
 31
0.0
  0
LINE
  5
230F8
  8
0
 10
5269.4683986619047573
 20
-24.3865211817449001
 30
0.0
 11
5269.493398661905303
 21
-24.3865211817449001
 31
0.0
  0
LINE
  5
230F9
  8
0
 10
5269.493398661905303
 20
-24.3865211817449001
 30
0.0
 11
5269.493398661905303
 21
-24.3665211817449112
 31
0.0
  0
LINE
  5
230FA
  8
0
 10
5269.4633986619055577
 20
-24.3665211817449112
 30
0.0
 11
5269.438398661905012
 21
-24.3665211817449112
 31
0.0
  0
LINE
  5
230FB
  8
0
 10
5269.438398661905012
 20
-24.3665211817449112
 30
0.0
 11
5269.438398661905012
 21
-24.3865211817449001
 31
0.0
  0
LINE
  5
230FC
  8
0
 10
5269.438398661905012
 20
-24.3865211817449001
 30
0.0
 11
5269.4633986619055577
 21
-24.3865211817449001
 31
0.0
  0
LINE
  5
230FD
  8
0
 10
5269.4633986619055577
 20
-24.3865211817449001
 30
0.0
 11
5269.4633986619055577
 21
-24.3665211817449112
 31
0.0
  0
LINE
  5
230FE
  8
0
 10
5269.4333986619058123
 20
-24.3665211817449112
 30
0.0
 11
5269.4083986619052666
 21
-24.3665211817449112
 31
0.0
  0
LINE
  5
230FF
  8
0
 10
5269.4083986619052666
 20
-24.3665211817449112
 30
0.0
 11
5269.4083986619052666
 21
-24.3865211817449001
 31
0.0
  0
LINE
  5
23100
  8
0
 10
5269.4083986619052666
 20
-24.3865211817449001
 30
0.0
 11
5269.4333986619058123
 21
-24.3865211817449001
 31
0.0
  0
LINE
  5
23101
  8
0
 10
5269.4333986619058123
 20
-24.3865211817449001
 30
0.0
 11
5269.4333986619058123
 21
-24.3665211817449112
 31
0.0
  0
LINE
  5
23102
  8
0
 10
5269.4033986619051575
 20
-24.3665211817449112
 30
0.0
 11
5269.3783986619046118
 21
-24.3665211817449112
 31
0.0
  0
LINE
  5
23103
  8
0
 10
5269.3783986619046118
 20
-24.3665211817449112
 30
0.0
 11
5269.3783986619046118
 21
-24.3837349321363597
 31
0.0
  0
LINE
  5
23104
  8
0
 10
5269.3810608851335928
 20
-24.3865211817449108
 30
0.0
 11
5269.4033986619051575
 21
-24.3865211817449001
 31
0.0
  0
LINE
  5
23105
  8
0
 10
5269.4033986619051575
 20
-24.3865211817449001
 30
0.0
 11
5269.4033986619051575
 21
-24.3665211817449112
 31
0.0
  0
LINE
  5
23106
  8
0
 10
5269.3733986619063216
 20
-24.3665211817449112
 30
0.0
 11
5269.3637751285223203
 21
-24.3665211817449112
 31
0.0
  0
LINE
  5
23107
  8
0
 10
5269.3733986619063216
 20
-24.3782337372316107
 30
0.0
 11
5269.3733986619063216
 21
-24.3665211817449112
 31
0.0
  0
LINE
  5
23108
  8
0
 10
5269.7007224958952065
 20
-24.3915211817449098
 30
0.0
 11
5269.6783986619057032
 21
-24.3915211817449098
 31
0.0
  0
LINE
  5
23109
  8
0
 10
5269.6783986619057032
 20
-24.3915211817449098
 30
0.0
 11
5269.6783986619057032
 21
-24.4104641846015902
 31
0.0
  0
LINE
  5
2310A
  8
0
 10
5269.6733986619055941
 20
-24.3915211817449098
 30
0.0
 11
5269.6483986619050484
 21
-24.3915211817449098
 31
0.0
  0
LINE
  5
2310B
  8
0
 10
5269.6483986619050484
 20
-24.3915211817449098
 30
0.0
 11
5269.6483986619050484
 21
-24.4115211817448987
 31
0.0
  0
LINE
  5
2310C
  8
0
 10
5269.6483986619050484
 20
-24.4115211817448987
 30
0.0
 11
5269.6733986619055941
 21
-24.4115211817448987
 31
0.0
  0
LINE
  5
2310D
  8
0
 10
5269.6733986619055941
 20
-24.4115211817448987
 30
0.0
 11
5269.6733986619055941
 21
-24.3915211817449098
 31
0.0
  0
LINE
  5
2310E
  8
0
 10
5269.6433986619058487
 20
-24.3915211817449098
 30
0.0
 11
5269.618398661905303
 21
-24.3915211817449098
 31
0.0
  0
LINE
  5
2310F
  8
0
 10
5269.618398661905303
 20
-24.3915211817449098
 30
0.0
 11
5269.618398661905303
 21
-24.4115211817448987
 31
0.0
  0
LINE
  5
23110
  8
0
 10
5269.618398661905303
 20
-24.4115211817448987
 30
0.0
 11
5269.6433986619058487
 21
-24.4115211817448987
 31
0.0
  0
LINE
  5
23111
  8
0
 10
5269.6433986619058487
 20
-24.4115211817448987
 30
0.0
 11
5269.6433986619058487
 21
-24.3915211817449098
 31
0.0
  0
LINE
  5
23112
  8
0
 10
5269.6133986619051939
 20
-24.3915211817449098
 30
0.0
 11
5269.5883986619046482
 21
-24.3915211817449098
 31
0.0
  0
LINE
  5
23113
  8
0
 10
5269.5883986619046482
 20
-24.3915211817449098
 30
0.0
 11
5269.5883986619046482
 21
-24.4115211817448987
 31
0.0
  0
LINE
  5
23114
  8
0
 10
5269.5883986619046482
 20
-24.4115211817448987
 30
0.0
 11
5269.6133986619051939
 21
-24.4115211817448987
 31
0.0
  0
LINE
  5
23115
  8
0
 10
5269.6133986619051939
 20
-24.4115211817448987
 30
0.0
 11
5269.6133986619051939
 21
-24.3915211817449098
 31
0.0
  0
LINE
  5
23116
  8
0
 10
5269.583398661906358
 20
-24.3915211817449098
 30
0.0
 11
5269.5583986619058123
 21
-24.3915211817449098
 31
0.0
  0
LINE
  5
23117
  8
0
 10
5269.5583986619058123
 20
-24.3915211817449098
 30
0.0
 11
5269.5583986619058123
 21
-24.4115211817448987
 31
0.0
  0
LINE
  5
23118
  8
0
 10
5269.5583986619058123
 20
-24.4115211817448987
 30
0.0
 11
5269.583398661906358
 21
-24.4115211817448987
 31
0.0
  0
LINE
  5
23119
  8
0
 10
5269.583398661906358
 20
-24.4115211817448987
 30
0.0
 11
5269.583398661906358
 21
-24.3915211817449098
 31
0.0
  0
LINE
  5
2311A
  8
0
 10
5269.5533986619057032
 20
-24.3915211817449098
 30
0.0
 11
5269.5283986619051575
 21
-24.3915211817449098
 31
0.0
  0
LINE
  5
2311B
  8
0
 10
5269.5283986619051575
 20
-24.3915211817449098
 30
0.0
 11
5269.5283986619051575
 21
-24.4115211817448987
 31
0.0
  0
LINE
  5
2311C
  8
0
 10
5269.5283986619051575
 20
-24.4115211817448987
 30
0.0
 11
5269.5533986619057032
 21
-24.4115211817448987
 31
0.0
  0
LINE
  5
2311D
  8
0
 10
5269.5533986619057032
 20
-24.4115211817448987
 30
0.0
 11
5269.5533986619057032
 21
-24.3915211817449098
 31
0.0
  0
LINE
  5
2311E
  8
0
 10
5269.5233986619050484
 20
-24.3915211817449098
 30
0.0
 11
5269.4983986619054122
 21
-24.3915211817449098
 31
0.0
  0
LINE
  5
2311F
  8
0
 10
5269.4983986619054122
 20
-24.3915211817449098
 30
0.0
 11
5269.4983986619054122
 21
-24.4115211817448987
 31
0.0
  0
LINE
  5
23120
  8
0
 10
5269.4983986619054122
 20
-24.4115211817448987
 30
0.0
 11
5269.5233986619050484
 21
-24.4115211817448987
 31
0.0
  0
LINE
  5
23121
  8
0
 10
5269.5233986619050484
 20
-24.4115211817448987
 30
0.0
 11
5269.5233986619050484
 21
-24.3915211817449098
 31
0.0
  0
LINE
  5
23122
  8
0
 10
5269.493398661905303
 20
-24.3915211817449098
 30
0.0
 11
5269.4683986619047573
 21
-24.3915211817449098
 31
0.0
  0
LINE
  5
23123
  8
0
 10
5269.4683986619047573
 20
-24.3915211817449098
 30
0.0
 11
5269.4683986619047573
 21
-24.4115211817448987
 31
0.0
  0
LINE
  5
23124
  8
0
 10
5269.4683986619047573
 20
-24.4115211817448987
 30
0.0
 11
5269.493398661905303
 21
-24.4115211817448987
 31
0.0
  0
LINE
  5
23125
  8
0
 10
5269.493398661905303
 20
-24.4115211817448987
 30
0.0
 11
5269.493398661905303
 21
-24.3915211817449098
 31
0.0
  0
LINE
  5
23126
  8
0
 10
5269.4633986619055577
 20
-24.3915211817449098
 30
0.0
 11
5269.438398661905012
 21
-24.3915211817449098
 31
0.0
  0
LINE
  5
23127
  8
0
 10
5269.438398661905012
 20
-24.3915211817449098
 30
0.0
 11
5269.438398661905012
 21
-24.4115211817448987
 31
0.0
  0
LINE
  5
23128
  8
0
 10
5269.438398661905012
 20
-24.4115211817448987
 30
0.0
 11
5269.4633986619055577
 21
-24.4115211817448987
 31
0.0
  0
LINE
  5
23129
  8
0
 10
5269.4633986619055577
 20
-24.4115211817448987
 30
0.0
 11
5269.4633986619055577
 21
-24.3915211817449098
 31
0.0
  0
LINE
  5
2312A
  8
0
 10
5269.4333986619058123
 20
-24.3915211817449098
 30
0.0
 11
5269.4083986619052666
 21
-24.3915211817449098
 31
0.0
  0
LINE
  5
2312B
  8
0
 10
5269.4083986619052666
 20
-24.3915211817449098
 30
0.0
 11
5269.4083986619052666
 21
-24.410464184675881
 31
0.0
  0
LINE
  5
2312C
  8
0
 10
5269.4098332142975778
 20
-24.4115211817448987
 30
0.0
 11
5269.4333986619058123
 21
-24.4115211817448987
 31
0.0
  0
LINE
  5
2312D
  8
0
 10
5269.4333986619058123
 20
-24.4115211817448987
 30
0.0
 11
5269.4333986619058123
 21
-24.3915211817449098
 31
0.0
  0
LINE
  5
2312E
  8
0
 10
5269.4033986619051575
 20
-24.3915211817449098
 30
0.0
 11
5269.3860748278148094
 21
-24.3915211817449098
 31
0.0
  0
LINE
  5
2312F
  8
0
 10
5269.4033986619051575
 20
-24.4066406562395386
 30
0.0
 11
5269.4033986619051575
 21
-24.3915211817449098
 31
0.0
  0
LINE
  5
23130
  8
0
 10
5269.6698382276053962
 20
-24.4165211817449084
 30
0.0
 11
5269.6483986619050484
 21
-24.4165211817449084
 31
0.0
  0
LINE
  5
23131
  8
0
 10
5269.6483986619050484
 20
-24.4165211817449084
 30
0.0
 11
5269.6483986619050484
 21
-24.429298858325911
 31
0.0
  0
LINE
  5
23132
  8
0
 10
5269.6433986619058487
 20
-24.4165211817449084
 30
0.0
 11
5269.618398661905303
 21
-24.4165211817449084
 31
0.0
  0
LINE
  5
23133
  8
0
 10
5269.618398661905303
 20
-24.4165211817449084
 30
0.0
 11
5269.618398661905303
 21
-24.4365211817449115
 31
0.0
  0
LINE
  5
23134
  8
0
 10
5269.618398661905303
 20
-24.4365211817449115
 30
0.0
 11
5269.6332646944320004
 21
-24.4365211817449115
 31
0.0
  0
LINE
  5
23135
  8
0
 10
5269.6433986619058487
 20
-24.4318382014535089
 30
0.0
 11
5269.6433986619058487
 21
-24.4165211817449084
 31
0.0
  0
LINE
  5
23136
  8
0
 10
5269.6133986619051939
 20
-24.4165211817449084
 30
0.0
 11
5269.5883986619046482
 21
-24.4165211817449084
 31
0.0
  0
LINE
  5
23137
  8
0
 10
5269.5883986619046482
 20
-24.4165211817449084
 30
0.0
 11
5269.5883986619046482
 21
-24.4365211817449115
 31
0.0
  0
LINE
  5
23138
  8
0
 10
5269.5883986619046482
 20
-24.4365211817449115
 30
0.0
 11
5269.6133986619051939
 21
-24.4365211817449115
 31
0.0
  0
LINE
  5
23139
  8
0
 10
5269.6133986619051939
 20
-24.4365211817449115
 30
0.0
 11
5269.6133986619051939
 21
-24.4165211817449084
 31
0.0
  0
LINE
  5
2313A
  8
0
 10
5269.583398661906358
 20
-24.4165211817449084
 30
0.0
 11
5269.5583986619058123
 21
-24.4165211817449084
 31
0.0
  0
LINE
  5
2313B
  8
0
 10
5269.5583986619058123
 20
-24.4165211817449084
 30
0.0
 11
5269.5583986619058123
 21
-24.4365211817449115
 31
0.0
  0
LINE
  5
2313C
  8
0
 10
5269.5583986619058123
 20
-24.4365211817449115
 30
0.0
 11
5269.583398661906358
 21
-24.4365211817449115
 31
0.0
  0
LINE
  5
2313D
  8
0
 10
5269.583398661906358
 20
-24.4365211817449115
 30
0.0
 11
5269.583398661906358
 21
-24.4165211817449084
 31
0.0
  0
LINE
  5
2313E
  8
0
 10
5269.5533986619057032
 20
-24.4165211817449084
 30
0.0
 11
5269.5283986619051575
 21
-24.4165211817449084
 31
0.0
  0
LINE
  5
2313F
  8
0
 10
5269.5283986619051575
 20
-24.4165211817449084
 30
0.0
 11
5269.5283986619051575
 21
-24.4365211817449115
 31
0.0
  0
LINE
  5
23140
  8
0
 10
5269.5283986619051575
 20
-24.4365211817449115
 30
0.0
 11
5269.5533986619057032
 21
-24.4365211817449115
 31
0.0
  0
LINE
  5
23141
  8
0
 10
5269.5533986619057032
 20
-24.4365211817449115
 30
0.0
 11
5269.5533986619057032
 21
-24.4165211817449084
 31
0.0
  0
LINE
  5
23142
  8
0
 10
5269.5233986619050484
 20
-24.4165211817449084
 30
0.0
 11
5269.4983986619054122
 21
-24.4165211817449084
 31
0.0
  0
LINE
  5
23143
  8
0
 10
5269.4983986619054122
 20
-24.4165211817449084
 30
0.0
 11
5269.4983986619054122
 21
-24.4365211817449115
 31
0.0
  0
LINE
  5
23144
  8
0
 10
5269.4983986619054122
 20
-24.4365211817449115
 30
0.0
 11
5269.5233986619050484
 21
-24.4365211817449115
 31
0.0
  0
LINE
  5
23145
  8
0
 10
5269.5233986619050484
 20
-24.4365211817449115
 30
0.0
 11
5269.5233986619050484
 21
-24.4165211817449084
 31
0.0
  0
LINE
  5
23146
  8
0
 10
5269.493398661905303
 20
-24.4165211817449084
 30
0.0
 11
5269.4683986619047573
 21
-24.4165211817449084
 31
0.0
  0
LINE
  5
23147
  8
0
 10
5269.4683986619047573
 20
-24.4165211817449084
 30
0.0
 11
5269.4683986619047573
 21
-24.4365211817449115
 31
0.0
  0
LINE
  5
23148
  8
0
 10
5269.4683986619047573
 20
-24.4365211817449115
 30
0.0
 11
5269.493398661905303
 21
-24.4365211817449115
 31
0.0
  0
LINE
  5
23149
  8
0
 10
5269.493398661905303
 20
-24.4365211817449115
 30
0.0
 11
5269.493398661905303
 21
-24.4165211817449084
 31
0.0
  0
LINE
  5
2314A
  8
0
 10
5269.4633986619055577
 20
-24.4165211817449084
 30
0.0
 11
5269.438398661905012
 21
-24.4165211817449084
 31
0.0
  0
LINE
  5
2314B
  8
0
 10
5269.438398661905012
 20
-24.4165211817449084
 30
0.0
 11
5269.438398661905012
 21
-24.4292988583782602
 31
0.0
  0
LINE
  5
2314C
  8
0
 10
5269.453532629278925
 20
-24.4365211817449115
 30
0.0
 11
5269.4633986619055577
 21
-24.4365211817449115
 31
0.0
  0
LINE
  5
2314D
  8
0
 10
5269.4633986619055577
 20
-24.4365211817449115
 30
0.0
 11
5269.4633986619055577
 21
-24.4165211817449084
 31
0.0
  0
LINE
  5
2314E
  8
0
 10
5269.4333986619058123
 20
-24.4165211817449084
 30
0.0
 11
5269.4169590961046197
 21
-24.4165211817449084
 31
0.0
  0
LINE
  5
2314F
  8
0
 10
5269.4333986619058123
 20
-24.4266006337967596
 30
0.0
 11
5269.4333986619058123
 21
-24.4165211817449084
 31
0.0
  0
LINE
  5
23150
  8
0
 10
5269.6206847460944118
 20
-24.4415211817448998
 30
0.0
 11
5269.618398661905303
 21
-24.4415211817448998
 31
0.0
  0
LINE
  5
23151
  8
0
 10
5269.618398661905303
 20
-24.4415211817448998
 30
0.0
 11
5269.618398661905303
 21
-24.4423377007383387
 31
0.0
  0
LINE
  5
23152
  8
0
 10
5269.6133986619051939
 20
-24.4415211817448998
 30
0.0
 11
5269.5883986619046482
 21
-24.4415211817448998
 31
0.0
  0
LINE
  5
23153
  8
0
 10
5269.5883986619046482
 20
-24.4415211817448998
 30
0.0
 11
5269.5883986619046482
 21
-24.4506049480740799
 31
0.0
  0
LINE
  5
23154
  8
0
 10
5269.6133986619051939
 20
-24.444028164077519
 30
0.0
 11
5269.6133986619051939
 21
-24.4415211817449105
 31
0.0
  0
LINE
  5
23155
  8
0
 10
5269.583398661906358
 20
-24.4415211817448998
 30
0.0
 11
5269.5583986619058123
 21
-24.4415211817448998
 31
0.0
  0
LINE
  5
23156
  8
0
 10
5269.5583986619058123
 20
-24.4415211817448998
 30
0.0
 11
5269.5583986619058123
 21
-24.4546251319469405
 31
0.0
  0
LINE
  5
23157
  8
0
 10
5269.583398661906358
 20
-24.4515606995203285
 30
0.0
 11
5269.583398661906358
 21
-24.4415211817449105
 31
0.0
  0
LINE
  5
23158
  8
0
 10
5269.5533986619057032
 20
-24.4415211817448998
 30
0.0
 11
5269.5283986619051575
 21
-24.4415211817448998
 31
0.0
  0
LINE
  5
23159
  8
0
 10
5269.5283986619051575
 20
-24.4415211817448998
 30
0.0
 11
5269.5283986619051575
 21
-24.4546251319535806
 31
0.0
  0
LINE
  5
2315A
  8
0
 10
5269.5533986619057032
 20
-24.4549016577246583
 30
0.0
 11
5269.5533986619057032
 21
-24.4415211817449105
 31
0.0
  0
LINE
  5
2315B
  8
0
 10
5269.5233986619050484
 20
-24.4415211817448998
 30
0.0
 11
5269.4983986619054122
 21
-24.4415211817448998
 31
0.0
  0
LINE
  5
2315C
  8
0
 10
5269.4983986619054122
 20
-24.4415211817448998
 30
0.0
 11
5269.4983986619054122
 21
-24.4506049480943588
 31
0.0
  0
LINE
  5
2315D
  8
0
 10
5269.5233986619050484
 20
-24.4542374261658892
 30
0.0
 11
5269.5233986619050484
 21
-24.4415211817449105
 31
0.0
  0
LINE
  5
2315E
  8
0
 10
5269.493398661905303
 20
-24.4415211817448998
 30
0.0
 11
5269.4683986619047573
 21
-24.4415211817448998
 31
0.0
  0
LINE
  5
2315F
  8
0
 10
5269.4683986619047573
 20
-24.4415211817448998
 30
0.0
 11
5269.4683986619047573
 21
-24.4423377007734501
 31
0.0
  0
LINE
  5
23160
  8
0
 10
5269.493398661905303
 20
-24.4495318593251802
 30
0.0
 11
5269.493398661905303
 21
-24.4415211817449105
 31
0.0
  0
LINE
  5
23161
  8
0
 10
5269.5883986619046482
 20
-24.0068844166157298
 30
0.0
 11
5269.5883986619046482
 21
-24.0115211817449108
 31
0.0
  0
LINE
  5
23162
  8
0
 10
5269.5883986619046482
 20
-24.0115211817449108
 30
0.0
 11
5269.6071240751616642
 21
-24.0115211817449108
 31
0.0
  0
LINE
  5
23163
  8
0
 10
5269.5583986619058123
 20
-24.0028642327428692
 30
0.0
 11
5269.5583986619058123
 21
-24.0115211817449108
 31
0.0
  0
LINE
  5
23164
  8
0
 10
5269.5583986619058123
 20
-24.0115211817449108
 30
0.0
 11
5269.583398661906358
 21
-24.0115211817449108
 31
0.0
  0
LINE
  5
23165
  8
0
 10
5269.583398661906358
 20
-24.0115211817449108
 30
0.0
 11
5269.583398661906358
 21
-24.0059286651694812
 31
0.0
  0
LINE
  5
23166
  8
0
 10
5269.5283986619051575
 20
-24.0028642327362292
 30
0.0
 11
5269.5283986619051575
 21
-24.0115211817449108
 31
0.0
  0
LINE
  5
23167
  8
0
 10
5269.5283986619051575
 20
-24.0115211817449108
 30
0.0
 11
5269.5533986619057032
 21
-24.0115211817449108
 31
0.0
  0
LINE
  5
23168
  8
0
 10
5269.5533986619057032
 20
-24.0115211817449108
 30
0.0
 11
5269.5533986619057032
 21
-24.0025877069651514
 31
0.0
  0
LINE
  5
23169
  8
0
 10
5269.4983986619054122
 20
-24.0068844165954509
 30
0.0
 11
5269.4983986619054122
 21
-24.0115211817449108
 31
0.0
  0
LINE
  5
2316A
  8
0
 10
5269.4983986619054122
 20
-24.0115211817449108
 30
0.0
 11
5269.5233986619050484
 21
-24.0115211817449108
 31
0.0
  0
LINE
  5
2316B
  8
0
 10
5269.5233986619050484
 20
-24.0115211817449108
 30
0.0
 11
5269.5233986619050484
 21
-24.0032519385239098
 31
0.0
  0
LINE
  5
2316C
  8
0
 10
5269.4796732485492612
 20
-24.0115211817449108
 30
0.0
 11
5269.493398661905303
 21
-24.0115211817449108
 31
0.0
  0
LINE
  5
2316D
  8
0
 10
5269.493398661905303
 20
-24.0115211817449108
 30
0.0
 11
5269.493398661905303
 21
-24.0079575053646295
 31
0.0
  0
ARC
  5
2316E
  8
0
 10
5269.5433986618563722
 20
-24.2287446823448995
 30
0.0
 40
0.1181102362499988
 50
70.2043389708766483
 51
71.8343205036437524
  0
ARC
  5
2316F
  8
0
 10
5269.5433986618563722
 20
-24.2287446823448995
 30
0.0
 40
0.1181102362499988
 50
53.6535277828850781
 51
67.6043612601998234
  0
ARC
  5
23170
  8
0
 10
5269.5433986618563722
 20
-24.2287446823448995
 30
0.0
 40
0.1181102362499988
 50
34.6915990873487701
 51
47.6031409650046697
  0
ARC
  5
23171
  8
0
 10
5269.5433986618563722
 20
-24.2287446823448995
 30
0.0
 40
0.1181102362499988
 50
20.9462695288828016
 51
27.2521448864887184
  0
ARC
  5
23172
  8
0
 10
5269.5433986618563722
 20
-24.2287446823448995
 30
0.0
 40
0.1181102362499988
 50
8.3850929944061114
 51
18.3704110321523117
  0
ARC
  5
23173
  8
0
 10
5269.5433986618563722
 20
-24.2287446823448995
 30
0.0
 40
0.1181102362499988
 50
356.2248560382656137
 51
5.9403087519644471
  0
ARC
  5
23174
  8
0
 10
5269.5433986618563722
 20
-24.2287446823448995
 30
0.0
 40
0.1181102362499988
 50
343.888487690697616
 51
353.7899138127947936
  0
ARC
  5
23175
  8
0
 10
5269.5433986618563722
 20
-24.2287446823448995
 30
0.0
 40
0.1181102362499988
 50
332.7478551135113207
 51
341.3466887819674866
  0
ARC
  5
23176
  8
0
 10
5269.5433986618563722
 20
-24.2287446823448995
 30
0.0
 40
0.1181102362499988
 50
315.505481193556875
 51
327.8509475967646267
  0
ARC
  5
23177
  8
0
 10
5269.5433986618563722
 20
-24.2287446823448995
 30
0.0
 40
0.1181102362499988
 50
309.4199844866959097
 51
311.9974708596226947
  0
ARC
  5
23178
  8
0
 10
5269.5433986618563722
 20
-24.2287446823448995
 30
0.0
 40
0.1181102362499988
 50
294.1457702460251085
 51
306.3464722171149219
  0
ARC
  5
23179
  8
0
 10
5269.5433986618563722
 20
-24.2287446823448995
 30
0.0
 40
0.1181102362499988
 50
277.2962679876541756
 51
287.284535520152815
  0
ARC
  5
2317A
  8
0
 10
5269.5433986618563722
 20
-24.2287446823448995
 30
0.0
 40
0.1181102362499988
 50
262.7037320612564031
 51
274.8568572029204233
  0
ARC
  5
2317B
  8
0
 10
5269.5433986618563722
 20
-24.2287446823448995
 30
0.0
 40
0.1181102362499988
 50
252.7154644798472134
 51
260.2509401065225916
  0
ARC
  5
2317C
  8
0
 10
5269.5433986618563722
 20
-24.2287446823448995
 30
0.0
 40
0.1181102362499988
 50
230.5800155761025962
 51
244.954785671706702
  0
ARC
  5
2317D
  8
0
 10
5269.5433986618563722
 20
-24.2287446823448995
 30
0.0
 40
0.1181102362499988
 50
212.1073803981034871
 51
224.4945188064430965
  0
ARC
  5
2317E
  8
0
 10
5269.5433986618563722
 20
-24.2287446823448995
 30
0.0
 40
0.1181102362499988
 50
207.2521449924288106
 51
209.2863291857736101
  0
ARC
  5
2317F
  8
0
 10
5269.5433986618563722
 20
-24.2287446823448995
 30
0.0
 40
0.1181102362499988
 50
198.6533112180325134
 51
201.3563797861106082
  0
ARC
  5
23180
  8
0
 10
5269.5433986618563722
 20
-24.2287446823448995
 30
0.0
 40
0.1181102362499988
 50
186.2100861872052917
 51
196.1115123093024124
  0
ARC
  5
23181
  8
0
 10
5269.5433986618563722
 20
-24.2287446823448995
 30
0.0
 40
0.1181102362499988
 50
174.0596912480355911
 51
183.7751439617343863
  0
ARC
  5
23182
  8
0
 10
5269.5433986618563722
 20
-24.2287446823448995
 30
0.0
 40
0.1181102362499988
 50
161.6295889678476954
 51
171.6149070055938921
  0
ARC
  5
23183
  8
0
 10
5269.5433986618563722
 20
-24.2287446823448995
 30
0.0
 40
0.1181102362499988
 50
158.6436202138893066
 51
159.0537304711172055
  0
ARC
  5
23184
  8
0
 10
5269.5433986618563722
 20
-24.2287446823448995
 30
0.0
 40
0.1181102362499988
 50
148.2087741725086971
 51
152.7478550075711041
  0
ARC
  5
23185
  8
0
 10
5269.5433986618563722
 20
-24.2287446823448995
 30
0.0
 40
0.1181102362499988
 50
132.6356100648048937
 51
145.3084009126511944
  0
ARC
  5
23186
  8
0
 10
5269.5433986618563722
 20
-24.2287446823448995
 30
0.0
 40
0.1181102362499988
 50
115.0452143282931985
 51
128.6637676614193992
  0
ARC
  5
23187
  8
0
 10
5269.5433986618563722
 20
-24.2287446823448995
 30
0.0
 40
0.1181102362499988
 50
108.1656794963562049
 51
112.3956386873285993
  0
ARC
  5
23188
  8
0
 10
5269.5433986618563722
 20
-24.2287446823448995
 30
0.0
 40
0.1181102362499988
 50
85.1431427970796193
 51
97.0252702097246669
  0
ARC
  5
23189
  8
0
 10
5269.5433986618563722
 20
-24.2287446823448995
 30
0.0
 40
0.151574803149999
 50
74.698630546961283
 51
84.3206543497007175
  0
ARC
  5
2318A
  8
0
 10
5269.5433986618563722
 20
-24.2287446823448995
 30
0.0
 40
0.151574803149999
 50
69.7689388894328175
 51
72.7295082648717823
  0
ARC
  5
2318B
  8
0
 10
5269.5433986618563722
 20
-24.2287446823448995
 30
0.0
 40
0.151574803149999
 50
62.4955061581339706
 51
64.8662380543645298
  0
ARC
  5
2318C
  8
0
 10
5269.5433986618563722
 20
-24.2287446823448995
 30
0.0
 40
0.151574803149999
 50
50.6575406859024966
 51
60.3430944943209084
  0
ARC
  5
2318D
  8
0
 10
5269.5433986618563722
 20
-24.2287446823448995
 30
0.0
 40
0.151574803149999
 50
37.4764697018764181
 51
46.1536142106830169
  0
ARC
  5
2318E
  8
0
 10
5269.5433986618563722
 20
-24.2287446823448995
 30
0.0
 40
0.151574803149999
 50
30.9448850962717792
 51
35.1310504383854294
  0
ARC
  5
2318F
  8
0
 10
5269.5433986618563722
 20
-24.2287446823448995
 30
0.0
 40
0.151574803149999
 50
26.3274408737987997
 51
27.0450422304912301
  0
ARC
  5
23190
  8
0
 10
5269.5433986618563722
 20
-24.2287446823448995
 30
0.0
 40
0.151574803149999
 50
16.1746038878702407
 51
24.2370951738274414
  0
ARC
  5
23191
  8
0
 10
5269.5433986618563722
 20
-24.2287446823448995
 30
0.0
 40
0.151574803149999
 50
6.5246330565000461
 51
14.21601909231868
  0
ARC
  5
23192
  8
0
 10
5269.5433986618563722
 20
-24.2287446823448995
 30
0.0
 40
0.151574803149999
 50
357.0591662797410208
 51
4.6255467259700227
  0
ARC
  5
23193
  8
0
 10
5269.5433986618563722
 20
-24.2287446823448995
 30
0.0
 40
0.151574803149999
 50
347.5117284071894233
 51
355.1647033095734969
  0
ARC
  5
23194
  8
0
 10
5269.5433986618563722
 20
-24.2287446823448995
 30
0.0
 40
0.151574803149999
 50
337.5935268417841826
 51
345.5682385425085954
  0
ARC
  5
23195
  8
0
 10
5269.5433986618563722
 20
-24.2287446823448995
 30
0.0
 40
0.151574803149999
 50
332.9549577695087805
 51
335.5334553462890881
  0
ARC
  5
23196
  8
0
 10
5269.5433986618563722
 20
-24.2287446823448995
 30
0.0
 40
0.151574803149999
 50
326.899457548647888
 51
329.0551149037282244
  0
ARC
  5
23197
  8
0
 10
5269.5433986618563722
 20
-24.2287446823448995
 30
0.0
 40
0.151574803149999
 50
314.680000371149788
 51
324.6129512031874924
  0
ARC
  5
23198
  8
0
 10
5269.5433986618563722
 20
-24.2287446823448995
 30
0.0
 40
0.151574803149999
 50
299.6569055056791058
 51
311.2800665570463252
  0
ARC
  5
23199
  8
0
 10
5269.5433986618563722
 20
-24.2287446823448995
 30
0.0
 40
0.151574803149999
 50
287.2704917351281892
 51
294.6370085316759173
  0
ARC
  5
2319A
  8
0
 10
5269.5433986618563722
 20
-24.2287446823448995
 30
0.0
 40
0.151574803149999
 50
275.6793456502992967
 51
285.301369453038717
  0
ARC
  5
2319B
  8
0
 10
5269.5433986618563722
 20
-24.2287446823448995
 30
0.0
 40
0.151574803149999
 50
264.3206543877190029
 51
273.7827807941429228
  0
ARC
  5
2319C
  8
0
 10
5269.5433986618563722
 20
-24.2287446823448995
 30
0.0
 40
0.151574803149999
 50
252.729508304437303
 51
262.4178226991547263
  0
ARC
  5
2319D
  8
0
 10
5269.5433986618563722
 20
-24.2287446823448995
 30
0.0
 40
0.151574803149999
 50
245.3629914683241111
 51
250.7391069244602875
  0
ARC
  5
2319E
  8
0
 10
5269.5433986618563722
 20
-24.2287446823448995
 30
0.0
 40
0.151574803149999
 50
240.3430945378464969
 51
241.1611739338453901
  0
ARC
  5
2319F
  8
0
 10
5269.5433986618563722
 20
-24.2287446823448995
 30
0.0
 40
0.151574803149999
 50
228.0760197380161003
 51
238.1435958049401904
  0
ARC
  5
231A0
  8
0
 10
5269.5433986618563722
 20
-24.2287446823448995
 30
0.0
 40
0.151574803149999
 50
215.3870487968125929
 51
223.4716995714989025
  0
ARC
  5
231A1
  8
0
 10
5269.5433986618563722
 20
-24.2287446823448995
 30
0.0
 40
0.151574803149999
 50
207.0450423136144877
 51
213.1005424513519984
  0
ARC
  5
231A2
  8
0
 10
5269.5433986618563722
 20
-24.2287446823448995
 30
0.0
 40
0.151574803149999
 50
194.4317614574912909
 51
202.406473158215789
  0
ARC
  5
231A3
  8
0
 10
5269.5433986618563722
 20
-24.2287446823448995
 30
0.0
 40
0.151574803149999
 50
184.8352966904265031
 51
192.4882715928106052
  0
ARC
  5
231A4
  8
0
 10
5269.5433986618563722
 20
-24.2287446823448995
 30
0.0
 40
0.151574803149999
 50
175.3744532740300031
 51
182.9408337202590928
  0
ARC
  5
231A5
  8
0
 10
5269.5433986618563722
 20
-24.2287446823448995
 30
0.0
 40
0.151574803149999
 50
165.7839809076812969
 51
173.4753669435000063
  0
ARC
  5
231A6
  8
0
 10
5269.5433986618563722
 20
-24.2287446823448995
 30
0.0
 40
0.151574803149999
 50
157.4636203225911117
 51
163.8253961121297095
  0
ARC
  5
231A7
  8
0
 10
5269.5433986618563722
 20
-24.2287446823448995
 30
0.0
 40
0.151574803149999
 50
144.8689495616146132
 51
152.9549576863853986
  0
ARC
  5
231A8
  8
0
 10
5269.5433986618563722
 20
-24.2287446823448995
 30
0.0
 40
0.151574803149999
 50
136.5283004285008985
 51
142.5235302981234895
  0
ARC
  5
231A9
  8
0
 10
5269.5433986618563722
 20
-24.2287446823448995
 30
0.0
 40
0.151574803149999
 50
132.235896115714894
 51
133.8463857369187053
  0
ARC
  5
231AA
  8
0
 10
5269.5433986618563722
 20
-24.2287446823448995
 30
0.0
 40
0.151574803149999
 50
121.8564041950597954
 51
129.3424593140975105
  0
ARC
  5
231AB
  8
0
 10
5269.5433986618563722
 20
-24.2287446823448995
 30
0.0
 40
0.151574803149999
 50
115.1337619456353991
 51
119.6569054621534036
  0
ARC
  5
231AC
  8
0
 10
5269.5433986618563722
 20
-24.2287446823448995
 30
0.0
 40
0.151574803149999
 50
109.2608930755396983
 51
110.2310611105670972
  0
ARC
  5
231AD
  8
0
 10
5269.5433986618563722
 20
-24.2287446823448995
 30
0.0
 40
0.151574803149999
 50
97.5821773008453448
 51
107.270491695562697
  0
ARC
  5
231AE
  8
0
 10
5269.5433986618563722
 20
-24.2287446823448995
 30
0.0
 40
0.151574803149999
 50
86.217219205857063
 51
95.6793456122809687
  0
ENDSEC
  0
EOF
