  0
SECTION
  2
HEADER
  9
$ACADVER
  1
AC1009
  9
$INSBASE
 10
4450.1902737364025597
 20
232.3100758731958138
 30
0.0
  9
$EXTMIN
 10
4443.3606519563345501
 20
230.84655533498821
 30
-0.0000000349181948
  9
$EXTMAX
 10
4450.4772895652913576
 20
234.7678273806776019
 30
0.0000000814935746
  9
$LIMMIN
 10
0.0
 20
0.0
  9
$LIMMAX
 10
11.6929133858000007
 20
8.2677165353999982
  9
$ORTHOMODE
 70
     0
  9
$REGENMODE
 70
     1
  9
$FILLMODE
 70
     1
  9
$QTEXTMODE
 70
     0
  9
$MIRRTEXT
 70
     0
  9
$DRAGMODE
 70
     2
  9
$LTSCALE
 40
0.6431102362
  9
$OSMODE
 70
  4095
  9
$ATTMODE
 70
     1
  9
$TEXTSIZE
 40
0.2
  9
$TRACEWID
 40
0.05
  9
$TEXTSTYLE
  7
STANDARD
  9
$CLAYER
  8
0
  9
$CELTYPE
  6
BYLAYER
  9
$CECOLOR
 62
   256
  9
$DIMSCALE
 40
1.0
  9
$DIMASZ
 40
0.1875
  9
$DIMEXO
 40
0.0625
  9
$DIMDLI
 40
0.4443307087
  9
$DIMRND
 40
0.0
  9
$DIMDLE
 40
0.0
  9
$DIMEXE
 40
0.125
  9
$DIMTP
 40
0.01
  9
$DIMTM
 40
0.01
  9
$DIMTXT
 40
2.0
  9
$DIMCEN
 40
0.1052362205
  9
$DIMTSZ
 40
0.0
  9
$DIMTOL
 70
     1
  9
$DIMLIM
 70
     0
  9
$DIMTIH
 70
     1
  9
$DIMTOH
 70
     1
  9
$DIMSE1
 70
     0
  9
$DIMSE2
 70
     0
  9
$DIMTAD
 70
     0
  9
$DIMZIN
 70
     0
  9
$DIMBLK
  1

  9
$DIMASO
 70
     1
  9
$DIMSHO
 70
     1
  9
$DIMPOST
  1
\X
  9
$DIMAPOST
  1

  9
$DIMALT
 70
     1
  9
$DIMALTD
 70
     2
  9
$DIMALTF
 40
25.3999999999999986
  9
$DIMLFAC
 40
1.0
  9
$DIMTOFL
 70
     0
  9
$DIMTVP
 40
0.0
  9
$DIMTIX
 70
     0
  9
$DIMSOXD
 70
     0
  9
$DIMSAH
 70
     0
  9
$DIMBLK1
  1

  9
$DIMBLK2
  1

  9
$DIMSTYLE
  2
STANDARD
  9
$DIMCLRD
 70
     0
  9
$DIMCLRE
 70
     0
  9
$DIMCLRT
 70
     0
  9
$DIMTFAC
 40
1.0
  9
$DIMGAP
 40
0.09
  9
$LUNITS
 70
     2
  9
$LUPREC
 70
     4
  9
$SKETCHINC
 40
0.1
  9
$FILLETRAD
 40
0.0
  9
$AUNITS
 70
     0
  9
$AUPREC
 70
     0
  9
$MENU
  1
.
  9
$ELEVATION
 40
0.0
  9
$PELEVATION
 40
0.0
  9
$THICKNESS
 40
0.0
  9
$LIMCHECK
 70
     0
  9
$BLIPMODE
 70
     0
  9
$CHAMFERA
 40
0.0
  9
$CHAMFERB
 40
0.0
  9
$SKPOLY
 70
     0
  9
$TDCREATE
 40
2458060.468368056230247
  9
$TDUPDATE
 40
2459060.4629861111752689
  9
$TDINDWG
 40
0.3131204861
  9
$TDUSRTIMER
 40
0.3131204861
  9
$USRTIMER
 70
     1
  9
$ANGBASE
 50
0.0
  9
$ANGDIR
 70
     0
  9
$PDMODE
 70
     0
  9
$PDSIZE
 40
0.3125
  9
$PLINEWID
 40
0.0
  9
$COORDS
 70
     1
  9
$SPLFRAME
 70
     0
  9
$SPLINETYPE
 70
     6
  9
$SPLINESEGS
 70
     8
  9
$ATTDIA
 70
     1
  9
$ATTREQ
 70
     1
  9
$HANDLING
 70
     1
  9
$HANDSEED
  5
7B32
  9
$SURFTAB1
 70
     6
  9
$SURFTAB2
 70
     6
  9
$SURFTYPE
 70
     6
  9
$SURFU
 70
     6
  9
$SURFV
 70
     6
  9
$UCSNAME
  2

  9
$UCSORG
 10
0.0
 20
0.0
 30
0.0
  9
$UCSXDIR
 10
1.0
 20
0.0
 30
0.0
  9
$UCSYDIR
 10
0.0
 20
1.0
 30
0.0
  9
$PUCSNAME
  2

  9
$PUCSORG
 10
0.0
 20
0.0
 30
0.0
  9
$PUCSXDIR
 10
1.0
 20
0.0
 30
0.0
  9
$PUCSYDIR
 10
0.0
 20
1.0
 30
0.0
  9
$USERI1
 70
     0
  9
$USERI2
 70
     0
  9
$USERI3
 70
     0
  9
$USERI4
 70
     0
  9
$USERI5
 70
     0
  9
$USERR1
 40
0.0
  9
$USERR2
 40
0.0
  9
$USERR3
 40
0.0
  9
$USERR4
 40
0.0
  9
$USERR5
 40
0.0
  9
$WORLDVIEW
 70
     1
  9
$SHADEDGE
 70
     3
  9
$SHADEDIF
 70
    70
  9
$TILEMODE
 70
     1
  9
$MAXACTVP
 70
    64
  9
$PLIMCHECK
 70
     0
  9
$PEXTMIN
 10
1.0000000000000000E+20
 20
1.0000000000000000E+20
 30
1.0000000000000000E+20
  9
$PEXTMAX
 10
-1.0000000000000000E+20
 20
-1.0000000000000000E+20
 30
-1.0000000000000000E+20
  9
$PLIMMIN
 10
0.0
 20
0.0
  9
$PLIMMAX
 10
12.0
 20
9.0
  9
$UNITMODE
 70
     0
  9
$VISRETAIN
 70
     1
  9
$PLINEGEN
 70
     0
  9
$PSLTSCALE
 70
     1
  0
ENDSEC
  0
SECTION
  2
TABLES
  0
TABLE
  2
VPORT
 70
     1
  0
VPORT
  2
*ACTIVE
 70
     0
 10
0.0
 20
0.0
 11
1.0
 21
1.0
 12
20.1037852139379503
 22
-10.1786759631861496
 13
0.0
 23
0.0
 14
1.0
 24
1.0
 15
0.0
 25
0.0
 16
0.0
 26
0.0
 36
23.8070816795251083
 17
4426.815185546875
 27
242.9858673210191
 37
0.0
 40
3.9458311607981211
 41
2.005224660397074
 42
50.0
 43
0.0
 44
0.0
 50
0.0
 51
0.0
 71
     0
 72
   100
 73
     1
 74
     1
 75
     0
 76
     0
 77
     0
 78
     0
  0
ENDTAB
  0
TABLE
  2
LTYPE
 70
     2
  0
LTYPE
  2
CONTINUOUS
 70
     0
  3
Solid line
 72
    65
 73
     0
 40
0.0
  0
LTYPE
  2
PHANTOM2
 70
     0
  3
___ _ _ ___ _ _ ___ _ _ ___ _ _
 72
    65
 73
     6
 40
1.25
 49
0.625
 49
-0.125
 49
0.125
 49
-0.125
 49
0.125
 49
-0.125
  0
ENDTAB
  0
TABLE
  2
LAYER
 70
     2
  0
LAYER
  2
0
 70
     0
 62
   255
  6
CONTINUOUS
  0
LAYER
  2
DEFPOINTS
 70
     0
 62
     7
  6
CONTINUOUS
  0
ENDTAB
  0
TABLE
  2
STYLE
 70
     1
  0
STYLE
  2
STANDARD
 70
     0
 40
0.0
 41
0.8
 50
0.0
 71
     0
 42
0.2
  3
txt
  4

  0
ENDTAB
  0
TABLE
  2
VIEW
 70
     0
  0
ENDTAB
  0
TABLE
  2
UCS
 70
     0
  0
ENDTAB
  0
TABLE
  2
APPID
 70
     9
  0
APPID
  2
ACAD
 70
     0
  0
APPID
  2
ACAD_MLEADERVER
 70
     0
  0
APPID
  2
ACAD_EXEMPT_FROM_CAD_STANDARDS
 70
     0
  0
APPID
  2
ACAD_NAV_VCDISPLAY
 70
     0
  0
APPID
  2
ACAECLAYERSTANDARD
 70
     0
  0
APPID
  2
ACCMTRANSPARENCY
 70
     0
  0
APPID
  2
ACAD_DSTYLE_DIMJAG
 70
     0
  0
APPID
  2
ACAD_DSTYLE_DIMTALN
 70
     0
  0
APPID
  2
ACDBATTR
 70
     0
  0
ENDTAB
  0
TABLE
  2
DIMSTYLE
 70
     1
  0
DIMSTYLE
  2
STANDARD
 70
     0
  3

  4

  5

  6

  7

 40
1.0
 41
0.1875
 42
0.0625
 43
0.38
 44
0.125
 45
0.0
 46
0.0
 47
0.01
 48
0.01
140
0.15625
141
0.09
142
0.0
143
25.3999999999999986
144
1.0
145
0.0
146
1.0
147
0.09
 71
     1
 72
     0
 73
     1
 74
     1
 75
     0
 76
     0
 77
     0
 78
     4
170
     0
171
     2
172
     0
173
     0
174
     0
175
     0
176
     0
177
     0
178
     0
  0
ENDTAB
  0
ENDSEC
  0
SECTION
  2
BLOCKS
  0
BLOCK
  8
0
  2
$MODEL_SPACE
 70
     0
 10
0.0
 20
0.0
 30
0.0
  3
$MODEL_SPACE
  1

  0
ENDBLK
  5
21
  8
0
  0
BLOCK
 67
     1
  8
0
  2
$PAPER_SPACE
 70
     0
 10
0.0
 20
0.0
 30
0.0
  3
$PAPER_SPACE
  1

  0
ENDBLK
  5
1D
 67
     1
  8
0
  0
ENDSEC
  0
SECTION
  2
ENTITIES
  0
ATTDEF
  5
3930
  8
DEFPOINTS
 10
4450.1945337022680178
 20
232.3096591455922066
 30
0.0
 40
0.001
  1
K-11631T
  3

  2
MODELNUMBER
 70
     0
1001
ACDBATTR
1070
     0
1070
     1
  0
ATTDEF
  5
3931
  8
DEFPOINTS
 10
4450.1945337022680178
 20
232.3079924789255983
 30
0.0
 40
0.001
  1
MEMOIRS
  3

  2
TRADENAME
 70
     0
1001
ACDBATTR
1070
     0
1070
     1
  0
ATTDEF
  5
3932
  8
DEFPOINTS
 10
4450.1945337022680178
 20
232.3063258122589048
 30
0.0
 40
0.001
  1
BATH SPOUT
  3

  2
PRODUCT
 70
     0
1001
ACDBATTR
1070
     0
1070
     1
  0
LINE
  5
7A68
  8
0
 10
4443.7101485421108009
 20
232.0291184832213958
 30
0.0
 11
4444.8027911629133087
 21
231.5413315989679859
 31
0.0
  0
LINE
  5
7A69
  8
0
 10
4447.7333548253027402
 20
231.5145983072210072
 30
0.0
 11
4448.5589039857632088
 21
231.5145983072210072
 31
0.0
  0
LINE
  5
7A6A
  8
0
 10
4448.5623449827717195
 20
233.4362370310996937
 30
0.0
 11
4448.6771732745946792
 21
233.4426544846008085
 31
0.0
  0
LINE
  5
7A6B
  8
0
 10
4448.1079950124030802
 20
233.4657006694210111
 30
0.0
 11
4448.7525524604043312
 21
233.4657006694210111
 31
0.0
  0
LINE
  5
7A6C
  8
0
 10
4447.6738044832036394
 20
231.5672861466210009
 30
0.0
 11
4447.6645742403034092
 21
231.6424604421210063
 31
0.0
  0
LINE
  5
7A6D
  8
0
 10
4447.7807737364028071
 20
234.5220064498211059
 30
0.0
 11
4447.7807737364028071
 21
234.4905006694557983
 31
0.0
  0
LINE
  5
7A6E
  8
0
 10
4448.305273736403251
 20
233.4657006694210111
 30
0.0
 11
4448.305273736403251
 21
233.4218701264587139
 31
0.0
  0
LINE
  5
7A6F
  8
0
 10
4448.555273736403251
 20
233.4657006694210111
 30
0.0
 11
4448.555273736403251
 21
233.4358418375977919
 31
0.0
  0
LINE
  5
7A70
  8
0
 10
4449.0497418095274043
 20
234.5779919331210124
 30
0.0
 11
4447.8108056632809166
 21
234.5779919331210124
 31
0.0
  0
LINE
  5
7A71
  8
0
 10
4449.0797737364036948
 20
234.5220064498211059
 30
0.0
 11
4449.0797737364036948
 21
234.4905006694557983
 31
0.0
  0
LINE
  5
7A72
  8
0
 10
4450.1902737364025597
 20
230.9240887275012142
 30
0.0
 11
4450.1902737364025597
 21
233.6960630188904986
 31
0.0
  0
ARC
  5
7A73
  8
0
 10
4447.6989376361098039
 20
229.3384576264697898
 30
0.0
 40
2.3542312008665731
 50
66.97786000769716
 51
74.5659422797170066
  0
ARC
  5
7A74
  8
0
 10
4445.4108797655026137
 20
221.8271425901210137
 30
0.0
 40
10.1881137736999996
 50
62.5798209192149812
 51
68.8865144283106616
  0
ARC
  5
7A75
  8
0
 10
4445.8921682408035849
 20
223.566714184521004
 30
0.0
 40
8.4011764873000008
 50
73.1637400574049934
 51
74.687808250824375
  0
ARC
  5
7A76
  8
0
 10
4446.5465745064029761
 20
225.8542425252209966
 30
0.0
 40
6.0220991774000003
 50
74.9455417212955695
 51
76.8918244438993526
  0
ARC
  5
7A77
  8
0
 10
4443.6148640338033147
 20
233.3929771083209914
 30
0.0
 40
4.4800000000000004
 50
0.9678697691542261
 51
7.9022207657003181
  0
ARC
  5
7A78
  8
0
 10
4446.3882756124039588
 20
233.7779293340211098
 30
0.0
 40
1.679999999999999
 50
7.9022207657003181
 51
16.1100358472035516
  0
ARC
  5
7A79
  8
0
 10
4448.430273736403251
 20
233.6449006694209913
 30
0.0
 40
1.1200000000000001
 50
56.4202934275864934
 51
123.5797065724134995
  0
ARC
  5
7A7A
  8
0
 10
4447.637225347302774
 20
234.1386571531209881
 30
0.0
 40
0.38
 50
16.1100358472035516
 51
67.8050661658781735
  0
ARC
  5
7A7B
  8
0
 10
4447.4858773488022052
 20
231.6204883203209874
 30
0.0
 40
0.1800423756
 50
7.0097453800028591
 51
77.8426921209212992
  0
ARC
  5
7A7C
  8
0
 10
4447.8479737364032189
 20
234.5220064498211059
 30
0.0
 40
0.0672
 50
123.5797065724134995
 51
180.0
  0
ARC
  5
7A7D
  8
0
 10
4444.8275426294030694
 20
231.5960182276211015
 30
0.0
 40
0.0600271809
 50
245.6482330772381886
 51
335.1050671777559842
  0
ARC
  5
7A7E
  8
0
 10
4443.7345100000038656
 20
232.0839715318211063
 30
0.0
 40
0.0600194766
 50
166.756203898266989
 51
246.052929521992013
  0
ARC
  5
7A7F
  8
0
 10
4447.7333572523029943
 20
231.5745983072210095
 30
0.0
 40
0.06
 50
186.9999999999990905
 51
270.0
  0
ARC
  5
7A80
  8
0
 10
4448.1079950124030802
 20
233.4993006694209896
 30
0.0
 40
0.0336
 50
245.8060772630344104
 51
270.0
  0
ARC
  5
7A81
  8
0
 10
4453.2456834390031872
 20
233.3929771083209914
 30
0.0
 40
4.4800000000000004
 50
172.097779234299594
 51
179.0321302308458087
  0
ARC
  5
7A82
  8
0
 10
4450.4722718605044065
 20
233.7779293340211098
 30
0.0
 40
1.679999999999999
 50
163.8899641527964093
 51
172.097779234299594
  0
ARC
  5
7A83
  8
0
 10
4449.2233221255028184
 20
234.1386571531209881
 30
0.0
 40
0.38
 50
112.1949338341217981
 51
163.8899641527964093
  0
ARC
  5
7A84
  8
0
 10
4449.012573736403283
 20
234.5220064498211059
 30
0.0
 40
0.0672
 50
0.0
 51
56.4202934275864934
  0
ARC
  5
7A85
  8
0
 10
4450.1302717361031682
 20
230.9239033381209936
 30
0.0
 40
0.0600022867
 50
242.5681706157120061
 51
0.1770273523444704
  0
ARC
  5
7A86
  8
0
 10
4450.1302719410032296
 20
233.6962142165210139
 30
0.0
 40
0.0600019859
 50
359.8556215241725909
 51
111.0476038119011974
  0
ARC
  5
7A87
  8
0
 10
4448.7525524604043312
 20
233.4993006694209896
 30
0.0
 40
0.0336
 50
270.0
 51
294.1939227369655896
  0
LINE
  5
7A88
  8
0
 10
4445.5300882513020042
 20
233.2667687700208887
 30
0.0
 11
4448.2973734818888261
 21
233.4214285919385929
 31
0.0
  0
ARC
  5
7A89
  8
0
 10
4448.5629195950341455
 20
231.3398543558230926
 30
0.0
 40
0.1747900845814856
 50
71.0621507537194219
 51
91.3164231136797042
  0
ARC
  5
7A8A
  8
0
 10
4445.9547623564685637
 20
223.7384398259079887
 30
0.0
 40
8.2112063901670336
 50
67.6226744192128848
 51
71.0621507537194219
  0
ARC
  5
7A8B
  8
0
 10
4446.5782995410963849
 20
226.0117316362388067
 30
0.0
 40
5.861520621194507
 50
76.8447244619464556
 51
80.7171922784147853
  0
ARC
  5
7A8C
  8
0
 10
4445.518700720709603
 20
222.7003593980371932
 30
0.0
 40
9.3145080543288064
 50
77.5688016149360777
 51
89.5813157603603116
  0
ARC
  5
7A8D
  8
0
 10
4445.5818413641682127
 20
231.240984934634298
 30
0.0
 40
0.7736494974556793
 50
89.6353483914238325
 51
154.7704833091999888
  0
ARC
  5
7A8E
  8
0
 10
4445.1225559203521698
 20
231.7548450251524912
 30
0.0
 40
1.486552163200151
 50
93.3723033919550858
 51
166.6645218806552862
  0
ARC
  5
7A8F
  8
0
 10
4450.9648345044097368
 20
132.6085820919091987
 30
0.0
 40
100.8047965731852997
 50
93.0905183264239469
 51
93.3723033919550858
  0
ARC
  5
7A90
  8
0
 10
4448.4245561116631507
 20
238.075749079318598
 30
0.0
 40
4.6399763959110274
 50
273.1209333745579215
 51
291.2826304451975261
  0
ARC
  5
7A91
  8
0
 10
4448.1413537895587069
 20
238.5911405572535102
 30
0.0
 40
5.1720657332167228
 50
271.7286373886655042
 51
274.6688760638539861
  0
ARC
  5
7A92
  8
0
 10
4448.4965493135532597
 20
233.7368912433568937
 30
0.0
 40
0.4559213918235178
 50
207.7114459020262984
 51
212.8546665279264971
  0
ARC
  5
7A93
  8
0
 10
4448.1392933494489625
 20
233.5061727588490044
 30
0.0
 40
0.0306416686045381
 50
212.8546665279264971
 51
256.912484742675872
  0
ARC
  5
7A94
  8
0
 10
4448.2001302519202
 20
233.7678620660593936
 30
0.0
 40
0.2993095345849419
 50
256.912484742675872
 51
268.5225293796931965
  0
ARC
  5
7A95
  8
0
 10
4448.1975335938386706
 20
233.6671869199709022
 30
0.0
 40
0.198600906984651
 50
268.5225293796931965
 51
286.4270873356117022
  0
ARC
  5
7A96
  8
0
 10
4448.2446815345701907
 20
233.5072711242858077
 30
0.0
 40
0.0318796125295154
 50
286.4270873356121001
 51
326.227491030636827
  0
ARC
  5
7A97
  8
0
 10
4448.0813055482340133
 20
233.6165283312548979
 30
0.0
 40
0.2284218476500819
 50
326.227491030636827
 51
336.3450443254574225
  0
ARC
  5
7A98
  8
0
 10
4448.635355093934777
 20
233.771895566776692
 30
0.0
 40
0.4241674294814005
 50
215.6164189590103888
 51
221.7320605106145877
  0
ARC
  5
7A99
  8
0
 10
4448.3652151185706316
 20
233.5470044536471903
 30
0.0
 40
0.0738525914201337
 50
231.0750901084817031
 51
264.448709883261813
  0
ARC
  5
7A9A
  8
0
 10
4448.4241517672144255
 20
233.917773028655688
 30
0.0
 40
0.4491623121229538
 50
261.539917526781494
 51
270.7809512380752039
  0
ARC
  5
7A9B
  8
0
 10
4448.4435106973996881
 20
233.7731310048355056
 30
0.0
 40
0.3047661632056211
 50
267.5106795302779119
 51
285.6740476349939968
  0
ARC
  5
7A9C
  8
0
 10
4448.5115503672759587
 20
233.5204881047424976
 30
0.0
 40
0.0432233796541904
 50
289.3159241835116973
 51
314.2922225559967728
  0
ARC
  5
7A9D
  8
0
 10
4448.2257963784322783
 20
233.7713838289215005
 30
0.0
 40
0.4233760484289454
 50
318.2652114051546732
 51
324.3920552303412137
  0
ARC
  5
7A9E
  8
0
 10
4448.9241342171471842
 20
233.6959283695850047
 30
0.0
 40
0.393271000922506
 50
205.781460858220612
 51
211.6531372305607874
  0
ARC
  5
7A9F
  8
0
 10
4448.6209930912536947
 20
233.5137155018084911
 30
0.0
 40
0.0398029875000306
 50
217.3832957621891069
 51
255.649470750524614
  0
ARC
  5
7AA0
  8
0
 10
4448.6623784209323276
 20
233.6713284390964134
 30
0.0
 40
0.2027581212564224
 50
255.3586678640824061
 51
271.6268045635952149
  0
ARC
  5
7AA1
  8
0
 10
4448.6782123596512974
 20
233.6249219548905955
 30
0.0
 40
0.1565945327870976
 50
266.3101287523855945
 51
289.891139759101975
  0
ARC
  5
7AA2
  8
0
 10
4448.7188006409933223
 20
233.510287681561806
 30
0.0
 40
0.0349997130480049
 50
291.2593050669116792
 51
323.6633443953596156
  0
ARC
  5
7AA3
  8
0
 10
4448.3722513795282794
 20
233.731626211958087
 30
0.0
 40
0.446131950698952
 50
327.1383254373087084
 51
332.4035704816838006
  0
ARC
  5
7AA4
  8
0
 10
4448.0059674136027752
 20
233.8471589228097969
 30
0.0
 40
0.6433175112876947
 50
74.1453097127891141
 51
105.8546902872680988
  0
ARC
  5
7AA5
  8
0
 10
4448.430273736403251
 20
233.2173388336236997
 30
0.0
 40
1.27316183579729
 50
78.7421382070932907
 51
101.2578617929066951
  0
ARC
  5
7AA6
  8
0
 10
4448.8566229394200491
 20
233.8399657513315901
 30
0.0
 40
0.650795149651207
 50
74.3978276334648854
 51
105.8546902872109001
  0
ARC
  5
7AA7
  8
0
 10
4437.6029580480126242
 20
233.395773669799695
 30
0.0
 40
10.6883567240884894
 50
0.6920968867064758
 51
3.288518939354363
  0
ARC
  5
7AA8
  8
0
 10
4444.4021022040569733
 20
233.7864429131788029
 30
0.0
 40
3.8779981643358781
 50
3.288518939354363
 51
6.7774926593429043
  0
ARC
  5
7AA9
  8
0
 10
4447.648191075433715
 20
234.1722223538619119
 30
0.0
 40
0.6090658099225371
 50
6.7774926593429043
 51
28.8387694910998889
  0
ARC
  5
7AAA
  8
0
 10
4449.1579755852180824
 20
234.1896863030625013
 30
0.0
 40
0.5531136532716974
 50
150.0287030607910026
 51
174.3542080941492998
  0
ARC
  5
7AAB
  8
0
 10
4459.5995541151351063
 20
233.157454571593405
 30
0.0
 40
11.0455902219315405
 50
174.3542080941477082
 51
175.5789868758645014
  0
ARC
  5
7AAC
  8
0
 10
4454.2794173357297041
 20
233.5687780080668006
 30
0.0
 40
5.709576511214399
 50
175.5789715000042008
 51
180.4405305150235108
  0
ENDSEC
  0
EOF
