  0
SECTION
  2
HEADER
  9
$ACADVER
  1
AC1009
  9
$INSBASE
 10
3509.3407973333919472
 20
158.3123929814020983
 30
0.0
  9
$EXTMIN
 10
3505.6306485533900741
 20
153.6281867892747073
 30
-0.0000000000000058
  9
$EXTMAX
 10
3513.1352820619667909
 20
158.3269242425679124
 30
0.0000000000000104
  9
$LIMMIN
 10
0.0
 20
0.0
  9
$LIMMAX
 10
11.6929133858000007
 20
8.2677165353999982
  9
$ORTHOMODE
 70
     0
  9
$REGENMODE
 70
     1
  9
$FILLMODE
 70
     1
  9
$QTEXTMODE
 70
     0
  9
$MIRRTEXT
 70
     0
  9
$DRAGMODE
 70
     2
  9
$LTSCALE
 40
0.6431102362
  9
$OSMODE
 70
  3839
  9
$ATTMODE
 70
     1
  9
$TEXTSIZE
 40
0.2
  9
$TRACEWID
 40
0.05
  9
$TEXTSTYLE
  7
STANDARD
  9
$CLAYER
  8
0
  9
$CELTYPE
  6
BYLAYER
  9
$CECOLOR
 62
   256
  9
$DIMSCALE
 40
1.0
  9
$DIMASZ
 40
0.1875
  9
$DIMEXO
 40
0.0625
  9
$DIMDLI
 40
0.4443307087
  9
$DIMRND
 40
0.0
  9
$DIMDLE
 40
0.0
  9
$DIMEXE
 40
0.125
  9
$DIMTP
 40
0.01
  9
$DIMTM
 40
0.01
  9
$DIMTXT
 40
2.0
  9
$DIMCEN
 40
0.1052362205
  9
$DIMTSZ
 40
0.0
  9
$DIMTOL
 70
     1
  9
$DIMLIM
 70
     0
  9
$DIMTIH
 70
     1
  9
$DIMTOH
 70
     1
  9
$DIMSE1
 70
     0
  9
$DIMSE2
 70
     0
  9
$DIMTAD
 70
     0
  9
$DIMZIN
 70
     0
  9
$DIMBLK
  1

  9
$DIMASO
 70
     1
  9
$DIMSHO
 70
     1
  9
$DIMPOST
  1
\X
  9
$DIMAPOST
  1

  9
$DIMALT
 70
     1
  9
$DIMALTD
 70
     2
  9
$DIMALTF
 40
25.3999999999999986
  9
$DIMLFAC
 40
1.0
  9
$DIMTOFL
 70
     0
  9
$DIMTVP
 40
0.0
  9
$DIMTIX
 70
     0
  9
$DIMSOXD
 70
     0
  9
$DIMSAH
 70
     0
  9
$DIMBLK1
  1

  9
$DIMBLK2
  1

  9
$DIMSTYLE
  2
STANDARD
  9
$DIMCLRD
 70
     0
  9
$DIMCLRE
 70
     0
  9
$DIMCLRT
 70
     0
  9
$DIMTFAC
 40
1.0
  9
$DIMGAP
 40
0.09
  9
$LUNITS
 70
     2
  9
$LUPREC
 70
     4
  9
$SKETCHINC
 40
0.1
  9
$FILLETRAD
 40
0.0
  9
$AUNITS
 70
     0
  9
$AUPREC
 70
     0
  9
$MENU
  1
.
  9
$ELEVATION
 40
0.0
  9
$PELEVATION
 40
0.0
  9
$THICKNESS
 40
0.0
  9
$LIMCHECK
 70
     0
  9
$BLIPMODE
 70
     0
  9
$CHAMFERA
 40
0.0
  9
$CHAMFERB
 40
0.0
  9
$SKPOLY
 70
     0
  9
$TDCREATE
 40
2458060.468368056230247
  9
$TDUPDATE
 40
2459277.766875000204891
  9
$TDINDWG
 40
0.5833982639
  9
$TDUSRTIMER
 40
0.5833982639
  9
$USRTIMER
 70
     1
  9
$ANGBASE
 50
0.0
  9
$ANGDIR
 70
     0
  9
$PDMODE
 70
     0
  9
$PDSIZE
 40
0.3125
  9
$PLINEWID
 40
0.0
  9
$COORDS
 70
     1
  9
$SPLFRAME
 70
     0
  9
$SPLINETYPE
 70
     6
  9
$SPLINESEGS
 70
     8
  9
$ATTDIA
 70
     1
  9
$ATTREQ
 70
     1
  9
$HANDLING
 70
     1
  9
$HANDSEED
  5
13ECD
  9
$SURFTAB1
 70
     6
  9
$SURFTAB2
 70
     6
  9
$SURFTYPE
 70
     6
  9
$SURFU
 70
     6
  9
$SURFV
 70
     6
  9
$UCSNAME
  2

  9
$UCSORG
 10
0.0
 20
0.0
 30
0.0
  9
$UCSXDIR
 10
1.0
 20
0.0
 30
0.0
  9
$UCSYDIR
 10
0.0
 20
1.0
 30
0.0
  9
$PUCSNAME
  2

  9
$PUCSORG
 10
0.0
 20
0.0
 30
0.0
  9
$PUCSXDIR
 10
1.0
 20
0.0
 30
0.0
  9
$PUCSYDIR
 10
0.0
 20
1.0
 30
0.0
  9
$USERI1
 70
     0
  9
$USERI2
 70
     0
  9
$USERI3
 70
     0
  9
$USERI4
 70
     0
  9
$USERI5
 70
     0
  9
$USERR1
 40
0.0
  9
$USERR2
 40
0.0
  9
$USERR3
 40
0.0
  9
$USERR4
 40
0.0
  9
$USERR5
 40
0.0
  9
$WORLDVIEW
 70
     1
  9
$SHADEDGE
 70
     3
  9
$SHADEDIF
 70
    70
  9
$TILEMODE
 70
     1
  9
$MAXACTVP
 70
    64
  9
$PLIMCHECK
 70
     0
  9
$PEXTMIN
 10
1.0000000000000000E+20
 20
1.0000000000000000E+20
 30
1.0000000000000000E+20
  9
$PEXTMAX
 10
-1.0000000000000000E+20
 20
-1.0000000000000000E+20
 30
-1.0000000000000000E+20
  9
$PLIMMIN
 10
0.0
 20
0.0
  9
$PLIMMAX
 10
12.0
 20
9.0
  9
$UNITMODE
 70
     0
  9
$VISRETAIN
 70
     1
  9
$PLINEGEN
 70
     0
  9
$PSLTSCALE
 70
     1
  0
ENDSEC
  0
SECTION
  2
TABLES
  0
TABLE
  2
VPORT
 70
     1
  0
VPORT
  2
*ACTIVE
 70
     0
 10
0.0
 20
0.0
 11
1.0
 21
1.0
 12
-3.361907739196794
 22
-3.5983722184536751
 13
0.0
 23
0.0
 14
1.0
 24
1.0
 15
0.0
 25
0.0
 16
0.0
 26
0.0
 36
53.2784442757794494
 17
3512.744873046875
 27
159.575927734375
 37
0.0
 40
4.7452596062960222
 41
2.9735537190082639
 42
50.0
 43
0.0
 44
0.0
 50
0.0
 51
0.0
 71
     0
 72
   100
 73
     1
 74
     1
 75
     0
 76
     0
 77
     0
 78
     0
  0
ENDTAB
  0
TABLE
  2
LTYPE
 70
     2
  0
LTYPE
  2
CONTINUOUS
 70
     0
  3
Solid line
 72
    65
 73
     0
 40
0.0
  0
LTYPE
  2
PHANTOM2
 70
     0
  3
___ _ _ ___ _ _ ___ _ _ ___ _ _
 72
    65
 73
     6
 40
1.25
 49
0.625
 49
-0.125
 49
0.125
 49
-0.125
 49
0.125
 49
-0.125
  0
ENDTAB
  0
TABLE
  2
LAYER
 70
     2
  0
LAYER
  2
0
 70
     0
 62
   255
  6
CONTINUOUS
  0
LAYER
  2
DEFPOINTS
 70
     0
 62
     7
  6
CONTINUOUS
  0
ENDTAB
  0
TABLE
  2
STYLE
 70
     1
  0
STYLE
  2
STANDARD
 70
     0
 40
0.0
 41
0.8
 50
0.0
 71
     0
 42
0.2
  3
txt
  4

  0
ENDTAB
  0
TABLE
  2
VIEW
 70
     0
  0
ENDTAB
  0
TABLE
  2
UCS
 70
     0
  0
ENDTAB
  0
TABLE
  2
APPID
 70
     9
  0
APPID
  2
ACAD
 70
     0
  0
APPID
  2
ACAD_MLEADERVER
 70
     0
  0
APPID
  2
ACAD_EXEMPT_FROM_CAD_STANDARDS
 70
     0
  0
APPID
  2
ACAD_NAV_VCDISPLAY
 70
     0
  0
APPID
  2
ACAECLAYERSTANDARD
 70
     0
  0
APPID
  2
ACCMTRANSPARENCY
 70
     0
  0
APPID
  2
ACAD_DSTYLE_DIMJAG
 70
     0
  0
APPID
  2
ACAD_DSTYLE_DIMTALN
 70
     0
  0
APPID
  2
ACDBATTR
 70
     0
  0
ENDTAB
  0
TABLE
  2
DIMSTYLE
 70
     1
  0
DIMSTYLE
  2
STANDARD
 70
     0
  3

  4

  5

  6

  7

 40
1.0
 41
0.1875
 42
0.0625
 43
0.38
 44
0.125
 45
0.0
 46
0.0
 47
0.01
 48
0.01
140
0.15625
141
0.09
142
0.0
143
25.3999999999999986
144
1.0
145
0.0
146
1.0
147
0.09
 71
     1
 72
     0
 73
     1
 74
     1
 75
     0
 76
     0
 77
     0
 78
     4
170
     0
171
     2
172
     0
173
     0
174
     0
175
     0
176
     0
177
     0
178
     0
  0
ENDTAB
  0
ENDSEC
  0
SECTION
  2
BLOCKS
  0
BLOCK
  8
0
  2
$MODEL_SPACE
 70
     0
 10
0.0
 20
0.0
 30
0.0
  3
$MODEL_SPACE
  1

  0
ENDBLK
  5
21
  8
0
  0
BLOCK
 67
     1
  8
0
  2
$PAPER_SPACE
 70
     0
 10
0.0
 20
0.0
 30
0.0
  3
$PAPER_SPACE
  1

  0
ENDBLK
  5
1D
 67
     1
  8
0
  0
BLOCK
  8
0
  2
_FILLED
 70
     0
 10
0.0
 20
0.0
 30
0.0
  3
_FILLED
  1

  0
SOLID
  5
13356
  8
0
  6
BYBLOCK
 62
     0
 10
0.0
 20
0.0
 30
0.0
 11
-1.0
 21
0.1666666667
 31
0.0
 12
-1.0
 22
-0.1666666667
 32
0.0
 13
-1.0
 23
-0.1666666667
 33
0.0
  0
ENDBLK
  5
13357
  8
0
  6
BYBLOCK
 62
     0
  0
ENDSEC
  0
SECTION
  2
ENTITIES
  0
ATTDEF
  5
12BEB
  8
DEFPOINTS
 10
3509.3413255807117821
 20
158.3162505527110113
 30
0.0
 40
0.001
  1
K-11669T-4V
  3

  2
MODELNUMBER
 70
     0
1001
ACDBATTR
1070
     0
1070
     1
  0
ATTDEF
  5
12BEC
  8
DEFPOINTS
 10
3509.3413255807117821
 20
158.3145838860442893
 30
0.0
 40
0.001
  1
MEMOIRS
  3

  2
TRADENAME
 70
     0
1001
ACDBATTR
1070
     0
1070
     1
  0
ATTDEF
  5
12BED
  8
DEFPOINTS
 10
3509.3413255807117821
 20
158.3129172193775958
 30
0.0
 40
0.001
  1
VALVE TRIM
  3

  2
PRODUCT
 70
     0
1001
ACDBATTR
1070
     0
1070
     1
  0
LINE
  5
13CDF
  8
0
 10
3512.8841044199921271
 20
158.3123929814020983
 30
0.0
 11
3505.7974902467931315
 21
158.3123929814020983
 31
0.0
  0
LINE
  5
13CE0
  8
0
 10
3512.815870141304913
 20
158.2104662079021011
 30
0.0
 11
3505.8657245254798909
 21
158.2104662079021011
 31
0.0
  0
LINE
  5
13CE1
  8
0
 10
3512.740616117630907
 20
158.1346806224021009
 30
0.0
 11
3505.9409785491529874
 21
158.1346806224021009
 31
0.0
  0
LINE
  5
13CE2
  8
0
 10
3512.2317186330237746
 20
157.6937606959021139
 30
0.0
 11
3506.4498760337610292
 21
157.6937606959021139
 31
0.0
  0
LINE
  5
13CE3
  8
0
 10
3512.0118863911889093
 20
157.5856613930801871
 30
0.0
 11
3506.669708275594985
 21
157.5856613930801871
 31
0.0
  0
LINE
  5
13CE4
  8
0
 10
3510.5143788740351738
 20
157.4663772333020972
 30
0.0
 11
3508.1672157927491753
 21
157.4663772333020972
 31
0.0
  0
LINE
  5
13CE5
  8
0
 10
3510.5514268357292167
 20
157.5249782697634942
 30
0.0
 11
3508.1301678310560419
 21
157.5249782697634942
 31
0.0
  0
LINE
  5
13CE6
  8
0
 10
3510.3053642624918211
 20
156.4423140412640976
 30
0.0
 11
3510.3053642624918211
 21
156.4916739272676978
 31
0.0
  0
LINE
  5
13CE7
  8
0
 10
3510.3053642624918211
 20
156.5130843572499089
 30
0.0
 11
3510.3053642624918211
 21
157.4663772333020972
 31
0.0
  0
LINE
  5
13CE8
  8
0
 10
3510.2958386421009891
 20
156.5013693593020889
 30
0.0
 11
3508.3857560246838148
 21
156.5013693593020889
 31
0.0
  0
LINE
  5
13CE9
  8
0
 10
3509.7213951077701495
 20
154.7297158160021127
 30
0.0
 11
3508.9601995590151091
 21
154.7297158160021127
 31
0.0
  0
LINE
  5
13CEA
  8
0
 10
3509.7309196382921073
 20
154.711715816002112
 30
0.0
 11
3508.9506750284931513
 21
154.711715816002112
 31
0.0
  0
LINE
  5
13CEB
  8
0
 10
3512.8841044199921271
 20
158.3123929814020983
 30
0.0
 11
3512.883657634562951
 21
158.2997644667460975
 31
0.0
  0
ARC
  5
13CEC
  8
0
 10
3512.7893127756187823
 20
158.3010045788562934
 30
0.0
 40
0.0943530088933144
 50
286.3478472991616854
 51
359.2469213570050783
  0
ARC
  5
13CED
  8
0
 10
3512.8309641506571097
 20
158.1532889889230091
 30
0.0
 40
0.0591359745713105
 50
104.7879502381588992
 51
156.9716330356411902
  0
ARC
  5
13CEE
  8
0
 10
3512.6931958794020829
 20
158.2118222943776971
 30
0.0
 40
0.0905511818472849
 50
301.5812140287366105
 51
336.9869897413348099
  0
ARC
  5
13CEF
  8
0
 10
3513.5305663671351795
 20
156.84975642142021
 30
0.0
 40
1.508327417691236
 50
121.5824263014855973
 51
122.4557411751768967
  0
ARC
  5
13CF0
  8
0
 10
3513.5261864277858876
 20
156.8568276628425053
 30
0.0
 40
1.5000101778167081
 50
122.4595206519055068
 51
141.3973381679932118
  0
ARC
  5
13CF1
  8
0
 10
3514.73683657959009
 20
155.8906749331875972
 30
0.0
 40
3.0489210344160971
 50
141.4030462766318976
 51
142.8539255229999014
  0
ARC
  5
13CF2
  8
0
 10
3512.2287069601829899
 20
157.7923594397981901
 30
0.0
 40
0.0986447285524422
 50
271.7495406366040811
 51
322.0999475298356742
  0
ARC
  5
13CF3
  8
0
 10
3512.2143665628300369
 20
157.6040065220333872
 30
0.0
 40
0.0900677742506488
 50
94.7826356682483464
 51
151.1444845570227926
  0
ARC
  5
13CF4
  8
0
 10
3512.045111265370906
 20
157.6877614544158916
 30
0.0
 40
0.0989440705740094
 50
274.9757194227104264
 51
335.9722219465580224
  0
ARC
  5
13CF5
  8
0
 10
3510.5508129486279358
 20
175.1445201809378034
 30
0.0
 40
17.6195419218685707
 50
270.0019962572818031
 51
274.8930581218263001
  0
ARC
  5
13CF6
  8
0
 10
3510.5415847349931937
 20
157.5155898318020888
 30
0.0
 40
0.0098425196999997
 50
0.0
 51
72.528287397590816
  0
LINE
  5
13CF7
  8
0
 10
3510.5514272546920438
 20
157.5155898318020888
 30
0.0
 11
3510.5514272546920438
 21
157.5057473117020947
 31
0.0
  0
ARC
  5
13CF8
  8
0
 10
3510.5119844297878444
 20
157.5057473117020947
 30
0.0
 40
0.0394428249048842
 50
273.4803783833420994
 51
0.0000000000016284
  0
ARC
  5
13CF9
  8
0
 10
3510.2955116395828554
 20
156.4915209766199098
 30
0.0
 40
0.0098538100297225
 50
0.8893796918958135
 51
88.0982681106678172
  0
ARC
  5
13CFA
  8
0
 10
3510.2935200587248801
 20
156.5131948450024026
 30
0.0
 40
0.0118447190946516
 50
273.2655925726688224
 51
359.4655361894145926
  0
ARC
  5
13CFB
  8
0
 10
3512.2715662826421976
 20
155.1337485684063893
 30
0.0
 40
2.361841226838592
 50
146.3550628409826118
 51
158.4477622455380867
  0
ARC
  5
13CFC
  8
0
 10
3515.5689409376677759
 20
153.8314041444546092
 30
0.0
 40
5.907088836555717
 50
158.4477622455380867
 51
169.8793938462738993
  0
ARC
  5
13CFD
  8
0
 10
3510.1715035116149011
 20
154.728236345103511
 30
0.0
 40
0.4409448806882326
 50
161.3283336823330956
 51
178.5608060869066946
  0
ARC
  5
13CFE
  8
0
 10
3509.7208309631109842
 20
154.7395698387053073
 30
0.0
 40
0.0098701581868231
 50
273.2766175153461177
 51
358.4980390962896877
  0
ARC
  5
13CFF
  8
0
 10
3510.0312850849759343
 20
156.2150120441137915
 30
0.0
 40
0.2282687944855807
 50
28.5921461588930512
 51
96.3320541632705556
  0
ARC
  5
13D00
  8
0
 10
3510.061409426163209
 20
155.8694607744874077
 30
0.0
 40
0.5750924637129984
 50
95.5180184170508113
 51
127.6752129459241019
  0
ARC
  5
13D01
  8
0
 10
3520.0249445863792062
 20
154.1827990527179963
 30
0.0
 40
10.5350452088269098
 50
168.269633640400798
 51
175.6617533500325976
  0
ARC
  5
13D02
  8
0
 10
3510.7949118207247921
 20
155.9982842258330038
 30
0.0
 40
1.6317684331382369
 50
218.6243275202974985
 51
223.2647129090387068
  0
ARC
  5
13D03
  8
0
 10
3509.6336050651420919
 20
154.9090600781370881
 30
0.0
 40
0.0396850019690327
 50
227.2487271106361106
 51
307.0120236113622809
  0
ARC
  5
13D04
  8
0
 10
3508.9795282096188203
 20
155.750037426253499
 30
0.0
 40
1.10507235009127
 50
307.8433135684734907
 51
316.0583212287328934
  0
LINE
  5
13D05
  8
0
 10
3509.6507973333918926
 20
154.711715816002112
 30
0.0
 11
3509.6507973333918926
 21
154.7297158160021127
 31
0.0
  0
LINE
  5
13D06
  8
0
 10
3508.3762304042920732
 20
156.4423140412640976
 30
0.0
 11
3508.3762304042920732
 21
156.4916739272676978
 31
0.0
  0
LINE
  5
13D07
  8
0
 10
3508.3762304042920732
 20
156.5130843572499089
 30
0.0
 11
3508.3762304042920732
 21
157.4663772333020972
 31
0.0
  0
LINE
  5
13D08
  8
0
 10
3505.7974902467931315
 20
158.3123929814020983
 30
0.0
 11
3505.7979370322218529
 21
158.2997644667460975
 31
0.0
  0
ARC
  5
13D09
  8
0
 10
3505.8922818911660215
 20
158.3010045788562934
 30
0.0
 40
0.0943530088933144
 50
180.7530786429931879
 51
253.6521527008382861
  0
ARC
  5
13D0A
  8
0
 10
3505.8506305161281489
 20
158.1532889889230091
 30
0.0
 40
0.0591359745713105
 50
23.0283669643587707
 51
75.2120497618411434
  0
ARC
  5
13D0B
  8
0
 10
3505.9883987873818114
 20
158.2118222943776971
 30
0.0
 40
0.0905511818472849
 50
203.0130102586653038
 51
238.4187859712633042
  0
ARC
  5
13D0C
  8
0
 10
3505.1510282996500791
 20
156.84975642142021
 30
0.0
 40
1.508327417691236
 50
57.5442588248231175
 51
58.4175736985143601
  0
ARC
  5
13D0D
  8
0
 10
3505.1554082389989162
 20
156.8568276628425053
 30
0.0
 40
1.5000101778167081
 50
38.6026618320068309
 51
57.5404793480945074
  0
ARC
  5
13D0E
  8
0
 10
3503.9447580871951686
 20
155.8906749331875972
 30
0.0
 40
3.0489210344160971
 50
37.1460744770000915
 51
38.5969537233681024
  0
ARC
  5
13D0F
  8
0
 10
3506.4528877066009045
 20
157.7923594397981901
 30
0.0
 40
0.0986447285524422
 50
217.900052470164411
 51
268.2504593633959189
  0
ARC
  5
13D10
  8
0
 10
3506.4672281039538575
 20
157.6040065220333872
 30
0.0
 40
0.0900677742506488
 50
28.8555154429772109
 51
85.2173643317516678
  0
ARC
  5
13D11
  8
0
 10
3506.6364834014129883
 20
157.6877614544158916
 30
0.0
 40
0.0989440705740094
 50
204.027778053442006
 51
265.0242805772895736
  0
ARC
  5
13D12
  8
0
 10
3508.130781718156868
 20
175.1445201809378034
 30
0.0
 40
17.6195419218685707
 50
265.1069418781736999
 51
269.9980037427181969
  0
ARC
  5
13D13
  8
0
 10
3508.1400099317929744
 20
157.5155898318020888
 30
0.0
 40
0.0098425196999997
 50
107.4717126024091982
 51
180.0
  0
LINE
  5
13D14
  8
0
 10
3508.1301674120932148
 20
157.5155898318020888
 30
0.0
 11
3508.1301674120932148
 21
157.5057473117020947
 31
0.0
  0
ARC
  5
13D15
  8
0
 10
3508.1696102369969594
 20
157.5057473117020947
 30
0.0
 40
0.0394428249048842
 50
179.9999999999984084
 51
266.5196216166579006
  0
ARC
  5
13D16
  8
0
 10
3508.3860830272028579
 20
156.4915209766199098
 30
0.0
 40
0.0098538100297225
 50
91.9017318893321828
 51
179.1106203081041883
  0
ARC
  5
13D17
  8
0
 10
3508.3880746080599238
 20
156.5131948450024026
 30
0.0
 40
0.0118447190946516
 50
180.5344638105854074
 51
266.7344074273311776
  0
ARC
  5
13D18
  8
0
 10
3506.4100283841439705
 20
155.1337485684063893
 30
0.0
 40
2.361841226838592
 50
21.5522377544618884
 51
33.6449371590173385
  0
ARC
  5
13D19
  8
0
 10
3503.112653729117028
 20
153.8314041444546092
 30
0.0
 40
5.907088836555717
 50
10.1206061537261505
 51
21.5522377544618884
  0
ARC
  5
13D1A
  8
0
 10
3508.5100911551699028
 20
154.728236345103511
 30
0.0
 40
0.4409448806882326
 50
1.439193913093278
 51
18.6716663176669293
  0
ARC
  5
13D1B
  8
0
 10
3508.9607637036751839
 20
154.7395698387053073
 30
0.0
 40
0.0098701581868231
 50
181.5019609037103123
 51
266.7233824846538823
  0
ARC
  5
13D1C
  8
0
 10
3508.6503095818088696
 20
156.2150120441137915
 30
0.0
 40
0.2282687944855807
 50
83.6679458367294444
 51
151.4078538411069133
  0
ARC
  5
13D1D
  8
0
 10
3508.6201852406220496
 20
155.8694607744874077
 30
0.0
 40
0.5750924637129984
 50
52.3247870540759408
 51
84.4819815829491887
  0
ARC
  5
13D1E
  8
0
 10
3498.6566500804051429
 20
154.1827990527179963
 30
0.0
 40
10.5350452088269098
 50
4.3382466499673562
 51
11.7303663595991505
  0
ARC
  5
13D1F
  8
0
 10
3507.8866828460591023
 20
155.9982842258330038
 30
0.0
 40
1.6317684331382369
 50
316.7352870909613216
 51
321.3756724797024731
  0
ARC
  5
13D20
  8
0
 10
3509.0479896016431667
 20
154.9090600781370881
 30
0.0
 40
0.0396850019690327
 50
232.9879763886376907
 51
312.7512728893639178
  0
ARC
  5
13D21
  8
0
 10
3509.7020664571650741
 20
155.750037426253499
 30
0.0
 40
1.10507235009127
 50
223.941678771266993
 51
232.1566864315263956
  0
LINE
  5
13D22
  8
0
 10
3509.0307973333920017
 20
154.711715816002112
 30
0.0
 11
3509.0307973333920017
 21
154.7297158160021127
 31
0.0
  0
ARC
  5
13D23
  8
0
 10
3509.3407973333919472
 20
155.8045363893392903
 30
0.0
 40
0.6377774904056807
 50
54.6361531451016589
 51
125.3638468548761011
  0
ARC
  5
13D24
  8
0
 10
3510.1402249160391875
 20
156.2214672142710015
 30
0.0
 40
1.5810843191903601
 50
231.7558019060303991
 51
238.2557190348049119
  0
ARC
  5
13D25
  8
0
 10
3509.3406910944581796
 20
154.9427690384341076
 30
0.0
 40
0.073366273428227
 50
243.8618519620279983
 51
294.5175647894889721
  0
ARC
  5
13D26
  8
0
 10
3508.5704872127739691
 20
156.1848593883595129
 30
0.0
 40
1.534309163939376
 50
301.4550973635904825
 51
308.2364498238839019
  0
LINE
  5
13D28
  8
0
 10
3509.7309196382921073
 20
154.711715816002112
 30
0.0
 11
3509.7309259470930556
 21
154.4988000494020923
 31
0.0
  0
ARC
  5
13D29
  8
0
 10
3509.7109267700320743
 20
154.4987994568164993
 30
0.0
 40
0.0199991770695219
 50
297.1417221064764931
 51
0.0016977024270907
  0
ARC
  5
13D2A
  8
0
 10
3509.8061891353759165
 20
154.298142209363192
 30
0.0
 40
0.2021331713916556
 50
115.223422876432906
 51
174.0874851713504938
  0
LINE
  5
13D2B
  8
0
 10
3509.6051312435420186
 20
154.3189639073787873
 30
0.0
 11
3509.6051312435420186
 21
153.7990363305021049
 31
0.0
  0
ARC
  5
13D2C
  8
0
 10
3509.5831023868240663
 20
153.8008767998992141
 30
0.0
 40
0.0221056068880591
 50
278.8830533773452203
 51
355.2241374610574098
  0
LINE
  5
13D2D
  8
0
 10
3509.6714035913919361
 20
154.4487764555020988
 30
0.0
 11
3509.7262827616918912
 21
154.4487764555020988
 31
0.0
  0
ARC
  5
13D2E
  8
0
 10
3509.7263779990139483
 20
154.4290197738754102
 30
0.0
 40
0.0197569111716233
 50
0.6558028686696411
 51
90.276192857725988
  0
LINE
  5
13D2F
  8
0
 10
3509.7461336160331484
 20
154.4292459049488002
 30
0.0
 11
3509.7461336160331484
 21
153.6563414366839879
 31
0.0
  0
ARC
  5
13D30
  8
0
 10
3509.7265554084601717
 20
153.6576210656340038
 30
0.0
 40
0.0196199811932417
 50
269.1372033874167755
 51
356.2604746653304915
  0
ARC
  5
13D31
  8
0
 10
3509.4806757213368655
 20
154.3342747573886982
 30
0.0
 40
0.1494474651018301
 50
18.6367593320330798
 51
76.0911075920405153
  0
LINE
  5
13D32
  8
0
 10
3508.9506750284931513
 20
154.711715816002112
 30
0.0
 11
3508.950668719692203
 21
154.4988000494020923
 31
0.0
  0
ARC
  5
13D33
  8
0
 10
3508.9706678967531843
 20
154.4987994568164993
 30
0.0
 40
0.0199991770695219
 50
179.9983022975729057
 51
242.8582778935235069
  0
ARC
  5
13D34
  8
0
 10
3508.8754055314088873
 20
154.298142209363192
 30
0.0
 40
0.2021331713916556
 50
5.912514828649523
 51
64.7765771235671082
  0
LINE
  5
13D35
  8
0
 10
3509.0764634232418757
 20
154.3189639073787873
 30
0.0
 11
3509.0764634232418757
 21
153.7990363305021049
 31
0.0
  0
ARC
  5
13D36
  8
0
 10
3509.098492279959828
 20
153.8008767998992141
 30
0.0
 40
0.0221056068880591
 50
184.7758625389425049
 51
261.1169466226547797
  0
LINE
  5
13D37
  8
0
 10
3509.0101910753919583
 20
154.4487764555020988
 30
0.0
 11
3508.9553119050920031
 21
154.4487764555020988
 31
0.0
  0
ARC
  5
13D38
  8
0
 10
3508.9552166677699461
 20
154.4290197738754102
 30
0.0
 40
0.0197569111716233
 50
89.7238071422740262
 51
179.3441971313303043
  0
LINE
  5
13D39
  8
0
 10
3508.9354610507512007
 20
154.4292459049488002
 30
0.0
 11
3508.9354610507512007
 21
153.6563414366839879
 31
0.0
  0
ARC
  5
13D3A
  8
0
 10
3508.9550392583241774
 20
153.6576210656340038
 30
0.0
 40
0.0196199811932417
 50
183.7395253346695085
 51
270.8627966125832245
  0
ARC
  5
13D3B
  8
0
 10
3509.2009189454479383
 20
154.3342747573886982
 30
0.0
 40
0.1494474651018301
 50
103.9088924079594989
 51
161.3632406679668918
  0
ARC
  5
13D3C
  8
0
 10
3509.3407973333919472
 20
153.8740916274327901
 30
0.0
 40
0.6302637797391083
 50
73.8033714421213034
 51
106.1966285578786966
  0
LINE
  5
13D3D
  8
0
 10
3508.9553346974239503
 20
153.6380033089384938
 30
0.0
 11
3509.7262599693599441
 21
153.6380033089384938
 31
0.0
  0
LINE
  5
13D3E
  8
0
 10
3509.0950787726778799
 20
153.7790363369020952
 30
0.0
 11
3509.5865158941060145
 21
153.7790363369020952
 31
0.0
  0
ENDSEC
  0
EOF
