  0
SECTION
  2
HEADER
  9
$ACADVER
  1
AC1009
  9
$INSBASE
 10
4513.6507497547709136
 20
274.8404770729480902
 30
0.0
  9
$EXTMIN
 10
4510.3194925967100062
 20
270.4666890629114846
 30
-0.0000000000112498
  9
$EXTMAX
 10
4516.880906416678954
 20
274.8491440389099125
 30
0.0000000000002956
  9
$LIMMIN
 10
0.0
 20
0.0
  9
$LIMMAX
 10
11.6929133858000007
 20
8.2677165353999982
  9
$ORTHOMODE
 70
     0
  9
$REGENMODE
 70
     1
  9
$FILLMODE
 70
     1
  9
$QTEXTMODE
 70
     0
  9
$MIRRTEXT
 70
     0
  9
$DRAGMODE
 70
     2
  9
$LTSCALE
 40
0.6431102362
  9
$OSMODE
 70
   695
  9
$ATTMODE
 70
     1
  9
$TEXTSIZE
 40
0.2
  9
$TRACEWID
 40
0.05
  9
$TEXTSTYLE
  7
STANDARD
  9
$CLAYER
  8
0
  9
$CELTYPE
  6
BYLAYER
  9
$CECOLOR
 62
   256
  9
$DIMSCALE
 40
1.0
  9
$DIMASZ
 40
0.1875
  9
$DIMEXO
 40
0.0625
  9
$DIMDLI
 40
0.4443307087
  9
$DIMRND
 40
0.0
  9
$DIMDLE
 40
0.0
  9
$DIMEXE
 40
0.125
  9
$DIMTP
 40
0.01
  9
$DIMTM
 40
0.01
  9
$DIMTXT
 40
2.0
  9
$DIMCEN
 40
0.1052362205
  9
$DIMTSZ
 40
0.0
  9
$DIMTOL
 70
     1
  9
$DIMLIM
 70
     0
  9
$DIMTIH
 70
     1
  9
$DIMTOH
 70
     1
  9
$DIMSE1
 70
     0
  9
$DIMSE2
 70
     0
  9
$DIMTAD
 70
     0
  9
$DIMZIN
 70
     0
  9
$DIMBLK
  1

  9
$DIMASO
 70
     1
  9
$DIMSHO
 70
     1
  9
$DIMPOST
  1
\X
  9
$DIMAPOST
  1

  9
$DIMALT
 70
     1
  9
$DIMALTD
 70
     2
  9
$DIMALTF
 40
25.3999999999999986
  9
$DIMLFAC
 40
1.0
  9
$DIMTOFL
 70
     0
  9
$DIMTVP
 40
0.0
  9
$DIMTIX
 70
     0
  9
$DIMSOXD
 70
     0
  9
$DIMSAH
 70
     0
  9
$DIMBLK1
  1

  9
$DIMBLK2
  1

  9
$DIMSTYLE
  2
STANDARD
  9
$DIMCLRD
 70
     0
  9
$DIMCLRE
 70
     0
  9
$DIMCLRT
 70
     0
  9
$DIMTFAC
 40
1.0
  9
$DIMGAP
 40
0.09
  9
$LUNITS
 70
     2
  9
$LUPREC
 70
     4
  9
$SKETCHINC
 40
0.1
  9
$FILLETRAD
 40
0.0
  9
$AUNITS
 70
     0
  9
$AUPREC
 70
     0
  9
$MENU
  1
.
  9
$ELEVATION
 40
0.0
  9
$PELEVATION
 40
0.0
  9
$THICKNESS
 40
0.0
  9
$LIMCHECK
 70
     0
  9
$BLIPMODE
 70
     0
  9
$CHAMFERA
 40
0.0
  9
$CHAMFERB
 40
0.0
  9
$SKPOLY
 70
     0
  9
$TDCREATE
 40
2458060.468368056230247
  9
$TDUPDATE
 40
2459345.7444328698329628
  9
$TDINDWG
 40
0.5291737269
  9
$TDUSRTIMER
 40
0.5291737269
  9
$USRTIMER
 70
     1
  9
$ANGBASE
 50
0.0
  9
$ANGDIR
 70
     0
  9
$PDMODE
 70
     0
  9
$PDSIZE
 40
0.3125
  9
$PLINEWID
 40
0.0
  9
$COORDS
 70
     1
  9
$SPLFRAME
 70
     0
  9
$SPLINETYPE
 70
     6
  9
$SPLINESEGS
 70
     8
  9
$ATTDIA
 70
     1
  9
$ATTREQ
 70
     1
  9
$HANDLING
 70
     1
  9
$HANDSEED
  5
214EE
  9
$SURFTAB1
 70
     6
  9
$SURFTAB2
 70
     6
  9
$SURFTYPE
 70
     6
  9
$SURFU
 70
     6
  9
$SURFV
 70
     6
  9
$UCSNAME
  2

  9
$UCSORG
 10
0.0
 20
0.0
 30
0.0
  9
$UCSXDIR
 10
1.0
 20
0.0
 30
0.0
  9
$UCSYDIR
 10
0.0
 20
1.0
 30
0.0
  9
$PUCSNAME
  2

  9
$PUCSORG
 10
0.0
 20
0.0
 30
0.0
  9
$PUCSXDIR
 10
1.0
 20
0.0
 30
0.0
  9
$PUCSYDIR
 10
0.0
 20
1.0
 30
0.0
  9
$USERI1
 70
     0
  9
$USERI2
 70
     0
  9
$USERI3
 70
     0
  9
$USERI4
 70
     0
  9
$USERI5
 70
     0
  9
$USERR1
 40
0.0
  9
$USERR2
 40
0.0
  9
$USERR3
 40
0.0
  9
$USERR4
 40
0.0
  9
$USERR5
 40
0.0
  9
$WORLDVIEW
 70
     1
  9
$SHADEDGE
 70
     3
  9
$SHADEDIF
 70
    70
  9
$TILEMODE
 70
     1
  9
$MAXACTVP
 70
    64
  9
$PLIMCHECK
 70
     0
  9
$PEXTMIN
 10
1.0000000000000000E+20
 20
1.0000000000000000E+20
 30
1.0000000000000000E+20
  9
$PEXTMAX
 10
-1.0000000000000000E+20
 20
-1.0000000000000000E+20
 30
-1.0000000000000000E+20
  9
$PLIMMIN
 10
0.0
 20
0.0
  9
$PLIMMAX
 10
12.0
 20
9.0
  9
$UNITMODE
 70
     0
  9
$VISRETAIN
 70
     1
  9
$PLINEGEN
 70
     0
  9
$PSLTSCALE
 70
     1
  0
ENDSEC
  0
SECTION
  2
TABLES
  0
TABLE
  2
VPORT
 70
     1
  0
VPORT
  2
*ACTIVE
 70
     0
 10
0.0
 20
0.0
 11
1.0
 21
1.0
 12
602.2348430136858042
 22
140.0783114454640099
 13
0.0
 23
0.0
 14
1.0
 24
1.0
 15
0.0
 25
0.0
 16
0.0
 26
0.0
 36
60.4960186965801583
 17
3911.3653564453120453
 27
132.5796051025390057
 37
0.0
 40
5.9287755361255394
 41
2.512
 42
50.0
 43
0.0
 44
0.0
 50
0.0
 51
0.0
 71
     0
 72
   100
 73
     1
 74
     1
 75
     0
 76
     0
 77
     0
 78
     0
  0
ENDTAB
  0
TABLE
  2
LTYPE
 70
     2
  0
LTYPE
  2
CONTINUOUS
 70
     0
  3
Solid line
 72
    65
 73
     0
 40
0.0
  0
LTYPE
  2
PHANTOM2
 70
     0
  3
___ _ _ ___ _ _ ___ _ _ ___ _ _
 72
    65
 73
     6
 40
1.25
 49
0.625
 49
-0.125
 49
0.125
 49
-0.125
 49
0.125
 49
-0.125
  0
ENDTAB
  0
TABLE
  2
LAYER
 70
     2
  0
LAYER
  2
0
 70
     0
 62
   255
  6
CONTINUOUS
  0
LAYER
  2
DEFPOINTS
 70
     0
 62
     7
  6
CONTINUOUS
  0
ENDTAB
  0
TABLE
  2
STYLE
 70
     1
  0
STYLE
  2
STANDARD
 70
     0
 40
0.0
 41
0.8
 50
0.0
 71
     0
 42
0.2
  3
txt
  4

  0
ENDTAB
  0
TABLE
  2
VIEW
 70
     0
  0
ENDTAB
  0
TABLE
  2
UCS
 70
     0
  0
ENDTAB
  0
TABLE
  2
APPID
 70
    11
  0
APPID
  2
ACAD
 70
     0
  0
APPID
  2
ACAD_MLEADERVER
 70
     0
  0
APPID
  2
ACAD_EXEMPT_FROM_CAD_STANDARDS
 70
     0
  0
APPID
  2
ACAD_NAV_VCDISPLAY
 70
     0
  0
APPID
  2
ACAECLAYERSTANDARD
 70
     0
  0
APPID
  2
ACCMTRANSPARENCY
 70
     0
  0
APPID
  2
ACAD_DSTYLE_DIMJAG
 70
     0
  0
APPID
  2
ACAD_DSTYLE_DIMTALN
 70
     0
  0
APPID
  2
ACDBATTR
 70
     0
  0
APPID
  2
ACADANNOTATIVE
 70
     0
  0
APPID
  2
DCO15
 70
     0
  0
ENDTAB
  0
TABLE
  2
DIMSTYLE
 70
     1
  0
DIMSTYLE
  2
STANDARD
 70
     0
  3

  4

  5

  6

  7

 40
1.0
 41
0.1875
 42
0.0625
 43
0.38
 44
0.125
 45
0.0
 46
0.0
 47
0.01
 48
0.01
140
0.15625
141
0.09
142
0.0
143
25.3999999999999986
144
1.0
145
0.0
146
1.0
147
0.09
 71
     1
 72
     0
 73
     1
 74
     1
 75
     0
 76
     0
 77
     0
 78
     4
170
     0
171
     2
172
     0
173
     0
174
     0
175
     0
176
     0
177
     0
178
     0
  0
ENDTAB
  0
ENDSEC
  0
SECTION
  2
BLOCKS
  0
BLOCK
  8
0
  2
$MODEL_SPACE
 70
     0
 10
0.0
 20
0.0
 30
0.0
  3
$MODEL_SPACE
  1

  0
ENDBLK
  5
21
  8
0
  0
BLOCK
 67
     1
  8
0
  2
$PAPER_SPACE
 70
     0
 10
0.0
 20
0.0
 30
0.0
  3
$PAPER_SPACE
  1

  0
ENDBLK
  5
1D
 67
     1
  8
0
  0
ENDSEC
  0
SECTION
  2
ENTITIES
  0
ATTDEF
  5
20106
  8
DEFPOINTS
 10
4513.6507046319429719
 20
274.8438888290817204
 30
0.0
 40
0.001
  1
K-11698T-B4
  3

  2
MODELNUMBER
 70
     0
1001
ACDBATTR
1070
     0
1070
     1
  0
ATTDEF
  5
20107
  8
DEFPOINTS
 10
4513.6505788222848423
 20
274.8422219887024767
 30
0.0
 40
0.001
  1
FAIRFAX
  3

  2
TRADENAME
 70
     0
1001
ACDBATTR
1070
     0
1070
     1
  0
ATTDEF
  5
20108
  8
DEFPOINTS
 10
4513.6507046319429719
 20
274.8405554957482764
 30
0.0
 40
0.001
  1
SHOWER TRIM
  3

  2
PRODUCT
 70
     0
1001
ACDBATTR
1070
     0
1070
     1
  0
LINE
  5
212B6
  8
0
 10
4513.6127057121711914
 20
270.4670451452482212
 30
0.0
 11
4513.6887945016705999
 21
270.4670444222481933
 31
0.0
  0
LINE
  5
212B7
  8
0
 10
4514.2059350496710977
 20
271.1296485391482065
 30
0.0
 11
4513.0955644597715946
 21
271.1296485391482065
 31
0.0
  0
LINE
  5
212B8
  8
0
 10
4513.0956316444708136
 20
271.1347666494481814
 30
0.0
 11
4514.2058678649709691
 21
271.1347666494481814
 31
0.0
  0
LINE
  5
212B9
  8
0
 10
4514.2058872358338704
 20
271.1741367281481985
 30
0.0
 11
4513.0956122734005476
 21
271.1741367281481985
 31
0.0
  0
LINE
  5
212BA
  8
0
 10
4511.7806710145714533
 20
273.8404770729482038
 30
0.0
 11
4511.7806710145714533
 21
273.8247290414482222
 31
0.0
  0
LINE
  5
212BB
  8
0
 10
4512.9632585167710204
 20
271.4584691989481939
 30
0.0
 11
4514.3382409927708068
 21
271.4584691989481939
 31
0.0
  0
LINE
  5
212BC
  8
0
 10
4512.69799384927137
 20
273.7302408524481052
 30
0.0
 11
4512.69799384927137
 21
273.0212566005480994
 31
0.0
  0
LINE
  5
212BD
  8
0
 10
4512.7846080224717298
 20
272.5725648384482156
 30
0.0
 11
4512.7846080224717298
 21
272.9818865217480948
 31
0.0
  0
LINE
  5
212BE
  8
0
 10
4511.8751592035705471
 20
273.7302408524481052
 30
0.0
 11
4511.7806710145714533
 21
273.8247290414482222
 31
0.0
  0
LINE
  5
212BF
  8
0
 10
4512.7373639279703639
 20
272.9818865217480948
 30
0.0
 11
4512.69799384927137
 21
273.0212566005480994
 31
0.0
  0
LINE
  5
212C0
  8
0
 10
4513.0956316444708136
 20
271.1347666494481814
 30
0.0
 11
4513.0956316444708136
 21
271.1741367281481985
 31
0.0
  0
LINE
  5
212C1
  8
0
 10
4514.721449744371057
 20
272.5725648384482156
 30
0.0
 11
4512.5800497650707257
 21
272.5725648384482156
 31
0.0
  0
LINE
  5
212C2
  8
0
 10
4513.1389387311710379
 20
271.1296485391482065
 30
0.0
 11
4513.1389387311710379
 21
271.1347666494481814
 31
0.0
  0
LINE
  5
212C3
  8
0
 10
4512.7373639279703639
 20
272.9818865217480948
 30
0.0
 11
4514.5641355815705538
 21
272.9818865217480948
 31
0.0
  0
LINE
  5
212C4
  8
0
 10
4512.69799384927137
 20
273.0212566005480994
 30
0.0
 11
4514.6035056602713667
 21
273.0212566005480994
 31
0.0
  0
LINE
  5
212C5
  8
0
 10
4514.1625607783707892
 20
271.1296485391482065
 30
0.0
 11
4514.1625607783707892
 21
271.1347666494481814
 31
0.0
  0
LINE
  5
212C6
  8
0
 10
4514.2058678649709691
 20
271.1347666494481814
 30
0.0
 11
4514.2058678649709691
 21
271.1741367281481985
 31
0.0
  0
LINE
  5
212C7
  8
0
 10
4511.8751592035705471
 20
273.7302408524481052
 30
0.0
 11
4515.42634030597128
 21
273.7302408524481052
 31
0.0
  0
LINE
  5
212C8
  8
0
 10
4511.7806710145714533
 20
273.8247290414482222
 30
0.0
 11
4515.5208284948712389
 21
273.8247290414482222
 31
0.0
  0
LINE
  5
212C9
  8
0
 10
4514.5168914870710068
 20
272.5725648384482156
 30
0.0
 11
4514.5168914870710068
 21
272.9818865217480948
 31
0.0
  0
LINE
  5
212CA
  8
0
 10
4514.5641355815705538
 20
272.9818865217480948
 30
0.0
 11
4514.6035056602713667
 21
273.0212566005480994
 31
0.0
  0
LINE
  5
212CB
  8
0
 10
4511.0422044872711922
 20
273.8404770729482038
 30
0.0
 11
4516.2592950221705905
 21
273.8404770729482038
 31
0.0
  0
LINE
  5
212CC
  8
0
 10
4514.6035056602713667
 20
273.7302408524481052
 30
0.0
 11
4514.6035056602713667
 21
273.0212566005480994
 31
0.0
  0
LINE
  5
212CD
  8
0
 10
4515.42634030597128
 20
273.7302408524481052
 30
0.0
 11
4515.5208284948712389
 21
273.8247290414482222
 31
0.0
  0
LINE
  5
212CE
  8
0
 10
4510.4725260381710541
 20
274.7814219548482129
 30
0.0
 11
4510.471346035870738
 21
274.7814219548482129
 31
0.0
  0
LINE
  5
212CF
  8
0
 10
4516.8495686523428958
 20
274.8404770729480902
 30
0.0
 11
4510.4541120974708974
 21
274.8404770729480902
 31
0.0
  0
LINE
  5
212D0
  8
0
 10
4515.5208284948712389
 20
273.8404770729482038
 30
0.0
 11
4515.5208284948712389
 21
273.8247290414482222
 31
0.0
  0
ARC
  5
212D1
  8
0
 10
4513.8479514281707452
 20
275.7945807777480809
 30
0.0
 40
3.1496062991999998
 50
322.7427434322115118
 51
342.3664536668812843
  0
ARC
  5
212D2
  8
0
 10
4513.453548082297857
 20
275.794580778243926
 30
0.0
 40
3.1496063003402561
 50
198.7644291465468029
 51
217.2571570613339134
  0
ARC
  5
212D3
  8
0
 10
4513.65014056810287
 20
271.8064200942275193
 30
0.0
 40
0.9767717454340754
 50
253.1911722927858079
 51
270.0357338624847898
  0
ARC
  5
212D4
  8
0
 10
4513.651358946604887
 20
271.8064200236145211
 30
0.0
 40
0.9767716748243543
 50
269.9642658318887811
 51
286.8088011272121207
  0
ARC
  5
212D5
  8
0
 10
4513.6703676532470126
 20
271.7529347898686183
 30
0.0
 40
0.9200787265553318
 50
286.63881117649521
 51
297.8062373826376756
  0
ARC
  5
212D6
  8
0
 10
4513.6311318620710153
 20
271.7529348022480917
 30
0.0
 40
0.9200787401999999
 50
242.1937623599089875
 51
253.3611595180084066
  0
ARC
  5
212D7
  8
0
 10
4513.3519796622103968
 20
271.2195959963700034
 30
0.0
 40
0.3181102483667582
 50
226.8475645310053039
 51
241.8560658925939038
  0
ARC
  5
212D8
  8
0
 10
4514.010810346470862
 20
271.1326772865480734
 30
0.0
 40
0.2161417323
 50
339.5635890848026861
 51
353.3607704387999888
  0
ARC
  5
212D9
  8
0
 10
4513.2906891096481559
 20
271.1326772699188723
 30
0.0
 40
0.2161416764317507
 50
186.6392268496356053
 51
200.4364117294024084
  0
ARC
  5
212DA
  8
0
 10
4513.9552181546550855
 20
271.1920139257040887
 30
0.0
 40
0.2912110179137288
 50
299.7152904761334753
 51
332.4245472957475727
  0
ARC
  5
212DB
  8
0
 10
4513.267510048092845
 20
271.1260762647099227
 30
0.0
 40
0.1921261140693809
 50
201.0053758520859901
 51
226.150200867767694
  0
ARC
  5
212DC
  8
0
 10
4513.3555538906202855
 20
270.7662291674325274
 30
0.0
 40
0.179680371424676
 50
183.5690399565143878
 51
186.3019513229116058
  0
ARC
  5
212DD
  8
0
 10
4514.1988437519121362
 20
271.333918878446184
 30
0.0
 40
0.1599373196587172
 50
272.5240667013163147
 51
51.145773432135357
  0
ARC
  5
212DE
  8
0
 10
4513.102655758473702
 20
271.3339188792396044
 30
0.0
 40
0.1599373205020325
 50
128.8542273959990894
 51
267.4759328997056969
  0
ARC
  5
212DF
  8
0
 10
4516.2592950220614512
 20
273.9604770734183035
 30
0.0
 40
0.1200000004702293
 50
270.0000000525791961
 51
322.740231178209001
  0
ARC
  5
212E0
  8
0
 10
4511.0422044872711922
 20
273.9604770729480947
 30
0.0
 40
0.12
 50
217.2571570651145976
 51
270.0
  0
ARC
  5
212E1
  8
0
 10
4512.5800492965827289
 20
272.54256483843551
 30
0.0
 40
0.0300000000163761
 50
89.9991052520451262
 51
144.6790791265844121
  0
ARC
  5
212E2
  8
0
 10
4514.7214502129600078
 20
272.54256483843551
 30
0.0
 40
0.0300000000163798
 50
35.3209208734155524
 51
90.0008949389387709
  0
ARC
  5
212E3
  8
0
 10
4513.0955499498440986
 20
271.1099634972637773
 30
0.0
 40
0.0196850472327212
 50
89.9577644675653261
 51
186.6392193345375006
  0
ARC
  5
212E4
  8
0
 10
4514.2059495596968191
 20
271.1099634972637205
 30
0.0
 40
0.0196850472328299
 50
353.3607806655917898
 51
90.042235823157597
  0
ARC
  5
212E5
  8
0
 10
4513.1131324733269139
 20
272.145761470542709
 30
0.0
 40
0.6945450553847623
 50
143.3955817125302019
 51
153.8787334781449943
  0
ARC
  5
212E6
  8
0
 10
4512.7674608057022851
 20
272.3137144516804824
 30
0.0
 40
0.3102368775900068
 50
153.6218846294422917
 51
177.2062824160888965
  0
ARC
  5
212E7
  8
0
 10
4512.7433284167236707
 20
272.3219917413111943
 30
0.0
 40
0.2858177145525648
 50
178.627955780513588
 51
225.7840932010313963
  0
ARC
  5
212E8
  8
0
 10
4513.1624361328586019
 20
272.7722441384128729
 30
0.0
 40
0.900894737447868
 50
226.6495921994477953
 51
243.1262422907273049
  0
ARC
  5
212E9
  8
0
 10
4512.1977366579776572
 20
270.8980472817997907
 30
0.0
 40
1.2070406424557949
 50
54.4321694397863425
 51
62.4934655663321621
  0
ARC
  5
212EA
  8
0
 10
4512.7091581479971865
 20
271.5973472937660063
 30
0.0
 40
0.3408595253384922
 50
40.7264264311274431
 51
55.9863715997949996
  0
ARC
  5
212EB
  8
0
 10
4512.8467967510468952
 20
271.7179059115597966
 30
0.0
 40
0.1579018719027987
 50
11.3417208884175391
 51
40.1598794397525722
  0
ARC
  5
212EC
  8
0
 10
4512.8449999575323091
 20
271.7174659863342754
 30
0.0
 40
0.1597501119142907
 50
345.109628977560476
 51
11.3696878699761701
  0
ARC
  5
212ED
  8
0
 10
4512.8577292755580856
 20
271.7139243536245772
 30
0.0
 40
0.1465382373193953
 50
319.673825218827119
 51
345.1689212509534741
  0
ARC
  5
212EE
  8
0
 10
4512.5699764615055756
 20
271.9591041955952733
 30
0.0
 40
0.5245788422788057
 50
313.9683438987423756
 51
319.5970834264164182
  0
ARC
  5
212EF
  8
0
 10
4513.081382202113673
 20
271.4280610772095201
 30
0.0
 40
0.212675217103684
 50
133.8035460929854992
 51
142.3214963561555919
  0
ARC
  5
212F0
  8
0
 10
4512.962552440080799
 20
271.5210067790108042
 30
0.0
 40
0.0618228338587792
 50
143.1832557813015967
 51
169.7644457749674984
  0
ARC
  5
212F1
  8
0
 10
4512.9636134275942823
 20
271.5210265607888118
 30
0.0
 40
0.0628637652954784
 50
169.9540227279985061
 51
195.4143918561817941
  0
ARC
  5
212F2
  8
0
 10
4512.9633550405960705
 20
271.5210316530440195
 30
0.0
 40
0.0626160695759936
 50
195.4817272383031082
 51
230.1460457156993868
  0
ARC
  5
212F3
  8
0
 10
4512.9632652860518647
 20
271.5210149714524164
 30
0.0
 40
0.0625457728705516
 50
230.199372134392803
 51
269.9937989216206233
  0
ARC
  5
212F4
  8
0
 10
4513.6222362047001297
 20
271.1465270864484864
 30
0.0
 40
0.6795487758103186
 50
249.8511524754061952
 51
269.1964154442554786
  0
ARC
  5
212F5
  8
0
 10
4513.4818452001527476
 20
270.8296286607838965
 30
0.0
 40
0.3344523113556525
 50
215.6882331538263031
 51
253.7326836022726866
  0
ARC
  5
212F6
  8
0
 10
4513.4207587897963094
 20
270.7589330296196977
 30
0.0
 40
0.2445677080683118
 50
180.2099763173638962
 51
210.5782827708476077
  0
ARC
  5
212F7
  8
0
 10
4512.933126831516347
 20
270.7747073699181897
 30
0.0
 40
0.2436368975552173
 50
356.0765247940219069
 51
359.8016043096063186
  0
ARC
  5
212F8
  8
0
 10
4513.3274870862251191
 20
270.7621357944909732
 30
0.0
 40
0.1511804068045061
 50
141.7843013922640125
 51
175.5507620023805941
  0
ARC
  5
212F9
  8
0
 10
4513.4380346952975742
 20
270.6540197160121011
 30
0.0
 40
0.3053686870566171
 50
123.861120225594604
 51
138.6760153605382868
  0
ARC
  5
212FA
  8
0
 10
4512.7630512818886928
 20
271.0364801213419241
 30
0.0
 40
0.5730932027844244
 50
333.7604062936654259
 51
345.0121577493014797
  0
ARC
  5
212FB
  8
0
 10
4513.1031093978863282
 20
270.8630341089715898
 30
0.0
 40
0.1914633743682458
 50
315.3893908535766855
 51
335.3240324084873123
  0
ARC
  5
212FC
  8
0
 10
4513.19016707022638
 20
270.7758468426936815
 30
0.0
 40
0.0682633862646426
 50
289.498086251374275
 51
316.1691398883440911
  0
ARC
  5
212FD
  8
0
 10
4513.2027927381968766
 20
270.7364533580039279
 30
0.0
 40
0.0269437468801905
 50
249.3140216060274099
 51
292.1506807504983954
  0
ARC
  5
212FE
  8
0
 10
4513.2065816536260172
 20
270.7341577234905117
 30
0.0
 40
0.0264949924438376
 50
196.4159691071668874
 51
239.8520950219262033
  0
ARC
  5
212FF
  8
0
 10
4513.2679184556309337
 20
270.7554352361433985
 30
0.0
 40
0.0913963983409255
 50
185.6066311891657961
 51
198.3445431451528975
  0
ARC
  5
21300
  8
0
 10
4510.4725223620098404
 20
274.7814510961916881
 30
0.0
 40
0.0000293723008709
 50
277.1898444126081813
 51
338.3915956238241733
  0
ARC
  5
21301
  8
0
 10
4510.4723929159808904
 20
274.7814980180709199
 30
0.0
 40
0.0001670496711482
 50
339.7793012580402205
 51
358.5971827040032736
  0
ARC
  5
21302
  8
0
 10
4510.4715195379021679
 20
274.7815303502583788
 30
0.0
 40
0.0010410150187481
 50
357.9949947137639015
 51
7.2346888084180341
  0
ARC
  5
21303
  8
0
 10
4510.4672540835927066
 20
274.7810005387867136
 30
0.0
 40
0.0053392442525127
 50
7.110511846365549
 51
11.8430912867138201
  0
ARC
  5
21304
  8
0
 10
4509.1918372067830205
 20
274.4112641979309046
 30
0.0
 40
1.3332522611054241
 50
16.149285442956181
 51
18.7796367873622607
  0
ARC
  5
21305
  8
0
 10
4514.7214502129600078
 20
272.54256483843551
 30
0.0
 40
0.0300000000163761
 50
35.3209208734155524
 51
90.0008947479548738
  0
ARC
  5
21306
  8
0
 10
4514.1883670362140037
 20
272.145761470542709
 30
0.0
 40
0.6945450553847623
 50
26.1212665218549702
 51
36.6044182874697981
  0
ARC
  5
21307
  8
0
 10
4514.5269778712672633
 20
272.3118770957772767
 30
0.0
 40
0.3173823738163684
 50
3.0628874729961288
 51
26.1089454814635715
  0
ARC
  5
21308
  8
0
 10
4514.558171092819066
 20
272.3219917413111943
 30
0.0
 40
0.2858177145525648
 50
314.2159067989686037
 51
1.372044219486326
  0
ARC
  5
21309
  8
0
 10
4514.139063372250348
 20
272.7722441447169217
 30
0.0
 40
0.9008947450746406
 50
296.8737577795405969
 51
313.3504077303239796
  0
ARC
  5
2130A
  8
0
 10
4515.10376285156417
 20
270.8980472817997907
 30
0.0
 40
1.2070406424557949
 50
117.5065344336677953
 51
125.567830560213693
  0
ARC
  5
2130B
  8
0
 10
4514.5923413615455502
 20
271.5973472937660063
 30
0.0
 40
0.3408595253384922
 50
124.0136284002049933
 51
139.2735735688725072
  0
ARC
  5
2130C
  8
0
 10
4514.4547027584949319
 20
271.7179059115597966
 30
0.0
 40
0.1579018719027987
 50
139.8401205602474136
 51
168.6582791115824023
  0
ARC
  5
2130D
  8
0
 10
4514.4564995520104276
 20
271.7174659863342754
 30
0.0
 40
0.1597501119142907
 50
168.6303121300238104
 51
194.8903710224394104
  0
ARC
  5
2130E
  8
0
 10
4514.443770233984651
 20
271.7139243536245772
 30
0.0
 40
0.1465382373193953
 50
194.8310787490464975
 51
220.3261747811729947
  0
ARC
  5
2130F
  8
0
 10
4514.7315230480353421
 20
271.9591041955952733
 30
0.0
 40
0.5245788422788057
 50
220.4029165735836102
 51
226.031656101257596
  0
ARC
  5
21310
  8
0
 10
4514.2201173074272447
 20
271.4280610772095201
 30
0.0
 40
0.212675217103684
 50
37.678503643844401
 51
46.1964539070144582
  0
ARC
  5
21311
  8
0
 10
4514.3389470694601187
 20
271.5210067790108042
 30
0.0
 40
0.0618228338587792
 50
10.2355542250324998
 51
36.8167442186983607
  0
ARC
  5
21312
  8
0
 10
4514.3378860819493639
 20
271.5210265607888118
 30
0.0
 40
0.0628637652954784
 50
344.5856081438182059
 51
10.0459772720014193
  0
ARC
  5
21313
  8
0
 10
4514.3381444689457567
 20
271.5210316530440195
 30
0.0
 40
0.0626160695759936
 50
309.8539542843006984
 51
344.5182727616967782
  0
ARC
  5
21314
  8
0
 10
4514.338234223489053
 20
271.5210149714524164
 30
0.0
 40
0.0625457728705516
 50
270.0062010783793767
 51
309.8006278656072254
  0
ARC
  5
21315
  8
0
 10
4513.9459456189224511
 20
270.7662291674325274
 30
0.0
 40
0.179680371424676
 50
353.6980486770884227
 51
356.4309600434855838
  0
ARC
  5
21316
  8
0
 10
4513.6792564737761495
 20
271.1465520351799796
 30
0.0
 40
0.6795745507362706
 50
270.8041894540356225
 51
290.1486636557788188
  0
ARC
  5
21317
  8
0
 10
4513.8196543093890796
 20
270.8296286607838965
 30
0.0
 40
0.3344523113556525
 50
286.2673163977273134
 51
324.3117668461737253
  0
ARC
  5
21318
  8
0
 10
4513.8807407197473367
 20
270.7589330296196977
 30
0.0
 40
0.2445677080683118
 50
329.4217172291524207
 51
359.7900236826361038
  0
ARC
  5
21319
  8
0
 10
4514.3683726780272991
 20
270.7747073699181897
 30
0.0
 40
0.2436368975552173
 50
180.1983956903937099
 51
183.9234752059780931
  0
ARC
  5
2131A
  8
0
 10
4513.974012423316708
 20
270.7621357944909732
 30
0.0
 40
0.1511804068045061
 50
4.4492379976193499
 51
38.215698607736023
  0
ARC
  5
2131B
  8
0
 10
4513.8634648142442529
 20
270.6540197160121011
 30
0.0
 40
0.3053686870566171
 50
41.323984639461699
 51
56.1388797722140183
  0
ARC
  5
2131C
  8
0
 10
4514.5384482276531344
 20
271.0364801213419241
 30
0.0
 40
0.5730932027844244
 50
194.987842247038401
 51
206.2395937063346025
  0
ARC
  5
2131D
  8
0
 10
4514.1983901116545894
 20
270.8630341089715898
 30
0.0
 40
0.1914633743682458
 50
204.6759675915126877
 51
224.6106091464232861
  0
ARC
  5
2131E
  8
0
 10
4514.1113324393154471
 20
270.7758468426936815
 30
0.0
 40
0.0682633862646426
 50
223.8308601116559089
 51
250.5019137486256966
  0
ARC
  5
2131F
  8
0
 10
4514.0987067713449505
 20
270.7364533580039279
 30
0.0
 40
0.0269437468801905
 50
247.8493192495016046
 51
290.6859783939726185
  0
ARC
  5
21320
  8
0
 10
4514.0949178559158099
 20
270.7341577234905117
 30
0.0
 40
0.0264949924438376
 50
300.1479049780738251
 51
343.5840308928330273
  0
ARC
  5
21321
  8
0
 10
4514.0335810539099839
 20
270.7554352361433985
 30
0.0
 40
0.0913963983409255
 50
341.6554568548471025
 51
354.3933688108340903
  0
ENDSEC
  0
EOF
