  0
SECTION
  2
HEADER
  9
$ACADVER
  1
AC1009
  9
$INSBASE
 10
4474.982782872534699
 20
274.068326383760791
 30
0.0
  9
$EXTMIN
 10
4471.0557065335751759
 20
270.0367547584864951
 30
0.0
  9
$EXTMAX
 10
4474.993588665893185
 20
277.267143492860896
 30
0.0
  9
$LIMMIN
 10
0.0
 20
0.0
  9
$LIMMAX
 10
11.6929133858000007
 20
8.2677165353999982
  9
$ORTHOMODE
 70
     0
  9
$REGENMODE
 70
     1
  9
$FILLMODE
 70
     1
  9
$QTEXTMODE
 70
     0
  9
$MIRRTEXT
 70
     0
  9
$DRAGMODE
 70
     2
  9
$LTSCALE
 40
0.6431102362
  9
$OSMODE
 70
   695
  9
$ATTMODE
 70
     1
  9
$TEXTSIZE
 40
0.2
  9
$TRACEWID
 40
0.05
  9
$TEXTSTYLE
  7
STANDARD
  9
$CLAYER
  8
0
  9
$CELTYPE
  6
BYLAYER
  9
$CECOLOR
 62
   256
  9
$DIMSCALE
 40
1.0
  9
$DIMASZ
 40
0.1875
  9
$DIMEXO
 40
0.0625
  9
$DIMDLI
 40
0.4443307087
  9
$DIMRND
 40
0.0
  9
$DIMDLE
 40
0.0
  9
$DIMEXE
 40
0.125
  9
$DIMTP
 40
0.01
  9
$DIMTM
 40
0.01
  9
$DIMTXT
 40
2.0
  9
$DIMCEN
 40
0.1052362205
  9
$DIMTSZ
 40
0.0
  9
$DIMTOL
 70
     1
  9
$DIMLIM
 70
     0
  9
$DIMTIH
 70
     1
  9
$DIMTOH
 70
     1
  9
$DIMSE1
 70
     0
  9
$DIMSE2
 70
     0
  9
$DIMTAD
 70
     0
  9
$DIMZIN
 70
     0
  9
$DIMBLK
  1

  9
$DIMASO
 70
     1
  9
$DIMSHO
 70
     1
  9
$DIMPOST
  1
\X
  9
$DIMAPOST
  1

  9
$DIMALT
 70
     1
  9
$DIMALTD
 70
     2
  9
$DIMALTF
 40
25.3999999999999986
  9
$DIMLFAC
 40
1.0
  9
$DIMTOFL
 70
     0
  9
$DIMTVP
 40
0.0
  9
$DIMTIX
 70
     0
  9
$DIMSOXD
 70
     0
  9
$DIMSAH
 70
     0
  9
$DIMBLK1
  1

  9
$DIMBLK2
  1

  9
$DIMSTYLE
  2
STANDARD
  9
$DIMCLRD
 70
     0
  9
$DIMCLRE
 70
     0
  9
$DIMCLRT
 70
     0
  9
$DIMTFAC
 40
1.0
  9
$DIMGAP
 40
0.09
  9
$LUNITS
 70
     2
  9
$LUPREC
 70
     4
  9
$SKETCHINC
 40
0.1
  9
$FILLETRAD
 40
0.0
  9
$AUNITS
 70
     0
  9
$AUPREC
 70
     0
  9
$MENU
  1
.
  9
$ELEVATION
 40
0.0
  9
$PELEVATION
 40
0.0
  9
$THICKNESS
 40
0.0
  9
$LIMCHECK
 70
     0
  9
$BLIPMODE
 70
     0
  9
$CHAMFERA
 40
0.0
  9
$CHAMFERB
 40
0.0
  9
$SKPOLY
 70
     0
  9
$TDCREATE
 40
2458060.468368056230247
  9
$TDUPDATE
 40
2459358.0636805561371148
  9
$TDINDWG
 40
0.5234908565
  9
$TDUSRTIMER
 40
0.5234908565
  9
$USRTIMER
 70
     1
  9
$ANGBASE
 50
0.0
  9
$ANGDIR
 70
     0
  9
$PDMODE
 70
     0
  9
$PDSIZE
 40
0.3125
  9
$PLINEWID
 40
0.0
  9
$COORDS
 70
     1
  9
$SPLFRAME
 70
     0
  9
$SPLINETYPE
 70
     6
  9
$SPLINESEGS
 70
     8
  9
$ATTDIA
 70
     1
  9
$ATTREQ
 70
     1
  9
$HANDLING
 70
     1
  9
$HANDSEED
  5
2117B
  9
$SURFTAB1
 70
     6
  9
$SURFTAB2
 70
     6
  9
$SURFTYPE
 70
     6
  9
$SURFU
 70
     6
  9
$SURFV
 70
     6
  9
$UCSNAME
  2

  9
$UCSORG
 10
0.0
 20
0.0
 30
0.0
  9
$UCSXDIR
 10
1.0
 20
0.0
 30
0.0
  9
$UCSYDIR
 10
0.0
 20
1.0
 30
0.0
  9
$PUCSNAME
  2

  9
$PUCSORG
 10
0.0
 20
0.0
 30
0.0
  9
$PUCSXDIR
 10
1.0
 20
0.0
 30
0.0
  9
$PUCSYDIR
 10
0.0
 20
1.0
 30
0.0
  9
$USERI1
 70
     0
  9
$USERI2
 70
     0
  9
$USERI3
 70
     0
  9
$USERI4
 70
     0
  9
$USERI5
 70
     0
  9
$USERR1
 40
0.0
  9
$USERR2
 40
0.0
  9
$USERR3
 40
0.0
  9
$USERR4
 40
0.0
  9
$USERR5
 40
0.0
  9
$WORLDVIEW
 70
     1
  9
$SHADEDGE
 70
     3
  9
$SHADEDIF
 70
    70
  9
$TILEMODE
 70
     1
  9
$MAXACTVP
 70
    64
  9
$PLIMCHECK
 70
     0
  9
$PEXTMIN
 10
1.0000000000000000E+20
 20
1.0000000000000000E+20
 30
1.0000000000000000E+20
  9
$PEXTMAX
 10
-1.0000000000000000E+20
 20
-1.0000000000000000E+20
 30
-1.0000000000000000E+20
  9
$PLIMMIN
 10
0.0
 20
0.0
  9
$PLIMMAX
 10
12.0
 20
9.0
  9
$UNITMODE
 70
     0
  9
$VISRETAIN
 70
     1
  9
$PLINEGEN
 70
     0
  9
$PSLTSCALE
 70
     1
  0
ENDSEC
  0
SECTION
  2
TABLES
  0
TABLE
  2
VPORT
 70
     1
  0
VPORT
  2
*ACTIVE
 70
     0
 10
0.0
 20
0.0
 11
1.0
 21
1.0
 12
561.6592911471777825
 22
141.0723440130560107
 13
0.0
 23
0.0
 14
1.0
 24
1.0
 15
0.0
 25
0.0
 16
0.0
 26
0.0
 36
60.4960186965801583
 17
3911.3653564453120453
 27
132.5796051025390057
 37
0.0
 40
10.7969482063081408
 41
2.3233532934131729
 42
50.0
 43
0.0
 44
0.0
 50
0.0
 51
0.0
 71
     0
 72
   100
 73
     1
 74
     1
 75
     0
 76
     0
 77
     0
 78
     0
  0
ENDTAB
  0
TABLE
  2
LTYPE
 70
     2
  0
LTYPE
  2
CONTINUOUS
 70
     0
  3
Solid line
 72
    65
 73
     0
 40
0.0
  0
LTYPE
  2
PHANTOM2
 70
     0
  3
___ _ _ ___ _ _ ___ _ _ ___ _ _
 72
    65
 73
     6
 40
1.25
 49
0.625
 49
-0.125
 49
0.125
 49
-0.125
 49
0.125
 49
-0.125
  0
ENDTAB
  0
TABLE
  2
LAYER
 70
     2
  0
LAYER
  2
0
 70
     0
 62
   255
  6
CONTINUOUS
  0
LAYER
  2
DEFPOINTS
 70
     0
 62
     7
  6
CONTINUOUS
  0
ENDTAB
  0
TABLE
  2
STYLE
 70
     1
  0
STYLE
  2
STANDARD
 70
     0
 40
0.0
 41
0.8
 50
0.0
 71
     0
 42
0.2
  3
txt
  4

  0
ENDTAB
  0
TABLE
  2
VIEW
 70
     0
  0
ENDTAB
  0
TABLE
  2
UCS
 70
     0
  0
ENDTAB
  0
TABLE
  2
APPID
 70
    11
  0
APPID
  2
ACAD
 70
     0
  0
APPID
  2
ACAD_MLEADERVER
 70
     0
  0
APPID
  2
ACAD_EXEMPT_FROM_CAD_STANDARDS
 70
     0
  0
APPID
  2
ACAD_NAV_VCDISPLAY
 70
     0
  0
APPID
  2
ACAECLAYERSTANDARD
 70
     0
  0
APPID
  2
ACCMTRANSPARENCY
 70
     0
  0
APPID
  2
ACAD_DSTYLE_DIMJAG
 70
     0
  0
APPID
  2
ACAD_DSTYLE_DIMTALN
 70
     0
  0
APPID
  2
ACDBATTR
 70
     0
  0
APPID
  2
ACADANNOTATIVE
 70
     0
  0
APPID
  2
DCO15
 70
     0
  0
ENDTAB
  0
TABLE
  2
DIMSTYLE
 70
     1
  0
DIMSTYLE
  2
STANDARD
 70
     0
  3

  4

  5

  6

  7

 40
1.0
 41
0.1875
 42
0.0625
 43
0.38
 44
0.125
 45
0.0
 46
0.0
 47
0.01
 48
0.01
140
0.15625
141
0.09
142
0.0
143
25.3999999999999986
144
1.0
145
0.0
146
1.0
147
0.09
 71
     1
 72
     0
 73
     1
 74
     1
 75
     0
 76
     0
 77
     0
 78
     4
170
     0
171
     2
172
     0
173
     0
174
     0
175
     0
176
     0
177
     0
178
     0
  0
ENDTAB
  0
ENDSEC
  0
SECTION
  2
BLOCKS
  0
BLOCK
  8
0
  2
$MODEL_SPACE
 70
     0
 10
0.0
 20
0.0
 30
0.0
  3
$MODEL_SPACE
  1

  0
ENDBLK
  5
21
  8
0
  0
BLOCK
 67
     1
  8
0
  2
$PAPER_SPACE
 70
     0
 10
0.0
 20
0.0
 30
0.0
  3
$PAPER_SPACE
  1

  0
ENDBLK
  5
1D
 67
     1
  8
0
  0
ENDSEC
  0
SECTION
  2
ENTITIES
  0
ATTDEF
  5
20106
  8
DEFPOINTS
 10
4474.9829219992243452
 20
274.0718342169913058
 30
0.0
 40
0.001
  1
K-11700T-4
  3

  2
MODELNUMBER
 70
     0
1001
ACDBATTR
1070
     0
1070
     1
  0
ATTDEF
  5
20107
  8
DEFPOINTS
 10
4474.9827961895671251
 20
274.0701673766121189
 30
0.0
 40
0.001
  1
LISON
  3

  2
TRADENAME
 70
     0
1001
ACDBATTR
1070
     0
1070
     1
  0
ATTDEF
  5
20108
  8
DEFPOINTS
 10
4474.9829219992243452
 20
274.0685008836579186
 30
0.0
 40
0.001
  1
VALVE TRIM
  3

  2
PRODUCT
 70
     0
1001
ACDBATTR
1070
     0
1070
     1
  0
LINE
  5
21046
  8
0
 10
4473.656011219033644
 20
275.0210822892607894
 30
0.0
 11
4473.6166411402336962
 21
274.981712210560886
 31
0.0
  0
LINE
  5
21047
  8
0
 10
4472.5030289461337816
 20
273.0939166829609235
 30
0.0
 11
4472.5390820850616365
 21
273.0939166829609235
 31
0.0
  0
LINE
  5
21048
  8
0
 10
4473.982782872534699
 20
273.1155704782607927
 30
0.0
 11
4473.656011219033644
 21
273.1155704782607927
 31
0.0
  0
LINE
  5
21049
  8
0
 10
4473.1375975035343799
 20
273.2021846514609251
 30
0.0
 11
4473.6166411402336962
 21
273.2021846514609251
 31
0.0
  0
LINE
  5
2104A
  8
0
 10
4473.0607356284335765
 20
273.1381363100039152
 30
0.0
 11
4473.0607356284335765
 21
274.3092294518608014
 31
0.0
  0
LINE
  5
2104B
  8
0
 10
4473.656011219033644
 20
273.1155704782607927
 30
0.0
 11
4473.6166411402336962
 21
273.1549405569609235
 31
0.0
  0
LINE
  5
2104C
  8
0
 10
4473.0607356284335765
 20
274.3092294518608014
 30
0.0
 11
4472.7474973769340068
 21
274.9809883814609179
 31
0.0
  0
LINE
  5
2104D
  8
0
 10
4473.6166411402336962
 20
274.981712210560886
 30
0.0
 11
4473.6166411402336962
 21
273.1549405569609235
 31
0.0
  0
LINE
  5
2104E
  8
0
 10
4473.656011219033644
 20
275.0210822892607894
 30
0.0
 11
4473.656011219033644
 21
273.1155704782607927
 31
0.0
  0
LINE
  5
2104F
  8
0
 10
4473.982782872534699
 20
276.6768716511609227
 30
0.0
 11
4473.982782872534699
 21
271.4597811162608991
 31
0.0
  0
LINE
  5
21050
  8
0
 10
4473.1375975035343799
 20
274.9344681160608843
 30
0.0
 11
4473.6166411402336962
 21
274.9344681160608843
 31
0.0
  0
LINE
  5
21051
  8
0
 10
4473.982782872534699
 20
275.0210822892607894
 30
0.0
 11
4473.656011219033644
 21
275.0210822892607894
 31
0.0
  0
LINE
  5
21052
  8
0
 10
4474.9237277544343669
 20
270.888922664860786
 30
0.0
 11
4474.9237277544343669
 21
270.8900853499592927
 31
0.0
  0
LINE
  5
21053
  8
0
 10
4474.982782872534699
 20
270.8716887265043738
 30
0.0
 11
4474.982782872534699
 21
277.267143492860896
 31
0.0
  0
ARC
  5
21054
  8
0
 10
4486.8428027434092655
 20
265.5551398421185922
 30
0.0
 40
17.3818051675318408
 50
147.3744914047007057
 51
148.351317807425886
  0
ARC
  5
21055
  8
0
 10
4473.5613225170336591
 20
259.8925834252609093
 30
0.0
 40
15.1103367112000004
 50
93.0873778287076021
 51
95.0417809573789469
  0
ARC
  5
21056
  8
0
 10
4472.6329261399341704
 20
258.6085192877608847
 30
0.0
 40
14.5359138608999992
 50
88.3134725209352496
 51
88.4418525946225458
  0
ARC
  5
21057
  8
0
 10
4475.9368552866853861
 20
274.265577455939308
 30
0.0
 40
3.1495480382816972
 50
107.6332859298794062
 51
127.2572480358531948
  0
ARC
  5
21058
  8
0
 10
4475.9368865794631347
 20
273.8711247136856173
 30
0.0
 40
3.1496063031351289
 50
232.7427434379762019
 51
251.2355708393646978
  0
ARC
  5
21059
  8
0
 10
4474.1016768041636169
 20
268.1472294427280758
 30
0.0
 40
2.8633941909336622
 50
72.0784892642044781
 51
73.3162000335026107
  0
ARC
  5
2105A
  8
0
 10
4473.1375975035343799
 20
274.068326383760791
 30
0.0
 40
0.8661417323
 50
264.9088452341487141
 51
270.0
  0
ARC
  5
2105B
  8
0
 10
4473.1375975035343799
 20
274.068326383760791
 30
0.0
 40
0.8661417323
 50
90.0
 51
112.8723170389548045
  0
ARC
  5
2105C
  8
0
 10
4472.3914442898339985
 20
273.2122729821609255
 30
0.0
 40
0.1892224409
 50
255.0786965566913125
 51
321.2820116426050845
  0
ARC
  5
2105D
  8
0
 10
4474.1027828725336803
 20
276.6768716511609227
 30
0.0
 40
0.12
 50
127.2571570650877959
 51
180.0
  0
ARC
  5
2105E
  8
0
 10
4474.1027828726219013
 20
271.4597811162814196
 30
0.0
 40
0.1200000000877868
 50
180.0000000098195017
 51
232.7402312687198105
  0
ARC
  5
2105F
  8
0
 10
4471.7557599092351666
 20
274.0392622443608843
 30
0.0
 40
0.0787350736
 50
149.587294230186501
 51
170.9170977523021122
  0
ARC
  5
21060
  8
0
 10
4472.2368317699492763
 20
274.9051512156718218
 30
0.0
 40
0.0394552813303033
 50
94.9993083491987136
 51
147.2990902792570012
  0
LINE
  5
21061
  8
0
 10
4471.678012097944702
 20
274.0516916310947977
 30
0.0
 11
4471.0837987895010883
 21
270.3203297268487972
 31
0.0
  0
ARC
  5
21062
  8
0
 10
4472.9245184782539582
 20
270.2990175988621218
 30
0.0
 40
2.8419319576032178
 50
87.9096570953984013
 51
91.7612046673830264
  0
ARC
  5
21063
  8
0
 10
4472.8702892663195598
 20
271.8977491082472966
 30
0.0
 40
1.2422993484626961
 50
91.5274542637348105
 51
105.6631011793238031
  0
ARC
  5
21064
  8
0
 10
4472.5871339643517786
 20
272.6533345757160873
 30
0.0
 40
0.4485378995286139
 50
100.8074641315357951
 51
123.0185393419540958
  0
ARC
  5
21065
  8
0
 10
4473.052149023255879
 20
272.0436115986910863
 30
0.0
 40
1.2145485124845989
 50
125.7400290512756982
 51
143.0986353442509085
  0
ARC
  5
21066
  8
0
 10
4473.1713713640419883
 20
271.9678555288451776
 30
0.0
 40
1.355418688011893
 50
143.5638776326904917
 51
159.6611943481896958
  0
ARC
  5
21067
  8
0
 10
4490.3302626106733442
 20
266.7919062922367175
 30
0.0
 40
19.2755521133116297
 50
162.964477896460096
 51
166.1177952883184048
  0
ARC
  5
21068
  8
0
 10
-45999.0596185615868308
 20
13540.8150729517001309
 30
0.0
 40
52185.88130108689802
 50
345.2684560795464108
 51
345.2695592831275917
  0
ARC
  5
21069
  8
0
 10
4469.594601670184602
 20
270.853776072659798
 30
0.0
 40
1.814309769682044
 50
340.8218098931154145
 51
346.9737679072346168
  0
ARC
  5
2106A
  8
0
 10
4470.8588694177005891
 20
270.416684556156099
 30
0.0
 40
0.4766258087849299
 50
323.7354239081124092
 51
340.5227954261428067
  0
ARC
  5
2106B
  8
0
 10
4471.0380978998691717
 20
270.2763249800153176
 30
0.0
 40
0.2491929025520969
 50
295.5247596704301145
 51
325.3807219406011768
  0
ARC
  5
2106C
  8
0
 10
4471.0586712730546424
 20
270.2454499074789851
 30
0.0
 40
0.2125313065471607
 50
282.5808852093496739
 51
294.1062362960357746
  0
ARC
  5
2106D
  8
0
 10
4471.0947265841841727
 20
270.0787306302580077
 30
0.0
 40
0.0419766347856877
 50
270.3454623965687915
 51
284.1163536046375953
  0
ARC
  5
2106E
  8
0
 10
4471.0949681385818621
 20
270.0761744419523893
 30
0.0
 40
0.0394196851551121
 50
239.0946801787856089
 51
270.0167736882556255
  0
ARC
  5
2106F
  8
0
 10
4471.0949093775707297
 20
270.0760731543260249
 30
0.0
 40
0.0393025977759313
 50
200.9512252383204896
 51
239.0923396844061983
  0
ARC
  5
21070
  8
0
 10
4471.0951441826673545
 20
270.0761638145854135
 30
0.0
 40
0.0395542964452007
 50
175.5986588725018862
 51
200.9522483200674969
  0
ARC
  5
21071
  8
0
 10
4474.8831735835747168
 20
269.7554920942351941
 30
0.0
 40
3.8411313928395101
 50
171.5440029121660075
 51
175.1657260961991085
  0
ARC
  5
21072
  8
0
 10
4498.8406745157935802
 20
258.1801222201455062
 30
0.0
 40
31.4651161749604604
 50
148.3826025780961118
 51
149.6494178230080081
  0
ENDSEC
  0
EOF
