  0
SECTION
  2
HEADER
  9
$ACADVER
  1
AC1009
  9
$INSBASE
 10
4839.4208825223076929
 20
248.5113210649394091
 30
0.0
  9
$EXTMIN
 10
4791.6001171180341771
 20
239.3675412573765868
 30
0.0
  9
$EXTMAX
 10
4850.3365147606600658
 20
256.5156070913475901
 30
0.0
  9
$LIMMIN
 10
0.0
 20
0.0
  9
$LIMMAX
 10
11.6929133858000007
 20
8.2677165353999982
  9
$ORTHOMODE
 70
     1
  9
$REGENMODE
 70
     1
  9
$FILLMODE
 70
     1
  9
$QTEXTMODE
 70
     0
  9
$MIRRTEXT
 70
     0
  9
$DRAGMODE
 70
     2
  9
$LTSCALE
 40
0.6431102362
  9
$OSMODE
 70
  4095
  9
$ATTMODE
 70
     1
  9
$TEXTSIZE
 40
0.2
  9
$TRACEWID
 40
0.05
  9
$TEXTSTYLE
  7
STANDARD
  9
$CLAYER
  8
0
  9
$CELTYPE
  6
BYLAYER
  9
$CECOLOR
 62
   256
  9
$DIMSCALE
 40
1.0
  9
$DIMASZ
 40
0.1875
  9
$DIMEXO
 40
0.0625
  9
$DIMDLI
 40
0.4443307087
  9
$DIMRND
 40
0.0
  9
$DIMDLE
 40
0.0
  9
$DIMEXE
 40
0.125
  9
$DIMTP
 40
0.01
  9
$DIMTM
 40
0.01
  9
$DIMTXT
 40
2.0
  9
$DIMCEN
 40
0.1052362205
  9
$DIMTSZ
 40
0.0
  9
$DIMTOL
 70
     1
  9
$DIMLIM
 70
     0
  9
$DIMTIH
 70
     1
  9
$DIMTOH
 70
     1
  9
$DIMSE1
 70
     0
  9
$DIMSE2
 70
     0
  9
$DIMTAD
 70
     0
  9
$DIMZIN
 70
     0
  9
$DIMBLK
  1

  9
$DIMASO
 70
     1
  9
$DIMSHO
 70
     1
  9
$DIMPOST
  1
\X
  9
$DIMAPOST
  1

  9
$DIMALT
 70
     1
  9
$DIMALTD
 70
     2
  9
$DIMALTF
 40
25.3999999999999986
  9
$DIMLFAC
 40
1.0
  9
$DIMTOFL
 70
     0
  9
$DIMTVP
 40
0.0
  9
$DIMTIX
 70
     0
  9
$DIMSOXD
 70
     0
  9
$DIMSAH
 70
     0
  9
$DIMBLK1
  1

  9
$DIMBLK2
  1

  9
$DIMSTYLE
  2
STANDARD
  9
$DIMCLRD
 70
     0
  9
$DIMCLRE
 70
     0
  9
$DIMCLRT
 70
     0
  9
$DIMTFAC
 40
1.0
  9
$DIMGAP
 40
0.09
  9
$LUNITS
 70
     2
  9
$LUPREC
 70
     4
  9
$SKETCHINC
 40
0.1
  9
$FILLETRAD
 40
0.0
  9
$AUNITS
 70
     0
  9
$AUPREC
 70
     0
  9
$MENU
  1
.
  9
$ELEVATION
 40
0.0
  9
$PELEVATION
 40
0.0
  9
$THICKNESS
 40
0.0
  9
$LIMCHECK
 70
     0
  9
$BLIPMODE
 70
     0
  9
$CHAMFERA
 40
0.0
  9
$CHAMFERB
 40
0.0
  9
$SKPOLY
 70
     0
  9
$TDCREATE
 40
2458060.468368056230247
  9
$TDUPDATE
 40
2459873.6143749998882413
  9
$TDINDWG
 40
0.3590116898
  9
$TDUSRTIMER
 40
0.3590116898
  9
$USRTIMER
 70
     1
  9
$ANGBASE
 50
0.0
  9
$ANGDIR
 70
     0
  9
$PDMODE
 70
     0
  9
$PDSIZE
 40
0.3125
  9
$PLINEWID
 40
0.0
  9
$COORDS
 70
     1
  9
$SPLFRAME
 70
     0
  9
$SPLINETYPE
 70
     6
  9
$SPLINESEGS
 70
     8
  9
$ATTDIA
 70
     1
  9
$ATTREQ
 70
     1
  9
$HANDLING
 70
     1
  9
$HANDSEED
  5
CE8D
  9
$SURFTAB1
 70
     6
  9
$SURFTAB2
 70
     6
  9
$SURFTYPE
 70
     6
  9
$SURFU
 70
     6
  9
$SURFV
 70
     6
  9
$UCSNAME
  2

  9
$UCSORG
 10
0.0
 20
0.0
 30
0.0
  9
$UCSXDIR
 10
1.0
 20
0.0
 30
0.0
  9
$UCSYDIR
 10
0.0
 20
1.0
 30
0.0
  9
$PUCSNAME
  2

  9
$PUCSORG
 10
0.0
 20
0.0
 30
0.0
  9
$PUCSXDIR
 10
1.0
 20
0.0
 30
0.0
  9
$PUCSYDIR
 10
0.0
 20
1.0
 30
0.0
  9
$USERI1
 70
     0
  9
$USERI2
 70
     0
  9
$USERI3
 70
     0
  9
$USERI4
 70
     0
  9
$USERI5
 70
     0
  9
$USERR1
 40
0.0
  9
$USERR2
 40
0.0
  9
$USERR3
 40
0.0
  9
$USERR4
 40
0.0
  9
$USERR5
 40
0.0
  9
$WORLDVIEW
 70
     1
  9
$SHADEDGE
 70
     3
  9
$SHADEDIF
 70
    70
  9
$TILEMODE
 70
     1
  9
$MAXACTVP
 70
    64
  9
$PLIMCHECK
 70
     0
  9
$PEXTMIN
 10
1.0000000000000000E+20
 20
1.0000000000000000E+20
 30
1.0000000000000000E+20
  9
$PEXTMAX
 10
-1.0000000000000000E+20
 20
-1.0000000000000000E+20
 30
-1.0000000000000000E+20
  9
$PLIMMIN
 10
0.0
 20
0.0
  9
$PLIMMAX
 10
12.0
 20
9.0
  9
$UNITMODE
 70
     0
  9
$VISRETAIN
 70
     1
  9
$PLINEGEN
 70
     0
  9
$PSLTSCALE
 70
     1
  0
ENDSEC
  0
SECTION
  2
TABLES
  0
TABLE
  2
VPORT
 70
     1
  0
VPORT
  2
*ACTIVE
 70
     0
 10
0.0
 20
0.0
 11
1.0
 21
1.0
 12
56.6144211701276987
 22
9.1324733561005118
 13
0.0
 23
0.0
 14
1.0
 24
1.0
 15
0.0
 25
0.0
 16
0.0
 26
0.0
 36
93.2320603594742749
 17
4782.80908203125
 27
239.3773269653320028
 37
0.0
 40
0.005865000907311
 41
2.0416666666666661
 42
50.0
 43
0.0
 44
0.0
 50
0.0
 51
0.0
 71
     0
 72
   100
 73
     1
 74
     1
 75
     0
 76
     0
 77
     0
 78
     0
  0
ENDTAB
  0
TABLE
  2
LTYPE
 70
     3
  0
LTYPE
  2
CONTINUOUS
 70
     0
  3
Solid line
 72
    65
 73
     0
 40
0.0
  0
LTYPE
  2
PHANTOM2
 70
     0
  3
___ _ _ ___ _ _ ___ _ _ ___ _ _
 72
    65
 73
     6
 40
1.25
 49
0.625
 49
-0.125
 49
0.125
 49
-0.125
 49
0.125
 49
-0.125
  0
ENDTAB
  0
TABLE
  2
LAYER
 70
     2
  0
LAYER
  2
0
 70
     0
 62
   255
  6
CONTINUOUS
  0
LAYER
  2
DEFPOINTS
 70
     0
 62
     7
  6
CONTINUOUS
  0
ENDTAB
  0
TABLE
  2
STYLE
 70
     1
  0
STYLE
  2
STANDARD
 70
     0
 40
0.0
 41
0.8
 50
0.0
 71
     0
 42
0.2
  3
txt
  4

  0
ENDTAB
  0
TABLE
  2
VIEW
 70
     0
  0
ENDTAB
  0
TABLE
  2
UCS
 70
     0
  0
ENDTAB
  0
TABLE
  2
APPID
 70
     9
  0
APPID
  2
ACAD
 70
     0
  0
APPID
  2
ACAD_MLEADERVER
 70
     0
  0
APPID
  2
ACAD_EXEMPT_FROM_CAD_STANDARDS
 70
     0
  0
APPID
  2
ACAD_NAV_VCDISPLAY
 70
     0
  0
APPID
  2
ACAECLAYERSTANDARD
 70
     0
  0
APPID
  2
ACCMTRANSPARENCY
 70
     0
  0
APPID
  2
ACAD_DSTYLE_DIMJAG
 70
     0
  0
APPID
  2
ACAD_DSTYLE_DIMTALN
 70
     0
  0
APPID
  2
ACDBATTR
 70
     0
  0
ENDTAB
  0
TABLE
  2
DIMSTYLE
 70
     2
  0
DIMSTYLE
  2
STANDARD
 70
     0
  3

  4

  5

  6

  7

 40
1.0
 41
0.1875
 42
0.0625
 43
0.38
 44
0.125
 45
0.0
 46
0.0
 47
0.01
 48
0.01
140
0.15625
141
0.09
142
0.0
143
25.3999999999999986
144
1.0
145
0.0
146
1.0
147
0.09
 71
     1
 72
     0
 73
     1
 74
     1
 75
     0
 76
     0
 77
     0
 78
     4
170
     0
171
     2
172
     0
173
     0
174
     0
175
     0
176
     0
177
     0
178
     0
  0
ENDTAB
  0
ENDSEC
  0
SECTION
  2
BLOCKS
  0
BLOCK
  8
0
  2
$MODEL_SPACE
 70
     0
 10
0.0
 20
0.0
 30
0.0
  3
$MODEL_SPACE
  1

  0
ENDBLK
  5
21
  8
0
  0
BLOCK
 67
     1
  8
0
  2
$PAPER_SPACE
 70
     0
 10
0.0
 20
0.0
 30
0.0
  3
$PAPER_SPACE
  1

  0
ENDBLK
  5
1D
 67
     1
  8
0
  0
BLOCK
  8
0
  2
_FILLED
 70
     0
 10
0.0
 20
0.0
 30
0.0
  3
_FILLED
  1

  0
SOLID
  5
CC30
  8
0
  6
BYBLOCK
 62
     0
 10
0.0
 20
0.0
 30
0.0
 11
-1.0
 21
0.1666666667
 31
0.0
 12
-1.0
 22
-0.1666666667
 32
0.0
 13
-1.0
 23
-0.1666666667
 33
0.0
  0
ENDBLK
  5
CC31
  8
0
  6
BYBLOCK
 62
     0
  0
ENDSEC
  0
SECTION
  2
ENTITIES
  0
ATTDEF
  5
3930
  8
DEFPOINTS
 10
4839.4209271153104055
 20
248.5102680102785087
 30
0.0
 40
0.001
  1
K-11745T
  3

  2
MODELNUMBER
 70
     0
1001
ACDBATTR
1070
     0
1070
     1
  0
ATTDEF
  5
3931
  8
DEFPOINTS
 10
4839.4209271153104055
 20
248.5086013436117867
 30
0.0
 40
0.001
  1
LOURE
  3

  2
TRADENAME
 70
     0
1001
ACDBATTR
1070
     0
1070
     1
  0
ATTDEF
  5
3932
  8
DEFPOINTS
 10
4839.4209271153104055
 20
248.5069346769452068
 30
0.0
 40
0.001
  1
DOUBLE TOWEL SHELF
  3

  2
PRODUCT
 70
     0
1001
ACDBATTR
1070
     0
1070
     1
  0
LINE
  5
CD67
  8
0
 10
4833.9307400027073527
 20
242.4069903563394917
 30
0.0
 11
4834.6551195302081396
 21
242.4069903563394917
 31
0.0
  0
LINE
  5
CD68
  8
0
 10
4828.3972604751070321
 20
244.7711635846395097
 30
0.0
 11
4837.7279825223076841
 21
244.7711635846395097
 31
0.0
  0
LINE
  5
CD69
  8
0
 10
4828.4181319944982533
 20
244.7691950807395074
 30
0.0
 11
4829.1439464212207895
 21
244.7691950807395074
 31
0.0
  0
LINE
  5
CD6A
  8
0
 10
4838.9169455145065513
 20
249.5779444414802981
 30
0.0
 11
4839.4208825223076929
 21
249.5779444414802981
 31
0.0
  0
LINE
  5
CD6B
  8
0
 10
4828.4183818161773161
 20
245.2770690964395044
 30
0.0
 11
4829.1442591425293358
 21
245.2770690964395044
 31
0.0
  0
LINE
  5
CD6C
  8
0
 10
4838.9169455145065513
 20
246.4562005925394885
 30
0.0
 11
4838.9169455145065513
 21
249.5779444414802981
 31
0.0
  0
LINE
  5
CD6D
  8
0
 10
4839.4208825223076929
 20
246.46406358463949
 30
0.0
 11
4839.4208825223076929
 21
249.5779444414802981
 31
0.0
  0
LINE
  5
CD6E
  8
0
 10
4828.3972604751070321
 20
245.275100592539502
 30
0.0
 11
4828.3972604751070321
 21
244.7711635846395097
 31
0.0
  0
LINE
  5
CD6F
  8
0
 10
4828.3972604751070321
 20
245.275100592539502
 30
0.0
 11
4837.7358455145076732
 21
245.275100592539502
 31
0.0
  0
ARC
  5
CD70
  8
0
 10
4828.4189718454717877
 20
245.2572194634479104
 30
0.0
 40
0.0198584003502213
 50
91.7026126831821244
 51
115.7541230316154071
  0
ARC
  5
CD71
  8
0
 10
4828.4190530628156921
 20
244.789275884181194
 30
0.0
 40
0.0201019161702219
 50
244.3237191006747935
 51
267.3737921148683085
  0
ARC
  5
CD72
  8
0
 10
4837.7358455145076732
 20
246.4562005925394885
 30
0.0
 40
1.1811
 50
270.0
 51
0.0
  0
ARC
  5
CD73
  8
0
 10
4829.1431094654490153
 20
245.2567749409448936
 30
0.0
 40
0.0203266943850516
 50
64.3938684170574334
 51
86.7576225265707137
  0
ARC
  5
CD74
  8
0
 10
4829.1432411870337091
 20
244.7891143149360005
 30
0.0
 40
0.0199317145834234
 50
272.0276920050985154
 51
295.7614441311025075
  0
ARC
  5
CD75
  8
0
 10
4837.7279825223076841
 20
246.46406358463949
 30
0.0
 40
1.6929000000000001
 50
270.0
 51
0.0
  0
LINE
  5
CD76
  8
0
 10
4833.9110400027066134
 20
244.7691950807395074
 30
0.0
 11
4834.6748195302079694
 21
244.7691950807395074
 31
0.0
  0
LINE
  5
CD77
  8
0
 10
4833.9110400027066134
 20
244.7691950807395074
 30
0.0
 11
4833.9110400027066134
 21
242.4266903563394919
 31
0.0
  0
ARC
  5
CD78
  8
0
 10
4833.9307778761331065
 20
244.7890305026502062
 30
0.0
 40
0.019843431410955
 50
244.2410737693624867
 51
268.3720293898109048
  0
ARC
  5
CD79
  8
0
 10
4833.9307400027073527
 20
242.4266903563394919
 30
0.0
 40
0.0197
 50
180.0
 51
270.0
  0
LINE
  5
CD7A
  8
0
 10
4834.6748195302079694
 20
244.7691950807395074
 30
0.0
 11
4834.6748195302079694
 21
242.4266903563394919
 31
0.0
  0
ARC
  5
CD7B
  8
0
 10
4834.6550142038649938
 20
244.7892224942274026
 30
0.0
 40
0.0200456717627091
 50
272.4456266673565779
 51
295.6941231495875968
  0
ARC
  5
CD7C
  8
0
 10
4834.6551195302081396
 20
242.4266903563394919
 30
0.0
 40
0.0197
 50
270.0
 51
0.0000000000081422
  0
ENDSEC
  0
EOF
