  0
SECTION
  2
HEADER
  9
$ACADVER
  1
AC1009
  9
$INSBASE
 10
3508.9256615200101805
 20
160.6915986591941135
 30
0.0
  9
$EXTMIN
 10
3507.8232997932609578
 20
157.4136308201480858
 30
0.0
  9
$EXTMAX
 10
3510.0280232467612223
 20
160.696280124249995
 30
0.0
  9
$LIMMIN
 10
0.0
 20
0.0
  9
$LIMMAX
 10
11.6929133858000007
 20
8.2677165353999982
  9
$ORTHOMODE
 70
     0
  9
$REGENMODE
 70
     1
  9
$FILLMODE
 70
     1
  9
$QTEXTMODE
 70
     0
  9
$MIRRTEXT
 70
     0
  9
$DRAGMODE
 70
     2
  9
$LTSCALE
 40
0.6431102362
  9
$OSMODE
 70
  3839
  9
$ATTMODE
 70
     1
  9
$TEXTSIZE
 40
0.2
  9
$TRACEWID
 40
0.05
  9
$TEXTSTYLE
  7
STANDARD
  9
$CLAYER
  8
0
  9
$CELTYPE
  6
BYLAYER
  9
$CECOLOR
 62
   256
  9
$DIMSCALE
 40
1.0
  9
$DIMASZ
 40
0.1875
  9
$DIMEXO
 40
0.0625
  9
$DIMDLI
 40
0.4443307087
  9
$DIMRND
 40
0.0
  9
$DIMDLE
 40
0.0
  9
$DIMEXE
 40
0.125
  9
$DIMTP
 40
0.01
  9
$DIMTM
 40
0.01
  9
$DIMTXT
 40
2.0
  9
$DIMCEN
 40
0.1052362205
  9
$DIMTSZ
 40
0.0
  9
$DIMTOL
 70
     1
  9
$DIMLIM
 70
     0
  9
$DIMTIH
 70
     1
  9
$DIMTOH
 70
     1
  9
$DIMSE1
 70
     0
  9
$DIMSE2
 70
     0
  9
$DIMTAD
 70
     0
  9
$DIMZIN
 70
     0
  9
$DIMBLK
  1

  9
$DIMASO
 70
     1
  9
$DIMSHO
 70
     1
  9
$DIMPOST
  1
\X
  9
$DIMAPOST
  1

  9
$DIMALT
 70
     1
  9
$DIMALTD
 70
     2
  9
$DIMALTF
 40
25.3999999999999986
  9
$DIMLFAC
 40
1.0
  9
$DIMTOFL
 70
     0
  9
$DIMTVP
 40
0.0
  9
$DIMTIX
 70
     0
  9
$DIMSOXD
 70
     0
  9
$DIMSAH
 70
     0
  9
$DIMBLK1
  1

  9
$DIMBLK2
  1

  9
$DIMSTYLE
  2
STANDARD
  9
$DIMCLRD
 70
     0
  9
$DIMCLRE
 70
     0
  9
$DIMCLRT
 70
     0
  9
$DIMTFAC
 40
1.0
  9
$DIMGAP
 40
0.09
  9
$LUNITS
 70
     2
  9
$LUPREC
 70
     4
  9
$SKETCHINC
 40
0.1
  9
$FILLETRAD
 40
0.0
  9
$AUNITS
 70
     0
  9
$AUPREC
 70
     0
  9
$MENU
  1
.
  9
$ELEVATION
 40
0.0
  9
$PELEVATION
 40
0.0
  9
$THICKNESS
 40
0.0
  9
$LIMCHECK
 70
     0
  9
$BLIPMODE
 70
     0
  9
$CHAMFERA
 40
0.0
  9
$CHAMFERB
 40
0.0
  9
$SKPOLY
 70
     0
  9
$TDCREATE
 40
2458060.468368056230247
  9
$TDUPDATE
 40
2459202.9943402782082558
  9
$TDINDWG
 40
0.5933982638999999
  9
$TDUSRTIMER
 40
0.5933982638999999
  9
$USRTIMER
 70
     1
  9
$ANGBASE
 50
0.0
  9
$ANGDIR
 70
     0
  9
$PDMODE
 70
     0
  9
$PDSIZE
 40
0.3125
  9
$PLINEWID
 40
0.0
  9
$COORDS
 70
     1
  9
$SPLFRAME
 70
     0
  9
$SPLINETYPE
 70
     6
  9
$SPLINESEGS
 70
     8
  9
$ATTDIA
 70
     1
  9
$ATTREQ
 70
     1
  9
$HANDLING
 70
     1
  9
$HANDSEED
  5
13B94
  9
$SURFTAB1
 70
     6
  9
$SURFTAB2
 70
     6
  9
$SURFTYPE
 70
     6
  9
$SURFU
 70
     6
  9
$SURFV
 70
     6
  9
$UCSNAME
  2

  9
$UCSORG
 10
0.0
 20
0.0
 30
0.0
  9
$UCSXDIR
 10
1.0
 20
0.0
 30
0.0
  9
$UCSYDIR
 10
0.0
 20
1.0
 30
0.0
  9
$PUCSNAME
  2

  9
$PUCSORG
 10
0.0
 20
0.0
 30
0.0
  9
$PUCSXDIR
 10
1.0
 20
0.0
 30
0.0
  9
$PUCSYDIR
 10
0.0
 20
1.0
 30
0.0
  9
$USERI1
 70
     0
  9
$USERI2
 70
     0
  9
$USERI3
 70
     0
  9
$USERI4
 70
     0
  9
$USERI5
 70
     0
  9
$USERR1
 40
0.0
  9
$USERR2
 40
0.0
  9
$USERR3
 40
0.0
  9
$USERR4
 40
0.0
  9
$USERR5
 40
0.0
  9
$WORLDVIEW
 70
     1
  9
$SHADEDGE
 70
     3
  9
$SHADEDIF
 70
    70
  9
$TILEMODE
 70
     1
  9
$MAXACTVP
 70
    64
  9
$PLIMCHECK
 70
     0
  9
$PEXTMIN
 10
1.0000000000000000E+20
 20
1.0000000000000000E+20
 30
1.0000000000000000E+20
  9
$PEXTMAX
 10
-1.0000000000000000E+20
 20
-1.0000000000000000E+20
 30
-1.0000000000000000E+20
  9
$PLIMMIN
 10
0.0
 20
0.0
  9
$PLIMMAX
 10
12.0
 20
9.0
  9
$UNITMODE
 70
     0
  9
$VISRETAIN
 70
     1
  9
$PLINEGEN
 70
     0
  9
$PSLTSCALE
 70
     1
  0
ENDSEC
  0
SECTION
  2
TABLES
  0
TABLE
  2
VPORT
 70
     1
  0
VPORT
  2
*ACTIVE
 70
     0
 10
0.0
 20
0.0
 11
1.0
 21
1.0
 12
-6.5736060581148186
 22
-1.6269826991876211
 13
0.0
 23
0.0
 14
1.0
 24
1.0
 15
0.0
 25
0.0
 16
0.0
 26
0.0
 36
20.9203132949307395
 17
3515.499267578125
 27
160.6819381713866903
 37
0.0
 40
3.3189885952912279
 41
3.1182994454713491
 42
50.0
 43
0.0
 44
0.0
 50
0.0
 51
0.0
 71
     0
 72
   100
 73
     1
 74
     1
 75
     0
 76
     0
 77
     0
 78
     0
  0
ENDTAB
  0
TABLE
  2
LTYPE
 70
     2
  0
LTYPE
  2
CONTINUOUS
 70
     0
  3
Solid line
 72
    65
 73
     0
 40
0.0
  0
LTYPE
  2
PHANTOM2
 70
     0
  3
___ _ _ ___ _ _ ___ _ _ ___ _ _
 72
    65
 73
     6
 40
1.25
 49
0.625
 49
-0.125
 49
0.125
 49
-0.125
 49
0.125
 49
-0.125
  0
ENDTAB
  0
TABLE
  2
LAYER
 70
     2
  0
LAYER
  2
0
 70
     0
 62
   255
  6
CONTINUOUS
  0
LAYER
  2
DEFPOINTS
 70
     0
 62
     7
  6
CONTINUOUS
  0
ENDTAB
  0
TABLE
  2
STYLE
 70
     1
  0
STYLE
  2
STANDARD
 70
     0
 40
0.0
 41
0.8
 50
0.0
 71
     0
 42
0.2
  3
txt
  4

  0
ENDTAB
  0
TABLE
  2
VIEW
 70
     0
  0
ENDTAB
  0
TABLE
  2
UCS
 70
     0
  0
ENDTAB
  0
TABLE
  2
APPID
 70
     9
  0
APPID
  2
ACAD
 70
     0
  0
APPID
  2
ACAD_MLEADERVER
 70
     0
  0
APPID
  2
ACAD_EXEMPT_FROM_CAD_STANDARDS
 70
     0
  0
APPID
  2
ACAD_NAV_VCDISPLAY
 70
     0
  0
APPID
  2
ACAECLAYERSTANDARD
 70
     0
  0
APPID
  2
ACCMTRANSPARENCY
 70
     0
  0
APPID
  2
ACAD_DSTYLE_DIMJAG
 70
     0
  0
APPID
  2
ACAD_DSTYLE_DIMTALN
 70
     0
  0
APPID
  2
ACDBATTR
 70
     0
  0
ENDTAB
  0
TABLE
  2
DIMSTYLE
 70
     1
  0
DIMSTYLE
  2
STANDARD
 70
     0
  3

  4

  5

  6

  7

 40
1.0
 41
0.1875
 42
0.0625
 43
0.38
 44
0.125
 45
0.0
 46
0.0
 47
0.01
 48
0.01
140
0.15625
141
0.09
142
0.0
143
25.3999999999999986
144
1.0
145
0.0
146
1.0
147
0.09
 71
     1
 72
     0
 73
     1
 74
     1
 75
     0
 76
     0
 77
     0
 78
     4
170
     0
171
     2
172
     0
173
     0
174
     0
175
     0
176
     0
177
     0
178
     0
  0
ENDTAB
  0
ENDSEC
  0
SECTION
  2
BLOCKS
  0
BLOCK
  8
0
  2
$MODEL_SPACE
 70
     0
 10
0.0
 20
0.0
 30
0.0
  3
$MODEL_SPACE
  1

  0
ENDBLK
  5
21
  8
0
  0
BLOCK
 67
     1
  8
0
  2
$PAPER_SPACE
 70
     0
 10
0.0
 20
0.0
 30
0.0
  3
$PAPER_SPACE
  1

  0
ENDBLK
  5
1D
 67
     1
  8
0
  0
BLOCK
  8
0
  2
_FILLED
 70
     0
 10
0.0
 20
0.0
 30
0.0
  3
_FILLED
  1

  0
SOLID
  5
13356
  8
0
  6
BYBLOCK
 62
     0
 10
0.0
 20
0.0
 30
0.0
 11
-1.0
 21
0.1666666667
 31
0.0
 12
-1.0
 22
-0.1666666667
 32
0.0
 13
-1.0
 23
-0.1666666667
 33
0.0
  0
ENDBLK
  5
13357
  8
0
  6
BYBLOCK
 62
     0
  0
ENDSEC
  0
SECTION
  2
ENTITIES
  0
ATTDEF
  5
12BEB
  8
DEFPOINTS
 10
3508.9263163770410756
 20
160.6952801242499049
 30
0.0
 40
0.001
  1
K-11792IN-4
  3

  2
MODELNUMBER
 70
     0
1001
ACDBATTR
1070
     0
1070
     1
  0
ATTDEF
  5
12BEC
  8
DEFPOINTS
 10
3508.9263163770410756
 20
160.6936134575832966
 30
0.0
 40
0.001
  1
SYMBOL
  3

  2
TRADENAME
 70
     0
1001
ACDBATTR
1070
     0
1070
     1
  0
ATTDEF
  5
12BED
  8
DEFPOINTS
 10
3508.9263163770410756
 20
160.691946790916603
 30
0.0
 40
0.001
  1
VALVE TRIM
  3

  2
PRODUCT
 70
     0
1001
ACDBATTR
1070
     0
1070
     1
  0
LINE
  5
13A21
  8
0
 10
3510.0280232467612223
 20
160.6915986591941135
 30
0.0
 11
3507.8232997932609578
 21
160.6915986591941135
 31
0.0
  0
LINE
  5
13A22
  8
0
 10
3510.0280232467612223
 20
160.6915986591941135
 30
0.0
 11
3510.0280232467612223
 21
160.5532282518958027
 31
0.0
  0
LINE
  5
13A23
  8
0
 10
3509.6627620592748826
 20
160.2742758245940138
 30
0.0
 11
3508.1885609807459332
 21
160.2742758245940138
 31
0.0
  0
LINE
  5
13A24
  8
0
 10
3509.5174100273820841
 20
159.0971104701941101
 30
0.0
 11
3508.3339130126391865
 21
159.0971104701941101
 31
0.0
  0
LINE
  5
13A25
  8
0
 10
3509.5207281874568253
 20
159.0656144071940048
 30
0.0
 11
3508.3305948525639906
 21
159.0656144071940048
 31
0.0
  0
LINE
  5
13A26
  8
0
 10
3509.5358977404598591
 20
160.2742758245940138
 30
0.0
 11
3509.5358977404598591
 21
159.1164339095491869
 31
0.0
  0
LINE
  5
13A27
  8
0
 10
3510.0119356807781514
 20
160.5223204453940866
 30
0.0
 11
3507.8393873592431191
 21
160.5223204453940866
 31
0.0
  0
ARC
  5
13A28
  8
0
 10
3509.9886206509208932
 20
160.5540966641995055
 30
0.0
 40
0.0394121643506734
 50
306.2684543690460259
 51
358.7374358217670078
  0
ARC
  5
13A29
  8
0
 10
3038.6309891779228565
 20
802.9707752304657333
 30
0.0
 40
796.8312329355907195
 50
306.2392211090839282
 51
306.2684543690460259
  0
ARC
  5
13A2A
  8
0
 10
3509.6606171738621924
 20
160.3139183580559006
 30
0.0
 40
0.0397005162775727
 50
273.0970062048505156
 51
306.2392211090839282
  0
ARC
  5
13A2B
  8
0
 10
3509.5161402005201126
 20
159.1168311632534937
 30
0.0
 40
0.0197615332149143
 50
273.6842223107780114
 51
358.8481413028670204
  0
ARC
  5
13A2C
  8
0
 10
3509.4377521132300899
 20
159.0576039295231112
 30
0.0
 40
0.0396713737002581
 50
95.2248234330408536
 51
168.3468457532630964
  0
ARC
  5
13A2D
  8
0
 10
3509.5099547512359095
 20
159.0411477476905873
 30
0.0
 40
0.0267335810406765
 50
358.6981080707078036
 51
66.2346037619620347
  0
ARC
  5
13A2E
  8
0
 10
3482.8585092801918108
 20
160.7156211749363024
 30
0.0
 40
26.730708278815019
 50
353.2397768891624992
 51
356.4072038057361169
  0
ARC
  5
13A2F
  8
0
 10
3509.3218603593841181
 20
157.5749095407450966
 30
0.0
 40
0.0817231270331457
 50
319.7124343064808727
 51
355.8721486412204058
  0
ARC
  5
13A30
  8
0
 10
3508.8162552137591774
 20
158.0388075500387117
 30
0.0
 40
0.767843176159073
 50
307.8139567694922789
 51
317.7026130106614232
  0
ARC
  5
13A31
  8
0
 10
3509.2333218675407807
 20
157.5080349989503077
 30
0.0
 40
0.0929156020270592
 50
282.2001566719466155
 51
305.3042559441278172
  0
ARC
  5
13A32
  8
0
 10
3509.2377947279460386
 20
157.4474714975370091
 30
0.0
 40
0.0338406773888994
 50
241.4499072381495921
 51
296.6194818228972849
  0
ARC
  5
13A33
  8
0
 10
3509.3460145032740911
 20
157.560695814978601
 30
0.0
 40
0.0582591464023841
 50
9.3279985503087133
 51
69.1498286001509541
  0
ARC
  5
13A34
  8
0
 10
3509.1160129845961819
 20
156.8635714859373991
 30
0.0
 40
0.7922904932322296
 50
71.550324994607621
 51
88.4458682195209747
  0
LINE
  5
13A36
  8
0
 10
3507.8232997932609578
 20
160.6915986591941135
 30
0.0
 11
3507.8232997932609578
 21
160.5532282518958027
 31
0.0
  0
LINE
  5
13A37
  8
0
 10
3508.3154252995600473
 20
160.2742758245940138
 30
0.0
 11
3508.3154252995600473
 21
159.1164339095491869
 31
0.0
  0
ARC
  5
13A38
  8
0
 10
3507.8627023890999226
 20
160.5540966641995055
 30
0.0
 40
0.0394121643506734
 50
181.2625641782329069
 51
233.7315456309540878
  0
ARC
  5
13A39
  8
0
 10
3979.2203338620979594
 20
802.9707752304657333
 30
0.0
 40
796.8312329355907195
 50
233.7315456309540878
 51
233.7607788909161002
  0
ARC
  5
13A3A
  8
0
 10
3508.1907058661590781
 20
160.3139183580559006
 30
0.0
 40
0.0397005162775727
 50
233.7607788909161002
 51
266.9029937951495981
  0
ARC
  5
13A3B
  8
0
 10
3508.335182839501158
 20
159.1168311632534937
 30
0.0
 40
0.0197615332149143
 50
181.151858697133008
 51
266.3157776892219886
  0
ARC
  5
13A3C
  8
0
 10
3508.4135709267911807
 20
159.0576039295231112
 30
0.0
 40
0.0396713737002581
 50
11.6531542467368396
 51
84.7751765669591464
  0
ARC
  5
13A3D
  8
0
 10
3508.3413682887839968
 20
159.0411477476905873
 30
0.0
 40
0.0267335810406765
 50
113.7653962380379937
 51
181.3018919292923101
  0
ARC
  5
13A3E
  8
0
 10
3534.9928137598280955
 20
160.7156211749363024
 30
0.0
 40
26.730708278815019
 50
183.5927961942639115
 51
186.7602231108375008
  0
ARC
  5
13A3F
  8
0
 10
3508.529462680638062
 20
157.5749095407450966
 30
0.0
 40
0.0817231270331457
 50
184.1278513587795942
 51
220.2875656935190989
  0
ARC
  5
13A40
  8
0
 10
3509.0350678262630026
 20
158.0388075500387117
 30
0.0
 40
0.767843176159073
 50
222.2973869893386052
 51
232.1860432305078064
  0
ARC
  5
13A41
  8
0
 10
3508.6180011724809447
 20
157.5080349989503077
 30
0.0
 40
0.0929156020270592
 50
234.6957440558722965
 51
257.7998433280533845
  0
ARC
  5
13A42
  8
0
 10
3508.6135283120747772
 20
157.4474714975370091
 30
0.0
 40
0.0338406773888994
 50
243.3805181771028003
 51
298.5500927618502942
  0
ARC
  5
13A43
  8
0
 10
3508.5053085367458152
 20
157.560695814978601
 30
0.0
 40
0.0582591464023841
 50
110.8501713998490033
 51
170.6720014496912938
  0
ARC
  5
13A44
  8
0
 10
3508.7353100554250886
 20
156.8635714859373991
 30
0.0
 40
0.7922904932322296
 50
91.5541317804790395
 51
108.4496750053922938
  0
ARC
  5
13A45
  8
0
 10
3508.9256615200101805
 20
156.9559119493258095
 30
0.0
 40
0.5485278355144537
 50
57.3467854183393513
 51
122.6532145816606061
  0
ARC
  5
13A46
  8
0
 10
3508.9256615200101805
 20
154.5572697240249056
 30
0.0
 40
3.1055343937144602
 50
86.0886148947864314
 51
93.9113851052135828
  0
ENDSEC
  0
EOF
