  0
SECTION
  2
HEADER
  9
$ACADVER
  1
AC1009
  9
$INSBASE
 10
3520.5527230033458181
 20
165.1431359501993938
 30
0.0
  9
$EXTMIN
 10
3505.1983922946969869
 20
157.2580410213994071
 30
0.0
  9
$EXTMAX
 10
3535.9070537119969231
 20
167.6499442330994043
 30
0.0
  9
$LIMMIN
 10
0.0
 20
0.0
  9
$LIMMAX
 10
11.6929133858000007
 20
8.2677165353999982
  9
$ORTHOMODE
 70
     0
  9
$REGENMODE
 70
     1
  9
$FILLMODE
 70
     1
  9
$QTEXTMODE
 70
     0
  9
$MIRRTEXT
 70
     0
  9
$DRAGMODE
 70
     2
  9
$LTSCALE
 40
0.6431102362
  9
$OSMODE
 70
  3839
  9
$ATTMODE
 70
     1
  9
$TEXTSIZE
 40
0.2
  9
$TRACEWID
 40
0.05
  9
$TEXTSTYLE
  7
STANDARD
  9
$CLAYER
  8
0
  9
$CELTYPE
  6
BYLAYER
  9
$CECOLOR
 62
   256
  9
$DIMSCALE
 40
1.0
  9
$DIMASZ
 40
0.1875
  9
$DIMEXO
 40
0.0625
  9
$DIMDLI
 40
0.4443307087
  9
$DIMRND
 40
0.0
  9
$DIMDLE
 40
0.0
  9
$DIMEXE
 40
0.125
  9
$DIMTP
 40
0.01
  9
$DIMTM
 40
0.01
  9
$DIMTXT
 40
2.0
  9
$DIMCEN
 40
0.1052362205
  9
$DIMTSZ
 40
0.0
  9
$DIMTOL
 70
     1
  9
$DIMLIM
 70
     0
  9
$DIMTIH
 70
     1
  9
$DIMTOH
 70
     1
  9
$DIMSE1
 70
     0
  9
$DIMSE2
 70
     0
  9
$DIMTAD
 70
     0
  9
$DIMZIN
 70
     0
  9
$DIMBLK
  1

  9
$DIMASO
 70
     1
  9
$DIMSHO
 70
     1
  9
$DIMPOST
  1
\X
  9
$DIMAPOST
  1

  9
$DIMALT
 70
     1
  9
$DIMALTD
 70
     2
  9
$DIMALTF
 40
25.3999999999999986
  9
$DIMLFAC
 40
1.0
  9
$DIMTOFL
 70
     0
  9
$DIMTVP
 40
0.0
  9
$DIMTIX
 70
     0
  9
$DIMSOXD
 70
     0
  9
$DIMSAH
 70
     0
  9
$DIMBLK1
  1

  9
$DIMBLK2
  1

  9
$DIMSTYLE
  2
STANDARD
  9
$DIMCLRD
 70
     0
  9
$DIMCLRE
 70
     0
  9
$DIMCLRT
 70
     0
  9
$DIMTFAC
 40
1.0
  9
$DIMGAP
 40
0.09
  9
$LUNITS
 70
     2
  9
$LUPREC
 70
     4
  9
$SKETCHINC
 40
0.1
  9
$FILLETRAD
 40
0.0
  9
$AUNITS
 70
     0
  9
$AUPREC
 70
     0
  9
$MENU
  1
.
  9
$ELEVATION
 40
0.0
  9
$PELEVATION
 40
0.0
  9
$THICKNESS
 40
0.0
  9
$LIMCHECK
 70
     0
  9
$BLIPMODE
 70
     0
  9
$CHAMFERA
 40
0.0
  9
$CHAMFERB
 40
0.0
  9
$SKPOLY
 70
     0
  9
$TDCREATE
 40
2458060.468368056230247
  9
$TDUPDATE
 40
2459174.5425115739926696
  9
$TDINDWG
 40
0.583097338
  9
$TDUSRTIMER
 40
0.583097338
  9
$USRTIMER
 70
     1
  9
$ANGBASE
 50
0.0
  9
$ANGDIR
 70
     0
  9
$PDMODE
 70
     0
  9
$PDSIZE
 40
0.3125
  9
$PLINEWID
 40
0.0
  9
$COORDS
 70
     1
  9
$SPLFRAME
 70
     0
  9
$SPLINETYPE
 70
     6
  9
$SPLINESEGS
 70
     8
  9
$ATTDIA
 70
     1
  9
$ATTREQ
 70
     1
  9
$HANDLING
 70
     1
  9
$HANDSEED
  5
13DF3
  9
$SURFTAB1
 70
     6
  9
$SURFTAB2
 70
     6
  9
$SURFTYPE
 70
     6
  9
$SURFU
 70
     6
  9
$SURFV
 70
     6
  9
$UCSNAME
  2

  9
$UCSORG
 10
0.0
 20
0.0
 30
0.0
  9
$UCSXDIR
 10
1.0
 20
0.0
 30
0.0
  9
$UCSYDIR
 10
0.0
 20
1.0
 30
0.0
  9
$PUCSNAME
  2

  9
$PUCSORG
 10
0.0
 20
0.0
 30
0.0
  9
$PUCSXDIR
 10
1.0
 20
0.0
 30
0.0
  9
$PUCSYDIR
 10
0.0
 20
1.0
 30
0.0
  9
$USERI1
 70
     0
  9
$USERI2
 70
     0
  9
$USERI3
 70
     0
  9
$USERI4
 70
     0
  9
$USERI5
 70
     0
  9
$USERR1
 40
0.0
  9
$USERR2
 40
0.0
  9
$USERR3
 40
0.0
  9
$USERR4
 40
0.0
  9
$USERR5
 40
0.0
  9
$WORLDVIEW
 70
     1
  9
$SHADEDGE
 70
     3
  9
$SHADEDIF
 70
    70
  9
$TILEMODE
 70
     1
  9
$MAXACTVP
 70
    64
  9
$PLIMCHECK
 70
     0
  9
$PEXTMIN
 10
1.0000000000000000E+20
 20
1.0000000000000000E+20
 30
1.0000000000000000E+20
  9
$PEXTMAX
 10
-1.0000000000000000E+20
 20
-1.0000000000000000E+20
 30
-1.0000000000000000E+20
  9
$PLIMMIN
 10
0.0
 20
0.0
  9
$PLIMMAX
 10
12.0
 20
9.0
  9
$UNITMODE
 70
     0
  9
$VISRETAIN
 70
     1
  9
$PLINEGEN
 70
     0
  9
$PSLTSCALE
 70
     1
  0
ENDSEC
  0
SECTION
  2
TABLES
  0
TABLE
  2
VPORT
 70
     1
  0
VPORT
  2
*ACTIVE
 70
     0
 10
0.0
 20
0.0
 11
1.0
 21
1.0
 12
0.0
 22
0.0
 13
0.0
 23
0.0
 14
1.0
 24
1.0
 15
0.0
 25
0.0
 16
0.0
 26
0.0
 36
127.4206596293605998
 17
3520.552734375
 27
162.4539947509765057
 37
0.0
 40
32.4191834875123632
 41
3.1182994454713491
 42
50.0
 43
0.0
 44
0.0
 50
0.0
 51
0.0
 71
     0
 72
   100
 73
     1
 74
     1
 75
     0
 76
     0
 77
     0
 78
     0
  0
ENDTAB
  0
TABLE
  2
LTYPE
 70
     2
  0
LTYPE
  2
CONTINUOUS
 70
     0
  3
Solid line
 72
    65
 73
     0
 40
0.0
  0
LTYPE
  2
PHANTOM2
 70
     0
  3
___ _ _ ___ _ _ ___ _ _ ___ _ _
 72
    65
 73
     6
 40
1.25
 49
0.625
 49
-0.125
 49
0.125
 49
-0.125
 49
0.125
 49
-0.125
  0
ENDTAB
  0
TABLE
  2
LAYER
 70
     2
  0
LAYER
  2
0
 70
     0
 62
   255
  6
CONTINUOUS
  0
LAYER
  2
DEFPOINTS
 70
     0
 62
     7
  6
CONTINUOUS
  0
ENDTAB
  0
TABLE
  2
STYLE
 70
     1
  0
STYLE
  2
STANDARD
 70
     0
 40
0.0
 41
0.8
 50
0.0
 71
     0
 42
0.2
  3
txt
  4

  0
ENDTAB
  0
TABLE
  2
VIEW
 70
     0
  0
ENDTAB
  0
TABLE
  2
UCS
 70
     0
  0
ENDTAB
  0
TABLE
  2
APPID
 70
     9
  0
APPID
  2
ACAD
 70
     0
  0
APPID
  2
ACAD_MLEADERVER
 70
     0
  0
APPID
  2
ACAD_EXEMPT_FROM_CAD_STANDARDS
 70
     0
  0
APPID
  2
ACAD_NAV_VCDISPLAY
 70
     0
  0
APPID
  2
ACAECLAYERSTANDARD
 70
     0
  0
APPID
  2
ACCMTRANSPARENCY
 70
     0
  0
APPID
  2
ACAD_DSTYLE_DIMJAG
 70
     0
  0
APPID
  2
ACAD_DSTYLE_DIMTALN
 70
     0
  0
APPID
  2
ACDBATTR
 70
     0
  0
ENDTAB
  0
TABLE
  2
DIMSTYLE
 70
     1
  0
DIMSTYLE
  2
STANDARD
 70
     0
  3

  4

  5

  6

  7

 40
1.0
 41
0.1875
 42
0.0625
 43
0.38
 44
0.125
 45
0.0
 46
0.0
 47
0.01
 48
0.01
140
0.15625
141
0.09
142
0.0
143
25.3999999999999986
144
1.0
145
0.0
146
1.0
147
0.09
 71
     1
 72
     0
 73
     1
 74
     1
 75
     0
 76
     0
 77
     0
 78
     4
170
     0
171
     2
172
     0
173
     0
174
     0
175
     0
176
     0
177
     0
178
     0
  0
ENDTAB
  0
ENDSEC
  0
SECTION
  2
BLOCKS
  0
BLOCK
  8
0
  2
$MODEL_SPACE
 70
     0
 10
0.0
 20
0.0
 30
0.0
  3
$MODEL_SPACE
  1

  0
ENDBLK
  5
21
  8
0
  0
BLOCK
 67
     1
  8
0
  2
$PAPER_SPACE
 70
     0
 10
0.0
 20
0.0
 30
0.0
  3
$PAPER_SPACE
  1

  0
ENDBLK
  5
1D
 67
     1
  8
0
  0
BLOCK
  8
0
  2
_FILLED
 70
     0
 10
0.0
 20
0.0
 30
0.0
  3
_FILLED
  1

  0
SOLID
  5
13356
  8
0
  6
BYBLOCK
 62
     0
 10
0.0
 20
0.0
 30
0.0
 11
-1.0
 21
0.1666666667
 31
0.0
 12
-1.0
 22
-0.1666666667
 32
0.0
 13
-1.0
 23
-0.1666666667
 33
0.0
  0
ENDBLK
  5
13357
  8
0
  6
BYBLOCK
 62
     0
  0
ENDSEC
  0
SECTION
  2
ENTITIES
  0
ATTDEF
  5
12BEB
  8
DEFPOINTS
 10
3520.5529728674641774
 20
165.141704640935103
 30
0.0
 40
0.001
  1
K-11825T-2KD
  3

  2
MODELNUMBER
 70
     0
1001
ACDBATTR
1070
     0
1070
     1
  0
ATTDEF
  5
12BEC
  8
DEFPOINTS
 10
3520.5529728674641774
 20
165.1400379742684095
 30
0.0
 40
0.001
  1
MIDDLETON
  3

  2
TRADENAME
 70
     0
1001
ACDBATTR
1070
     0
1070
     1
  0
ATTDEF
  5
12BED
  8
DEFPOINTS
 10
3520.5529728674641774
 20
165.1383713076018012
 30
0.0
 40
0.001
  1
KITCHEN SINK
  3

  2
PRODUCT
 70
     0
1001
ACDBATTR
1070
     0
1070
     1
  0
LINE
  5
13A30
  8
0
 10
3505.5198143174538927
 20
165.3883683757993879
 30
0.0
 11
3535.5856316892391078
 21
165.3883683757993879
 31
0.0
  0
LINE
  5
13A31
  8
0
 10
3505.1983922946969869
 20
165.1431359501993938
 30
0.0
 11
3535.9070537119969231
 21
165.1431359501993938
 31
0.0
  0
LINE
  5
13A32
  8
0
 10
3505.1983922946969869
 20
165.1915179820994126
 30
0.0
 11
3535.9070537119969231
 21
165.1915179820994126
 31
0.0
  0
LINE
  5
13A33
  8
0
 10
3506.4316407687438186
 20
165.0340376670993976
 30
0.0
 11
3507.9542978064969247
 21
165.0340376670993976
 31
0.0
  0
LINE
  5
13A34
  8
0
 10
3508.4464237907968709
 20
165.0340376670993976
 30
0.0
 11
3509.0369749718970525
 21
165.0340376670993976
 31
0.0
  0
LINE
  5
13A35
  8
0
 10
3509.5291009561969986
 20
165.0340376670993976
 30
0.0
 11
3515.8283135544970719
 21
165.0340376670993976
 31
0.0
  0
LINE
  5
13A36
  8
0
 10
3516.320439538797018
 20
165.0340376670993976
 30
0.0
 11
3516.9109907198958354
 21
165.0340376670993976
 31
0.0
  0
LINE
  5
13A37
  8
0
 10
3517.4031167041957815
 20
165.0340376670993976
 30
0.0
 11
3523.7023293024958548
 21
165.0340376670993976
 31
0.0
  0
LINE
  5
13A38
  8
0
 10
3524.1944552867958009
 20
165.0340376670993976
 30
0.0
 11
3524.7850064678959825
 21
165.0340376670993976
 31
0.0
  0
LINE
  5
13A39
  8
0
 10
3525.2771324521968381
 20
165.0340376670993976
 30
0.0
 11
3531.5763450504969114
 21
165.0340376670993976
 31
0.0
  0
LINE
  5
13A3A
  8
0
 10
3532.0684710347959481
 20
165.0340376670993976
 30
0.0
 11
3532.6590222158970391
 21
165.0340376670993976
 31
0.0
  0
LINE
  5
13A3B
  8
0
 10
3533.1511482001969853
 20
165.0340376670993976
 30
0.0
 11
3534.6738052379491819
 21
165.0340376670993976
 31
0.0
  0
LINE
  5
13A3C
  8
0
 10
3505.9542978064969247
 20
164.7584471159993882
 30
0.0
 11
3505.9857938694958648
 21
164.7584471159993882
 31
0.0
  0
LINE
  5
13A3D
  8
0
 10
3508.151148200201078
 20
164.7584471159993882
 30
0.0
 11
3509.3322505624919359
 21
164.7584471159993882
 31
0.0
  0
LINE
  5
13A3E
  8
0
 10
3505.9542978064969247
 20
164.7584471159993882
 30
0.0
 11
3505.9542978064969247
 21
165.1431359501993938
 31
0.0
  0
LINE
  5
13A3F
  8
0
 10
3505.9857938694958648
 20
164.7584471159993882
 30
0.0
 11
3505.9857938694958648
 21
165.1431359501993938
 31
0.0
  0
LINE
  5
13A40
  8
0
 10
3506.2540887532968554
 20
165.1431359501993938
 30
0.0
 11
3506.3147558457958439
 21
165.0824688576994106
 31
0.0
  0
ARC
  5
13A41
  8
0
 10
3506.431679093708226
 20
165.199392105610201
 30
0.0
 40
0.1653544429522018
 50
224.9999999999953957
 51
269.9867202922898173
  0
LINE
  5
13A42
  8
0
 10
3505.1983922946969869
 20
165.1431359501993938
 30
0.0
 11
3505.1983922946969869
 21
165.1915179820994126
 31
0.0
  0
LINE
  5
13A43
  8
0
 10
3505.1983922946969869
 20
165.1915179820994126
 30
0.0
 11
3505.4329162095991705
 21
165.3590350641993894
 31
0.0
  0
ARC
  5
13A44
  8
0
 10
3505.5248409338178135
 20
165.2300955672835983
 30
0.0
 40
0.1583526090329418
 50
91.8190561776619916
 51
125.4861774317597991
  0
ARC
  5
13A45
  8
0
 10
3506.5775973691970648
 20
164.7978171946994053
 30
0.0
 40
0.2362204723999981
 50
4.0000000046693929
 51
90.0
  0
LINE
  5
13A46
  8
0
 10
3506.8132424203968185
 20
164.814295101899404
 30
0.0
 11
3507.2019236720771005
 21
159.2558942478858057
 31
0.0
  0
ARC
  5
13A47
  8
0
 10
3509.0084944027407801
 20
159.3822219797795867
 30
0.0
 40
1.8109821922751139
 50
184.0000000046694026
 51
268.0014481341311807
  0
ARC
  5
13A48
  8
0
 10
1634.7365362861569338
 20
-53551.6662679281580495
 30
0.0
 40
53741.9293533875024877
 50
87.9985373357576748
 51
88.0014481341312091
  0
ARC
  5
13A49
  8
0
 10
3511.6711779682727865
 20
157.3984020753451034
 30
0.0
 40
0.0787025607697977
 50
35.2225729268964116
 51
87.9985373357576748
  0
LINE
  5
13A4A
  8
0
 10
3512.1088487524170887
 20
157.2580410213994071
 30
0.0
 11
3516.0048290925760739
 21
157.2580410213994071
 31
0.0
  0
LINE
  5
13A4B
  8
0
 10
3511.7354714860971399
 20
157.4437941080994108
 30
0.0
 11
3511.7924501958218571
 21
157.3630891590802889
 31
0.0
  0
ARC
  5
13A4C
  8
0
 10
3511.9466464197507776
 20
157.4719536338220109
 30
0.0
 40
0.188753673699021
 50
215.2225729268963903
 51
261.8488431748672838
  0
LINE
  5
13A4D
  8
0
 10
3511.9198839568598487
 20
157.2851068518993998
 30
0.0
 11
3512.1088487524170887
 21
157.2580410213994071
 31
0.0
  0
LINE
  5
13A4E
  8
0
 10
3508.4464237907968709
 20
164.9159274308993872
 30
0.0
 11
3508.4464237907968709
 21
165.1127778245993909
 31
0.0
  0
LINE
  5
13A4F
  8
0
 10
3508.4464237907968709
 20
165.1127778245993909
 30
0.0
 11
3509.0369749718970525
 21
165.1127778245993909
 31
0.0
  0
LINE
  5
13A50
  8
0
 10
3509.0369749718970525
 20
165.1127778245993909
 30
0.0
 11
3509.0369749718970525
 21
164.9159274308993872
 31
0.0
  0
LINE
  5
13A51
  8
0
 10
3509.0369749718970525
 20
164.9159274308993872
 30
0.0
 11
3508.4464237907968709
 21
164.9159274308993872
 31
0.0
  0
LINE
  5
13A52
  8
0
 10
3507.9542978064969247
 20
165.1431359501993938
 30
0.0
 11
3507.9542978064969247
 21
164.9552975097028025
 31
0.0
  0
ARC
  5
13A53
  8
0
 10
3508.151148200201078
 20
164.9552975097028025
 30
0.0
 40
0.1968503937042607
 50
180.0
 51
270.0
  0
LINE
  5
13A54
  8
0
 10
3509.5291009561969986
 20
165.1431359501993938
 30
0.0
 11
3509.5291009561969986
 21
164.9552975097028025
 31
0.0
  0
ARC
  5
13A55
  8
0
 10
3509.3322505624919359
 20
164.9552975097028025
 30
0.0
 40
0.1968503937042607
 50
270.0
 51
0.0
  0
ARC
  5
13A56
  8
0
 10
3521.5360804757960977
 20
164.7978171946994053
 30
0.0
 40
0.2362204723999981
 50
90.0
 51
175.9999999953305974
  0
LINE
  5
13A57
  8
0
 10
3521.3004354245967988
 20
164.814295101899404
 30
0.0
 11
3520.9117541729160621
 21
159.2558942478858057
 31
0.0
  0
ARC
  5
13A58
  8
0
 10
3519.1051834422519278
 20
159.3822219797795867
 30
0.0
 40
1.8109821922751139
 50
271.9985518658688193
 51
355.9999999953290057
  0
ARC
  5
13A59
  8
0
 10
5393.3771415588362288
 20
-53551.6662679281580495
 30
0.0
 40
53741.9293533875024877
 50
91.9985518658687766
 51
92.0014626642423252
  0
ARC
  5
13A5A
  8
0
 10
3516.4424998767199213
 20
157.3984020753451034
 30
0.0
 40
0.0787025607697977
 50
92.0014626642423252
 51
144.7774270731036097
  0
LINE
  5
13A5B
  8
0
 10
3516.3782063588969322
 20
157.4437941080994108
 30
0.0
 11
3516.3212276491708508
 21
157.3630891590802889
 31
0.0
  0
ARC
  5
13A5C
  8
0
 10
3516.1670314252419303
 20
157.4719536338220109
 30
0.0
 40
0.188753673699021
 50
278.1511568251327162
 51
324.7774270731035813
  0
LINE
  5
13A5D
  8
0
 10
3516.1937938881342234
 20
157.2851068518993998
 30
0.0
 11
3516.0048290925760739
 21
157.2580410213994071
 31
0.0
  0
ARC
  5
13A5E
  8
0
 10
3522.2248645150971242
 20
164.7978171946990074
 30
0.0
 40
0.2362204723999981
 50
4.0000000046693929
 51
90.0
  0
LINE
  5
13A5F
  8
0
 10
3522.4605095662968779
 20
164.8142951018988924
 30
0.0
 11
3522.7957542868962264
 21
160.0200722381993899
 31
0.0
  0
ARC
  5
13A60
  8
0
 10
3524.6039060040397999
 20
160.1257303284091051
 30
0.0
 40
1.811236114987403
 50
183.3442361816348978
 51
268.0001244631902182
  0
ARC
  5
13A61
  8
0
 10
1649.0731737616579267
 20
-53550.7091453034372535
 30
0.0
 40
53741.759528814436635
 50
87.998537333280936
 51
88.000099034125995
  0
ARC
  5
13A62
  8
0
 10
3526.0018866296732085
 20
158.1858036501452034
 30
0.0
 40
0.0787025607697977
 50
35.2225729268964116
 51
87.9985373357576748
  0
LINE
  5
13A63
  8
0
 10
3526.4395574138170559
 20
158.0454425961993934
 30
0.0
 11
3530.338158050776201
 21
158.0454425961993934
 31
0.0
  0
LINE
  5
13A64
  8
0
 10
3526.0661801474961976
 20
158.2311956828993971
 30
0.0
 11
3526.1231588572231885
 21
158.1504907338803037
 31
0.0
  0
ARC
  5
13A65
  8
0
 10
3526.2773550811511996
 20
158.2593552086219972
 30
0.0
 40
0.188753673699021
 50
215.2225729268963903
 51
261.8488431748672838
  0
LINE
  5
13A66
  8
0
 10
3526.2505926182589064
 20
158.0725084266993861
 30
0.0
 11
3526.4395574138170559
 21
158.0454425961993934
 31
0.0
  0
LINE
  5
13A67
  8
0
 10
3516.0251639482012251
 20
164.7584471159993882
 30
0.0
 11
3517.2062663104929925
 21
164.7584471159993882
 31
0.0
  0
LINE
  5
13A68
  8
0
 10
3516.320439538797018
 20
164.9159274308993872
 30
0.0
 11
3516.320439538797018
 21
165.1127778245993909
 31
0.0
  0
LINE
  5
13A69
  8
0
 10
3516.320439538797018
 20
165.1127778245993909
 30
0.0
 11
3516.9109907198958354
 21
165.1127778245993909
 31
0.0
  0
LINE
  5
13A6A
  8
0
 10
3516.9109907198958354
 20
165.1127778245993909
 30
0.0
 11
3516.9109907198958354
 21
164.9159274308993872
 31
0.0
  0
LINE
  5
13A6B
  8
0
 10
3516.9109907198958354
 20
164.9159274308993872
 30
0.0
 11
3516.320439538797018
 21
164.9159274308993872
 31
0.0
  0
LINE
  5
13A6C
  8
0
 10
3515.8283135544970719
 20
165.1431359501993938
 30
0.0
 11
3515.8283135544970719
 21
164.9552975097028025
 31
0.0
  0
ARC
  5
13A6D
  8
0
 10
3516.0251639482012251
 20
164.9552975097028025
 30
0.0
 40
0.1968503937042607
 50
180.0
 51
270.0
  0
LINE
  5
13A6E
  8
0
 10
3517.4031167041957815
 20
165.1431359501993938
 30
0.0
 11
3517.4031167041957815
 21
164.9552975097028025
 31
0.0
  0
ARC
  5
13A6F
  8
0
 10
3517.2062663104929925
 20
164.9552975097028025
 30
0.0
 40
0.1968503937042607
 50
270.0
 51
0.0
  0
LINE
  5
13A70
  8
0
 10
3523.8991796962009175
 20
164.7584471159993882
 30
0.0
 11
3525.0802820584917754
 21
164.7584471159993882
 31
0.0
  0
LINE
  5
13A71
  8
0
 10
3524.1944552867958009
 20
164.9159274308993872
 30
0.0
 11
3524.1944552867958009
 21
165.1127778245993909
 31
0.0
  0
LINE
  5
13A72
  8
0
 10
3524.1944552867958009
 20
165.1127778245993909
 30
0.0
 11
3524.7850064678959825
 21
165.1127778245993909
 31
0.0
  0
LINE
  5
13A73
  8
0
 10
3524.7850064678959825
 20
165.1127778245993909
 30
0.0
 11
3524.7850064678959825
 21
164.9159274308993872
 31
0.0
  0
LINE
  5
13A74
  8
0
 10
3524.7850064678959825
 20
164.9159274308993872
 30
0.0
 11
3524.1944552867958009
 21
164.9159274308993872
 31
0.0
  0
LINE
  5
13A75
  8
0
 10
3523.7023293024958548
 20
165.1431359501993938
 30
0.0
 11
3523.7023293024958548
 21
164.9552975097028025
 31
0.0
  0
ARC
  5
13A76
  8
0
 10
3523.8991796962009175
 20
164.9552975097028025
 30
0.0
 40
0.1968503937042607
 50
180.0
 51
270.0
  0
LINE
  5
13A77
  8
0
 10
3525.2771324521968381
 20
165.1431359501993938
 30
0.0
 11
3525.2771324521968381
 21
164.9552975097028025
 31
0.0
  0
ARC
  5
13A78
  8
0
 10
3525.0802820584917754
 20
164.9552975097028025
 30
0.0
 40
0.1968503937042607
 50
270.0
 51
0.0
  0
LINE
  5
13A79
  8
0
 10
3531.7731954442010647
 20
164.7584471159993882
 30
0.0
 11
3532.9542978064919225
 21
164.7584471159993882
 31
0.0
  0
LINE
  5
13A7A
  8
0
 10
3532.0684710347959481
 20
164.9159274308993872
 30
0.0
 11
3532.0684710347959481
 21
165.1127778245993909
 31
0.0
  0
LINE
  5
13A7B
  8
0
 10
3532.0684710347959481
 20
165.1127778245993909
 30
0.0
 11
3532.6590222158970391
 21
165.1127778245993909
 31
0.0
  0
LINE
  5
13A7C
  8
0
 10
3532.6590222158970391
 20
165.1127778245993909
 30
0.0
 11
3532.6590222158970391
 21
164.9159274308993872
 31
0.0
  0
LINE
  5
13A7D
  8
0
 10
3532.6590222158970391
 20
164.9159274308993872
 30
0.0
 11
3532.0684710347959481
 21
164.9159274308993872
 31
0.0
  0
LINE
  5
13A7E
  8
0
 10
3531.5763450504969114
 20
165.1431359501993938
 30
0.0
 11
3531.5763450504969114
 21
164.9552975097028025
 31
0.0
  0
ARC
  5
13A7F
  8
0
 10
3531.7731954442010647
 20
164.9552975097028025
 30
0.0
 40
0.1968503937042607
 50
180.0
 51
270.0
  0
LINE
  5
13A80
  8
0
 10
3533.1511482001969853
 20
165.1431359501993938
 30
0.0
 11
3533.1511482001969853
 21
164.9552975097028025
 31
0.0
  0
ARC
  5
13A81
  8
0
 10
3532.9542978064919225
 20
164.9552975097028025
 30
0.0
 40
0.1968503937042607
 50
270.0
 51
0.0
  0
LINE
  5
13A82
  8
0
 10
3535.1196521371962262
 20
164.7584471159993882
 30
0.0
 11
3535.1511482001969853
 21
164.7584471159993882
 31
0.0
  0
LINE
  5
13A83
  8
0
 10
3535.1196521371962262
 20
164.7584471159993882
 30
0.0
 11
3535.1196521371962262
 21
165.1431359501993938
 31
0.0
  0
LINE
  5
13A84
  8
0
 10
3535.1511482001969853
 20
164.7584471159993882
 30
0.0
 11
3535.1511482001969853
 21
165.1431359501993938
 31
0.0
  0
ARC
  5
13A85
  8
0
 10
3534.5528509494970422
 20
164.7978171946990074
 30
0.0
 40
0.2362204723999981
 50
90.0
 51
175.9999999953305974
  0
LINE
  5
13A86
  8
0
 10
3534.3172058982959243
 20
164.8142951018988924
 30
0.0
 11
3533.9819611776970305
 21
160.0200722381993899
 31
0.0
  0
ARC
  5
13A87
  8
0
 10
3532.1738094605530023
 20
160.1257303284091051
 30
0.0
 40
1.811236114987403
 50
271.9998755368098955
 51
356.655763818365017
  0
ARC
  5
13A88
  8
0
 10
5407.7045417029348755
 20
-53550.7091453034372535
 30
0.0
 40
53741.759528814436635
 50
91.9999009658739908
 51
92.001462666719064
  0
ARC
  5
13A89
  8
0
 10
3530.7758288349200484
 20
158.1858036501452034
 30
0.0
 40
0.0787025607697977
 50
92.0014626642423252
 51
144.7774270731036097
  0
LINE
  5
13A8A
  8
0
 10
3530.7115353170970593
 20
158.2311956828993971
 30
0.0
 11
3530.6545566073709779
 21
158.1504907338803037
 31
0.0
  0
ARC
  5
13A8B
  8
0
 10
3530.5003603834420574
 20
158.2593552086219972
 30
0.0
 40
0.188753673699021
 50
278.1511568251327162
 51
324.7774270731035813
  0
LINE
  5
13A8C
  8
0
 10
3530.5271228463329862
 20
158.0725084266993861
 30
0.0
 11
3530.338158050776201
 21
158.0454425961993934
 31
0.0
  0
LINE
  5
13A8D
  8
0
 10
3535.9070537119969231
 20
165.1431359501993938
 30
0.0
 11
3535.9070537119969231
 21
165.1915179820994126
 31
0.0
  0
LINE
  5
13A8E
  8
0
 10
3535.9070537119969231
 20
165.1915179820994126
 30
0.0
 11
3535.67252979709383
 21
165.3590350641993894
 31
0.0
  0
ARC
  5
13A8F
  8
0
 10
3535.580605072875187
 20
165.2300955672835983
 30
0.0
 40
0.1583526090329418
 50
54.5138225682401867
 51
88.1809438223379942
  0
LINE
  5
13A90
  8
0
 10
3534.8513572533970546
 20
165.1431359501993938
 30
0.0
 11
3534.7906901608957924
 21
165.0824688576994106
 31
0.0
  0
ARC
  5
13A91
  8
0
 10
3534.6737669129861388
 20
165.199392105610201
 30
0.0
 40
0.1653544429522018
 50
270.0132797077101827
 51
315.0000000000046043
  0
ARC
  5
13A92
  8
0
 10
3514.0568389187028515
 20
3316.1561689928830674
 30
0.0
 40
3158.6800112065511712
 50
269.9567759861511718
 51
270.0432240139789997
  0
ARC
  5
13A93
  8
0
 10
3528.3888577377679212
 20
3525.9668444185958833
 30
0.0
 40
3367.7032301966760315
 50
269.9594364811351284
 51
270.040563518682518
  0
LINE
  5
13A94
  8
0
 10
3533.3212294671970994
 20
167.5301006592993929
 30
0.0
 11
3532.1936653583970838
 21
167.5301006592993929
 31
0.0
  0
LINE
  5
13A95
  8
0
 10
3533.3185043979760849
 20
167.4907305804993882
 30
0.0
 11
3532.1963904276180983
 21
167.4907305804993882
 31
0.0
  0
LINE
  5
13A96
  8
0
 10
3533.3186396556311593
 20
167.6302316237994035
 30
0.0
 11
3532.1962551699621145
 21
167.6302316237994035
 31
0.0
  0
LINE
  5
13A97
  8
0
 10
3533.197206735861073
 20
167.6499442330994043
 30
0.0
 11
3532.3176880897322008
 21
167.6499442330994043
 31
0.0
  0
LINE
  5
13A98
  8
0
 10
3533.3124520185970141
 20
165.8923053836994086
 30
0.0
 11
3532.2024428069971691
 21
165.8923053836994086
 31
0.0
  0
LINE
  5
13A99
  8
0
 10
3533.2358654864169694
 20
165.4541503810993959
 30
0.0
 11
3532.2790293391758496
 21
165.4541503810993959
 31
0.0
  0
LINE
  5
13A9A
  8
0
 10
3533.2176167751968023
 20
165.8923053836994086
 30
0.0
 11
3533.2212760598958994
 21
165.4729928868057982
 31
0.0
  0
ARC
  5
13A9B
  8
0
 10
3533.2409603497699209
 20
165.4731646689999991
 30
0.0
 40
0.019685039419682
 50
180.4999999967996018
 51
254.999999253872204
  0
LINE
  5
13A9C
  8
0
 10
3533.2358654864169694
 20
165.4541503810993959
 30
0.0
 11
3533.4813672596328615
 21
165.3883683757993879
 31
0.0
  0
LINE
  5
13A9D
  8
0
 10
3532.8676836332970197
 20
167.1639589269994133
 30
0.0
 11
3532.8676836332970197
 21
166.4945905317837003
 31
0.0
  0
ARC
  5
13A9E
  8
0
 10
3532.7754295480021938
 20
166.4722530258129893
 30
0.0
 40
0.098469867493993
 50
28.0252152406767898
 51
74.364845458328233
  0
ARC
  5
13A9F
  8
0
 10
3532.8130073185129731
 20
166.4949690033598131
 30
0.0
 40
0.0546776246658675
 50
335.2718309296964208
 51
25.5136531660598784
  0
ARC
  5
13AA0
  8
0
 10
3532.7843702492241391
 20
166.5157540825861133
 30
0.0
 40
0.0896493514641745
 50
283.6078284410448873
 51
330.8576948758168896
  0
ARC
  5
13AA1
  8
0
 10
3532.7762989716361517
 20
166.5086621892976098
 30
0.0
 40
0.0654875525263425
 50
284.5717663387777066
 51
328.1759935340700167
  0
ARC
  5
13AA2
  8
0
 10
3532.7980387751322269
 20
166.4915201942422982
 30
0.0
 40
0.0381031069151821
 50
332.8447664398668735
 51
37.1218349287554474
  0
ARC
  5
13AA3
  8
0
 10
3532.7685019058280886
 20
166.4690680300778922
 30
0.0
 40
0.07520463466097
 50
37.1800953316565881
 51
74.5168020599283949
  0
ARC
  5
13AA4
  8
0
 10
3533.1888313404638211
 20
167.4559537629181989
 30
0.0
 40
0.194171186763567
 50
79.9745477078289042
 51
87.5278322913598004
  0
LINE
  5
13AA5
  8
0
 10
3533.2226337553970552
 20
167.6471600559993931
 30
0.0
 11
3533.31863347874787
 21
167.6302327146406981
 31
0.0
  0
ARC
  5
13AA6
  8
0
 10
3533.3165812040751916
 20
167.6185936865917085
 30
0.0
 40
0.0118185788171846
 50
0.5304640487817112
 51
80.0000000050215192
  0
LINE
  5
13AA7
  8
0
 10
3533.3283992763690549
 20
167.6187031054994065
 30
0.0
 11
3533.3291034828957891
 21
167.5379746749993899
 31
0.0
  0
ARC
  5
13AA8
  8
0
 10
3533.3212294671970994
 20
167.5379746749993899
 30
0.0
 40
0.0078740157000006
 50
270.0
 51
0.0
  0
LINE
  5
13AA9
  8
0
 10
3533.3102534416962044
 20
167.5301006592993929
 30
0.0
 11
3533.3105629612050507
 21
167.4946332319993871
 31
0.0
  0
ARC
  5
13AAA
  8
0
 10
3533.3145528130771709
 20
167.4946680509048065
 30
0.0
 40
0.0039900037985537
 50
180.4999999365628014
 51
260.6922146528777944
  0
ARC
  5
13AAB
  8
0
 10
3533.3184954847361041
 20
167.4867935654525866
 30
0.0
 40
0.0039370251363389
 50
0.3528943437693002
 51
89.8702851805063148
  0
LINE
  5
13AAC
  8
0
 10
3533.322432435196788
 20
167.4868178140993962
 30
0.0
 11
3533.3321289796958808
 21
165.9116565256668991
 31
0.0
  0
ARC
  5
13AAD
  8
0
 10
3533.3124467892448592
 20
165.9119904051408128
 30
0.0
 40
0.019685022135991
 50
270.0152206992841002
 51
359.0281544052423897
  0
LINE
  5
13AAE
  8
0
 10
3532.2972780503969261
 20
165.8923053836994086
 30
0.0
 11
3532.2936187656969196
 21
165.4729928868057982
 31
0.0
  0
ARC
  5
13AAF
  8
0
 10
3532.2739344758228981
 20
165.4731646689999991
 30
0.0
 40
0.019685039419682
 50
285.000000746127796
 51
359.5000000032003982
  0
LINE
  5
13AB0
  8
0
 10
3532.2790293391758496
 20
165.4541503810993959
 30
0.0
 11
3532.0335275659599574
 21
165.3883683757993879
 31
0.0
  0
LINE
  5
13AB1
  8
0
 10
3532.6472111922957993
 20
167.1639589269994133
 30
0.0
 11
3532.6472111922957993
 21
166.4945905317837003
 31
0.0
  0
ARC
  5
13AB2
  8
0
 10
3532.7394652775919894
 20
166.4722530258129893
 30
0.0
 40
0.098469867493993
 50
105.6351545416717954
 51
151.9747847593231995
  0
ARC
  5
13AB3
  8
0
 10
3532.7018875070812101
 20
166.4949690033598131
 30
0.0
 40
0.0546776246658675
 50
154.4863468339401038
 51
204.7281690703036077
  0
ARC
  5
13AB4
  8
0
 10
3532.7305245763691346
 20
166.5157540825861133
 30
0.0
 40
0.0896493514641745
 50
209.1423051241831104
 51
256.3921715589551127
  0
ARC
  5
13AB5
  8
0
 10
3532.7385958539580315
 20
166.5086621892976098
 30
0.0
 40
0.0654875525263425
 50
211.8240064659300117
 51
255.4282336612222934
  0
ARC
  5
13AB6
  8
0
 10
3532.7168560504619563
 20
166.4915201942422982
 30
0.0
 40
0.0381031069151821
 50
142.8781650712444957
 51
207.1552335601330981
  0
ARC
  5
13AB7
  8
0
 10
3532.7463929197651851
 20
166.4690680300778922
 30
0.0
 40
0.07520463466097
 50
105.4831979400716051
 51
142.8199046683446909
  0
ARC
  5
13AB8
  8
0
 10
3532.3260634851299073
 20
167.4559537629181989
 30
0.0
 40
0.194171186763567
 50
92.4721677086402138
 51
100.0254522921710958
  0
LINE
  5
13AB9
  8
0
 10
3532.292261070197128
 20
167.6471600559993931
 30
0.0
 11
3532.1962613468458585
 21
167.6302327146406981
 31
0.0
  0
ARC
  5
13ABA
  8
0
 10
3532.1983136215189916
 20
167.6185936865917085
 30
0.0
 40
0.0118185788171846
 50
99.9999999949784808
 51
179.4695359512182904
  0
LINE
  5
13ABB
  8
0
 10
3532.1864955492242188
 20
167.6187031054994065
 30
0.0
 11
3532.1857913426970299
 21
167.5379746749993899
 31
0.0
  0
ARC
  5
13ABC
  8
0
 10
3532.1936653583970838
 20
167.5379746749993899
 30
0.0
 40
0.0078740157000006
 50
180.0
 51
270.0
  0
LINE
  5
13ABD
  8
0
 10
3532.2046413838970693
 20
167.5301006592993929
 30
0.0
 11
3532.204331864388223
 21
167.4946332319993871
 31
0.0
  0
ARC
  5
13ABE
  8
0
 10
3532.2003420125161028
 20
167.4946680509048065
 30
0.0
 40
0.0039900037985537
 50
279.3077853471222056
 51
359.5000000634354933
  0
ARC
  5
13ABF
  8
0
 10
3532.1963993408571696
 20
167.4867935654525866
 30
0.0
 40
0.0039370251363389
 50
90.1297148194936852
 51
179.6471056562307069
  0
LINE
  5
13AC0
  8
0
 10
3532.1924623903969405
 20
167.4868178140993962
 30
0.0
 11
3532.1827658458969381
 21
165.9116565256668991
 31
0.0
  0
ARC
  5
13AC1
  8
0
 10
3532.2024480363488692
 20
165.9119904051408128
 30
0.0
 40
0.019685022135991
 50
180.9718455947574967
 51
269.9847793007158998
  0
ARC
  5
13AC2
  8
0
 10
3532.7574474127968642
 20
166.5926962161539109
 30
0.0
 40
0.1709562200470265
 50
253.6883508512651986
 51
286.3116491487347162
  0
ARC
  5
13AC3
  8
0
 10
3532.7574474127968642
 20
166.5621819805282939
 30
0.0
 40
0.122122279728935
 50
253.1850459921604113
 51
286.8149540078396171
  0
ARC
  5
13AC4
  8
0
 10
3532.7574474127968642
 20
166.4389119385253082
 30
0.0
 40
0.1072489777741284
 50
73.1260774902691963
 51
106.8739225097303063
  0
ARC
  5
13AC5
  8
0
 10
3532.7574474127968642
 20
166.4286198340377041
 30
0.0
 40
0.1454411001616802
 50
72.1751071233420873
 51
107.8248928766578985
  0
ARC
  5
13AC6
  8
0
 10
3532.7574474127968642
 20
167.1639625581991879
 30
0.0
 40
0.1102362205598089
 50
359.9981126672885807
 51
180.001887332709714
  0
ARC
  5
13AC7
  8
0
 10
3532.7574474127968642
 20
167.1639589269994133
 30
0.0
 40
0.1133483425999984
 50
346.5427267043182837
 51
193.4572732956816878
  0
ENDSEC
  0
EOF
