  0
SECTION
  2
HEADER
  9
$ACADVER
  1
AC1009
  9
$INSBASE
 10
3520.4097553707078987
 20
179.2271612093130102
 30
0.0
  9
$EXTMIN
 10
3505.0554246620590675
 20
169.7783423116628967
 30
0.0
  9
$EXTMAX
 10
3535.7640860793580941
 20
188.67598010696301
 30
0.0
  9
$LIMMIN
 10
0.0
 20
0.0
  9
$LIMMAX
 10
11.6929133858000007
 20
8.2677165353999982
  9
$ORTHOMODE
 70
     0
  9
$REGENMODE
 70
     1
  9
$FILLMODE
 70
     1
  9
$QTEXTMODE
 70
     0
  9
$MIRRTEXT
 70
     0
  9
$DRAGMODE
 70
     2
  9
$LTSCALE
 40
0.6431102362
  9
$OSMODE
 70
  3839
  9
$ATTMODE
 70
     1
  9
$TEXTSIZE
 40
0.2
  9
$TRACEWID
 40
0.05
  9
$TEXTSTYLE
  7
STANDARD
  9
$CLAYER
  8
0
  9
$CELTYPE
  6
BYLAYER
  9
$CECOLOR
 62
   256
  9
$DIMSCALE
 40
1.0
  9
$DIMASZ
 40
0.1875
  9
$DIMEXO
 40
0.0625
  9
$DIMDLI
 40
0.4443307087
  9
$DIMRND
 40
0.0
  9
$DIMDLE
 40
0.0
  9
$DIMEXE
 40
0.125
  9
$DIMTP
 40
0.01
  9
$DIMTM
 40
0.01
  9
$DIMTXT
 40
2.0
  9
$DIMCEN
 40
0.1052362205
  9
$DIMTSZ
 40
0.0
  9
$DIMTOL
 70
     1
  9
$DIMLIM
 70
     0
  9
$DIMTIH
 70
     1
  9
$DIMTOH
 70
     1
  9
$DIMSE1
 70
     0
  9
$DIMSE2
 70
     0
  9
$DIMTAD
 70
     0
  9
$DIMZIN
 70
     0
  9
$DIMBLK
  1

  9
$DIMASO
 70
     1
  9
$DIMSHO
 70
     1
  9
$DIMPOST
  1
\X
  9
$DIMAPOST
  1

  9
$DIMALT
 70
     1
  9
$DIMALTD
 70
     2
  9
$DIMALTF
 40
25.3999999999999986
  9
$DIMLFAC
 40
1.0
  9
$DIMTOFL
 70
     0
  9
$DIMTVP
 40
0.0
  9
$DIMTIX
 70
     0
  9
$DIMSOXD
 70
     0
  9
$DIMSAH
 70
     0
  9
$DIMBLK1
  1

  9
$DIMBLK2
  1

  9
$DIMSTYLE
  2
STANDARD
  9
$DIMCLRD
 70
     0
  9
$DIMCLRE
 70
     0
  9
$DIMCLRT
 70
     0
  9
$DIMTFAC
 40
1.0
  9
$DIMGAP
 40
0.09
  9
$LUNITS
 70
     2
  9
$LUPREC
 70
     4
  9
$SKETCHINC
 40
0.1
  9
$FILLETRAD
 40
0.0
  9
$AUNITS
 70
     0
  9
$AUPREC
 70
     0
  9
$MENU
  1
.
  9
$ELEVATION
 40
0.0
  9
$PELEVATION
 40
0.0
  9
$THICKNESS
 40
0.0
  9
$LIMCHECK
 70
     0
  9
$BLIPMODE
 70
     0
  9
$CHAMFERA
 40
0.0
  9
$CHAMFERB
 40
0.0
  9
$SKPOLY
 70
     0
  9
$TDCREATE
 40
2458060.468368056230247
  9
$TDUPDATE
 40
2459174.5414814809337258
  9
$TDINDWG
 40
0.5819862269
  9
$TDUSRTIMER
 40
0.5819862269
  9
$USRTIMER
 70
     1
  9
$ANGBASE
 50
0.0
  9
$ANGDIR
 70
     0
  9
$PDMODE
 70
     0
  9
$PDSIZE
 40
0.3125
  9
$PLINEWID
 40
0.0
  9
$COORDS
 70
     1
  9
$SPLFRAME
 70
     0
  9
$SPLINETYPE
 70
     6
  9
$SPLINESEGS
 70
     8
  9
$ATTDIA
 70
     1
  9
$ATTREQ
 70
     1
  9
$HANDLING
 70
     1
  9
$HANDSEED
  5
14037
  9
$SURFTAB1
 70
     6
  9
$SURFTAB2
 70
     6
  9
$SURFTYPE
 70
     6
  9
$SURFU
 70
     6
  9
$SURFV
 70
     6
  9
$UCSNAME
  2

  9
$UCSORG
 10
0.0
 20
0.0
 30
0.0
  9
$UCSXDIR
 10
1.0
 20
0.0
 30
0.0
  9
$UCSYDIR
 10
0.0
 20
1.0
 30
0.0
  9
$PUCSNAME
  2

  9
$PUCSORG
 10
0.0
 20
0.0
 30
0.0
  9
$PUCSXDIR
 10
1.0
 20
0.0
 30
0.0
  9
$PUCSYDIR
 10
0.0
 20
1.0
 30
0.0
  9
$USERI1
 70
     0
  9
$USERI2
 70
     0
  9
$USERI3
 70
     0
  9
$USERI4
 70
     0
  9
$USERI5
 70
     0
  9
$USERR1
 40
0.0
  9
$USERR2
 40
0.0
  9
$USERR3
 40
0.0
  9
$USERR4
 40
0.0
  9
$USERR5
 40
0.0
  9
$WORLDVIEW
 70
     1
  9
$SHADEDGE
 70
     3
  9
$SHADEDIF
 70
    70
  9
$TILEMODE
 70
     1
  9
$MAXACTVP
 70
    64
  9
$PLIMCHECK
 70
     0
  9
$PEXTMIN
 10
1.0000000000000000E+20
 20
1.0000000000000000E+20
 30
1.0000000000000000E+20
  9
$PEXTMAX
 10
-1.0000000000000000E+20
 20
-1.0000000000000000E+20
 30
-1.0000000000000000E+20
  9
$PLIMMIN
 10
0.0
 20
0.0
  9
$PLIMMAX
 10
12.0
 20
9.0
  9
$UNITMODE
 70
     0
  9
$VISRETAIN
 70
     1
  9
$PLINEGEN
 70
     0
  9
$PSLTSCALE
 70
     1
  0
ENDSEC
  0
SECTION
  2
TABLES
  0
TABLE
  2
VPORT
 70
     1
  0
VPORT
  2
*ACTIVE
 70
     0
 10
0.0
 20
0.0
 11
1.0
 21
1.0
 12
0.0
 22
0.0
 13
0.0
 23
0.0
 14
1.0
 24
1.0
 15
0.0
 25
0.0
 16
0.0
 26
0.0
 36
141.7209708364501068
 17
3520.4097900390629547
 27
179.2271575927734091
 37
0.0
 40
36.0575606101837423
 41
3.1182994454713491
 42
50.0
 43
0.0
 44
0.0
 50
0.0
 51
0.0
 71
     0
 72
   100
 73
     1
 74
     1
 75
     0
 76
     0
 77
     0
 78
     0
  0
ENDTAB
  0
TABLE
  2
LTYPE
 70
     2
  0
LTYPE
  2
CONTINUOUS
 70
     0
  3
Solid line
 72
    65
 73
     0
 40
0.0
  0
LTYPE
  2
PHANTOM2
 70
     0
  3
___ _ _ ___ _ _ ___ _ _ ___ _ _
 72
    65
 73
     6
 40
1.25
 49
0.625
 49
-0.125
 49
0.125
 49
-0.125
 49
0.125
 49
-0.125
  0
ENDTAB
  0
TABLE
  2
LAYER
 70
     2
  0
LAYER
  2
0
 70
     0
 62
   255
  6
CONTINUOUS
  0
LAYER
  2
DEFPOINTS
 70
     0
 62
     7
  6
CONTINUOUS
  0
ENDTAB
  0
TABLE
  2
STYLE
 70
     1
  0
STYLE
  2
STANDARD
 70
     0
 40
0.0
 41
0.8
 50
0.0
 71
     0
 42
0.2
  3
txt
  4

  0
ENDTAB
  0
TABLE
  2
VIEW
 70
     0
  0
ENDTAB
  0
TABLE
  2
UCS
 70
     0
  0
ENDTAB
  0
TABLE
  2
APPID
 70
     9
  0
APPID
  2
ACAD
 70
     0
  0
APPID
  2
ACAD_MLEADERVER
 70
     0
  0
APPID
  2
ACAD_EXEMPT_FROM_CAD_STANDARDS
 70
     0
  0
APPID
  2
ACAD_NAV_VCDISPLAY
 70
     0
  0
APPID
  2
ACAECLAYERSTANDARD
 70
     0
  0
APPID
  2
ACCMTRANSPARENCY
 70
     0
  0
APPID
  2
ACAD_DSTYLE_DIMJAG
 70
     0
  0
APPID
  2
ACAD_DSTYLE_DIMTALN
 70
     0
  0
APPID
  2
ACDBATTR
 70
     0
  0
ENDTAB
  0
TABLE
  2
DIMSTYLE
 70
     1
  0
DIMSTYLE
  2
STANDARD
 70
     0
  3

  4

  5

  6

  7

 40
1.0
 41
0.1875
 42
0.0625
 43
0.38
 44
0.125
 45
0.0
 46
0.0
 47
0.01
 48
0.01
140
0.15625
141
0.09
142
0.0
143
25.3999999999999986
144
1.0
145
0.0
146
1.0
147
0.09
 71
     1
 72
     0
 73
     1
 74
     1
 75
     0
 76
     0
 77
     0
 78
     4
170
     0
171
     2
172
     0
173
     0
174
     0
175
     0
176
     0
177
     0
178
     0
  0
ENDTAB
  0
ENDSEC
  0
SECTION
  2
BLOCKS
  0
BLOCK
  8
0
  2
$MODEL_SPACE
 70
     0
 10
0.0
 20
0.0
 30
0.0
  3
$MODEL_SPACE
  1

  0
ENDBLK
  5
21
  8
0
  0
BLOCK
 67
     1
  8
0
  2
$PAPER_SPACE
 70
     0
 10
0.0
 20
0.0
 30
0.0
  3
$PAPER_SPACE
  1

  0
ENDBLK
  5
1D
 67
     1
  8
0
  0
BLOCK
  8
0
  2
_FILLED
 70
     0
 10
0.0
 20
0.0
 30
0.0
  3
_FILLED
  1

  0
SOLID
  5
13356
  8
0
  6
BYBLOCK
 62
     0
 10
0.0
 20
0.0
 30
0.0
 11
-1.0
 21
0.1666666667
 31
0.0
 12
-1.0
 22
-0.1666666667
 32
0.0
 13
-1.0
 23
-0.1666666667
 33
0.0
  0
ENDBLK
  5
13357
  8
0
  6
BYBLOCK
 62
     0
  0
ENDSEC
  0
SECTION
  2
ENTITIES
  0
ATTDEF
  5
12BEB
  8
DEFPOINTS
 10
3520.4101408649680707
 20
179.2309340487416875
 30
0.0
 40
0.001
  1
K-11825T-2KD
  3

  2
MODELNUMBER
 70
     0
1001
ACDBATTR
1070
     0
1070
     1
  0
ATTDEF
  5
12BEC
  8
DEFPOINTS
 10
3520.4101408649680707
 20
179.229267382074994
 30
0.0
 40
0.001
  1
MIDDLETON
  3

  2
TRADENAME
 70
     0
1001
ACDBATTR
1070
     0
1070
     1
  0
ATTDEF
  5
12BED
  8
DEFPOINTS
 10
3520.4101408649680707
 20
179.2276007154084141
 30
0.0
 40
0.001
  1
KITCHEN SINK
  3

  2
PRODUCT
 70
     0
1001
ACDBATTR
1070
     0
1070
     1
  0
LINE
  5
13BD0
  8
0
 10
3535.7640860793580941
 20
187.6917281384629916
 30
0.0
 11
3535.7640860793580941
 21
170.7625942801630003
 31
0.0
  0
LINE
  5
13BD1
  8
0
 10
3534.7798341108577915
 20
188.67598010696301
 30
0.0
 11
3506.0396766305580059
 21
188.67598010696301
 31
0.0
  0
ARC
  5
13BD2
  8
0
 10
3534.7798341108577915
 20
187.6917281384629916
 30
0.0
 40
0.9842519684999756
 50
359.9999999999984084
 51
90.0
  0
LINE
  5
13BD3
  8
0
 10
3534.7798341108577915
 20
169.7783423116630104
 30
0.0
 11
3506.0396766305580059
 21
169.7783423116630104
 31
0.0
  0
ARC
  5
13BD4
  8
0
 10
3534.7798341108577915
 20
170.7625942801630003
 30
0.0
 40
0.9842519684999756
 50
270.0
 51
0.0000000000016284
  0
LINE
  5
13BD5
  8
0
 10
3535.4380285906581776
 20
187.6917281384629916
 30
0.0
 11
3535.4380285906581776
 21
170.7625942801630003
 31
0.0
  0
LINE
  5
13BD6
  8
0
 10
3534.7798341108577915
 20
188.3499226182630082
 30
0.0
 11
3506.0396766305580059
 21
188.3499226182630082
 31
0.0
  0
ARC
  5
13BD7
  8
0
 10
3534.7798341108577915
 20
187.6917281384629916
 30
0.0
 40
0.658194479800013
 50
0.0000000000016284
 51
90.0
  0
LINE
  5
13BD8
  8
0
 10
3534.7773639055380954
 20
186.4827471581629936
 30
0.0
 11
3534.7773639055380954
 21
182.7471336489647058
 31
0.0
  0
LINE
  5
13BD9
  8
0
 10
3534.8612749811459253
 20
186.5520337302903044
 30
0.0
 11
3534.8612749811459253
 21
172.3747296454226898
 31
0.0
  0
LINE
  5
13BDA
  8
0
 10
3533.5708531302580013
 20
187.6892579326465977
 30
0.0
 11
3520.7697626801359547
 21
187.6892579326465977
 31
0.0
  0
LINE
  5
13BDB
  8
0
 10
3533.6401396625678899
 20
187.7731690093885106
 30
0.0
 11
3507.1793710788479075
 21
187.7731690093885106
 31
0.0
  0
ARC
  5
13BDC
  8
0
 10
3533.6292056426659656
 20
187.1219709722280982
 30
0.0
 40
0.6512898251874812
 50
42.9894402729800973
 51
89.038058632053648
  0
LINE
  5
13BDD
  8
0
 10
3534.1056107220579179
 20
187.5660617700629871
 30
0.0
 11
3534.6538305570311422
 21
187.0178419701904886
 31
0.0
  0
ARC
  5
13BDE
  8
0
 10
3534.2097574790509498
 20
186.5409810698724016
 30
0.0
 40
0.651611246709469
 50
0.9719002978594586
 51
47.0390285729460587
  0
ARC
  5
13BDF
  8
0
 10
3533.5522807335150901
 20
186.9373132774964859
 30
0.0
 40
0.7521739814228666
 50
46.4148243586760003
 51
88.5851303914773354
  0
LINE
  5
13BE0
  8
0
 10
3534.0708536608581198
 20
187.4821507003630074
 30
0.0
 11
3534.5702571806900778
 21
186.9827471544955984
 31
0.0
  0
ARC
  5
13BE1
  8
0
 10
3534.0373673517838142
 20
186.4691238245812883
 30
0.0
 40
0.7401219458879295
 50
1.0546959261136091
 51
43.9452933497939284
  0
LINE
  5
13BE2
  8
0
 10
3534.7798341108577915
 20
170.1043998003630122
 30
0.0
 11
3506.0396766305580059
 21
170.1043998003630122
 31
0.0
  0
ARC
  5
13BE3
  8
0
 10
3534.7798341108577915
 20
170.7625942801630003
 30
0.0
 40
0.658194479800013
 50
270.0
 51
359.9999999999984084
  0
LINE
  5
13BE4
  8
0
 10
3533.1327953482891644
 20
170.6811534092375098
 30
0.0
 11
3507.6638835678231771
 21
170.6807542864434879
 31
0.0
  0
ARC
  5
13BE5
  8
0
 10
3533.1556271735939845
 20
171.3340012991446031
 30
0.0
 40
0.6532470127010515
 50
267.9970306931530786
 51
316.9726776109008028
  0
LINE
  5
13BE6
  8
0
 10
3533.6331692900580492
 20
170.8882601336630103
 30
0.0
 11
3534.654168254958222
 21
171.9092590985630125
 31
0.0
  0
ARC
  5
13BE7
  8
0
 10
3534.2097908359328358
 20
172.3857910015067034
 30
0.0
 40
0.6515780421890276
 50
313.000272066963305
 51
359.0272854154929973
  0
LINE
  5
13BE8
  8
0
 10
3534.6198836525900333
 20
182.4604536510447872
 30
0.0
 11
3534.6198836231578753
 21
172.5092466876629942
 31
0.0
  0
LINE
  5
13BE9
  8
0
 10
3533.0331808671580802
 20
170.9225447172630084
 30
0.0
 11
3507.7863298742590814
 21
170.9225447172630084
 31
0.0
  0
ARC
  5
13BEA
  8
0
 10
3533.0191691396807983
 20
171.6644073592742927
 30
0.0
 40
0.741994951545451
 50
271.0820296930596101
 51
313.8876786109991031
  0
LINE
  5
13BEB
  8
0
 10
3533.5335548089269651
 20
171.1296514416885088
 30
0.0
 11
3534.4130401535658166
 21
172.0091367863277014
 31
0.0
  0
ARC
  5
13BEC
  8
0
 10
3533.8779682962340303
 20
172.5232701516708005
 30
0.0
 40
0.7420478487725148
 50
316.143272992541597
 51
358.9171410740493116
  0
ARC
  5
13BED
  8
0
 10
3531.2321809011041296
 20
181.260759712546303
 30
0.0
 40
3.5938552389457459
 50
19.5006834247624106
 51
65.4616666605024449
  0
ARC
  5
13BEE
  8
0
 10
3531.2321809011041296
 20
181.260759712546303
 30
0.0
 40
3.5938552389457459
 50
69.2705940139904754
 51
89.9307110169609984
  0
LINE
  5
13BEF
  8
0
 10
3531.2365270242580664
 20
184.8546123235630034
 30
0.0
 11
3522.5874323089578866
 21
184.8546115595567016
 31
0.0
  0
ARC
  5
13BF0
  8
0
 10
3522.5648259391500687
 20
185.5071400111170874
 30
0.0
 40
0.6529199246858789
 50
223.0156681224738122
 51
271.9841767095161913
  0
LINE
  5
13BF1
  8
0
 10
3522.0874323224579712
 20
185.061719128362995
 30
0.0
 11
3521.8742356288339579
 21
185.2749170144107893
 31
0.0
  0
ARC
  5
13BF2
  8
0
 10
3522.3350840398888977
 20
185.7587013371168894
 30
0.0
 40
0.6681530729314881
 50
178.609274939500807
 51
226.3908821294409108
  0
LINE
  5
13BF3
  8
0
 10
3521.6671277836580884
 20
185.7749176446629917
 30
0.0
 11
3521.6671276887741442
 21
186.5668421932103058
 31
0.0
  0
ARC
  5
13BF4
  8
0
 10
3520.9271581574848824
 20
186.553477572935094
 30
0.0
 40
0.740090210928452
 50
1.0347089428730909
 51
43.9457586854211115
  0
LINE
  5
13BF5
  8
0
 10
3521.4600209658319727
 20
187.0670832074372072
 30
0.0
 11
3521.2024332900577974
 21
187.3246709138630024
 31
0.0
  0
ARC
  5
13BF6
  8
0
 10
3520.6888102061170684
 20
186.791781353564005
 30
0.0
 40
0.7401215817909569
 50
46.0547059298886268
 51
88.9453241847111542
  0
LINE
  5
13BF7
  8
0
 10
3520.702433273258066
 20
187.5317776636630072
 30
0.0
 11
3507.3138889294577893
 21
187.5317777013630121
 31
0.0
  0
ARC
  5
13BF8
  8
0
 10
3507.3138889274669054
 20
186.824669140911908
 30
0.0
 40
0.7071085604510543
 50
89.9999998386667954
 51
134.9999814337907935
  0
LINE
  5
13BF9
  8
0
 10
3506.813887831357988
 20
187.3246705610629874
 30
0.0
 11
3506.4067337772239625
 21
186.9175167707977039
 31
0.0
  0
ARC
  5
13BFA
  8
0
 10
3506.906733901986172
 20
186.4175163219939009
 30
0.0
 40
0.7071071867590191
 50
134.9999814337907935
 51
179.9420323777455906
  0
ARC
  5
13BFB
  8
0
 10
3519.8102176626148321
 20
185.4117598333716046
 30
0.0
 40
2.4713810375680549
 50
58.8068899153080267
 51
67.153558797457606
  0
ARC
  5
13BFC
  8
0
 10
3520.7151514153838434
 20
186.906388653064397
 30
0.0
 40
0.724148824736072
 50
43.8820005972928797
 51
58.8068899153080267
  0
LINE
  5
13BFD
  8
0
 10
3521.237095372658132
 20
187.4083508287629911
 30
0.0
 11
3521.5437014123581321
 21
187.1017447827630065
 31
0.0
  0
ARC
  5
13BFE
  8
0
 10
3521.0982839620291998
 20
186.6243536149023896
 30
0.0
 40
0.652915792587026
 50
358.0155941598658842
 51
46.9844055105553267
  0
LINE
  5
13BFF
  8
0
 10
3521.7508081935588962
 20
186.6017447786630044
 30
0.0
 11
3521.7508081935588962
 21
185.8095784645630033
 31
0.0
  0
ARC
  5
13C00
  8
0
 10
3522.4908041035100723
 20
185.8232017939998002
 30
0.0
 40
0.7401213021188717
 50
181.0546965226760108
 51
223.9453307117595102
  0
LINE
  5
13C01
  8
0
 10
3521.9579150730460242
 20
185.3095785633512094
 30
0.0
 11
3522.1220938885439864
 21
185.145399556248293
 31
0.0
  0
ARC
  5
13C02
  8
0
 10
3522.6357168568429188
 20
185.6782887992943074
 30
0.0
 40
0.7401212731156833
 50
226.0546953317648899
 51
268.9453311589679743
  0
LINE
  5
13C03
  8
0
 10
3522.6220938854580709
 20
184.9382929117591061
 30
0.0
 11
3531.2365270242580664
 21
184.9382927723630132
 31
0.0
  0
ARC
  5
13C04
  8
0
 10
3531.2365271653529817
 20
181.2744055002306993
 30
0.0
 40
3.6638872317499849
 50
19.1026219407222904
 51
66.0350588039506903
  0
ARC
  5
13C05
  8
0
 10
3531.2365270242580664
 20
181.2744053038630057
 30
0.0
 40
3.6638874685000209
 50
69.7569573680591333
 51
90.0
  0
ARC
  5
13C06
  8
0
 10
3534.2184289369238286
 20
182.7597157511648902
 30
0.0
 40
0.5590765675956872
 50
329.2010537517360262
 51
358.7104409967482184
  0
LINE
  5
13C07
  8
0
 10
3534.698658552660163
 20
182.4734534158754968
 30
0.0
 11
3534.6198836525900333
 21
182.4604536510447872
 31
0.0
  0
CIRCLE
  5
13C08
  8
0
 10
3523.1262908037579109
 20
186.3137753825629943
 30
0.0
 40
0.6889763780000004
  0
POINT
  5
13C09
  8
DEFPOINTS
 10
3523.1262908037579109
 20
186.3137753825629943
 30
0.0
  0
LINE
  5
13C0A
  8
0
 10
3525.3310158789749948
 20
184.2486044082629064
 30
0.0
 11
3531.1577861955411208
 21
184.2486044082629064
 31
0.0
  0
ARC
  5
13C0B
  8
0
 10
3531.1577868667582152
 20
181.2744053038630057
 30
0.0
 40
2.97419910440001
 50
0.0
 51
58.2077589681265408
  0
ARC
  5
13C0C
  8
0
 10
3531.1577868667582152
 20
181.2744053038630057
 30
0.0
 40
2.97419910440001
 50
63.0821602822776626
 51
90.0000129304966947
  0
LINE
  5
13C0D
  8
0
 10
3534.1319859711579738
 20
181.2744053038630057
 30
0.0
 11
3534.1319740537569487
 21
174.3846419998185127
 31
0.0
  0
LINE
  5
13C0E
  8
0
 10
3525.3000155916579388
 20
182.1888579001629864
 30
0.0
 11
3531.1887864828590864
 21
182.1888579001629864
 31
0.0
  0
ARC
  5
13C0F
  8
0
 10
3531.1716426143580065
 20
181.283227413898004
 30
0.0
 40
0.9057927411277958
 50
0.6306804942357794
 51
88.915502497750424
  0
LINE
  5
13C10
  8
0
 10
3532.0773804813120478
 20
181.2931976819077988
 30
0.0
 11
3532.0773804813120478
 21
174.3629263887629861
 31
0.0
  0
CIRCLE
  5
13C11
  8
0
 10
3528.2458900996580269
 20
179.227600611263
 30
0.0
 40
1.947329887574041
  0
CIRCLE
  5
13C12
  8
0
 10
3528.2458900996580269
 20
179.227600611263
 30
0.0
 40
2.2875495150999998
  0
LINE
  5
13C13
  8
0
 10
3509.6617240297127864
 20
187.0218558059630141
 30
0.0
 11
3518.1656600309252099
 21
187.0218558059629004
 31
0.0
  0
ARC
  5
13C14
  8
0
 10
3518.1656608825578587
 20
184.069680894362989
 30
0.0
 40
2.952174911599998
 50
0.0
 51
90.0000165284981222
  0
LINE
  5
13C15
  8
0
 10
3521.1178357941589638
 20
184.069680894362989
 30
0.0
 11
3521.1178357941589638
 21
174.3846417445539032
 31
0.0
  0
LINE
  5
13C16
  8
0
 10
3509.6236549720579205
 20
184.906786224063012
 30
0.0
 11
3518.2037297853589735
 21
184.906786224063012
 31
0.0
  0
ARC
  5
13C17
  8
0
 10
3518.1850755395648775
 20
184.0780558520665124
 30
0.0
 40
0.8289402936011033
 50
0.4022000064250222
 51
88.7105225871959249
  0
LINE
  5
13C18
  8
0
 10
3519.0139954096580368
 20
184.0838747283630141
 30
0.0
 11
3519.0139954096580368
 21
174.3622577690630067
 31
0.0
  0
CIRCLE
  5
13C19
  8
0
 10
3513.9138712898579797
 20
181.5877640547629994
 30
0.0
 40
1.947329887574041
  0
CIRCLE
  5
13C1A
  8
0
 10
3513.9138712898579797
 20
181.5877640547629994
 30
0.0
 40
2.2875495150999998
  0
LINE
  5
13C1B
  8
0
 10
3525.3310158789749948
 20
171.4075196624079069
 30
0.0
 11
3531.1577861955411208
 21
171.4075196624079069
 31
0.0
  0
ARC
  5
13C1C
  8
0
 10
3531.1577942653680111
 20
174.3817009049732007
 30
0.0
 40
2.9741812425762659
 50
269.9998445397209821
 51
0.0566583995738609
  0
LINE
  5
13C1D
  8
0
 10
3525.3000155916579388
 20
173.4672661792077974
 30
0.0
 11
3531.1887864828590864
 21
173.4672661705077985
 31
0.0
  0
ARC
  5
13C1E
  8
0
 10
3531.1716426143580065
 20
174.3728966567728094
 30
0.0
 40
0.9057927411277958
 50
271.084497502249576
 51
359.3693195057642242
  0
ARC
  5
13C1F
  8
0
 10
3525.3310152077579005
 20
181.2744053038630057
 30
0.0
 40
2.97419910440001
 50
89.9999870695032911
 51
180.0
  0
LINE
  5
13C20
  8
0
 10
3522.3568161033581418
 20
181.2744053038630057
 30
0.0
 11
3522.3568280207600765
 21
174.3846419998185127
 31
0.0
  0
ARC
  5
13C21
  8
0
 10
3525.3171594601590186
 20
181.283227413898004
 30
0.0
 40
0.9057927411277958
 50
91.0844975022495618
 51
179.3693195057657874
  0
LINE
  5
13C22
  8
0
 10
3524.4114215932040679
 20
181.2931976819077988
 30
0.0
 11
3524.4114215932040679
 21
174.3629263887629861
 31
0.0
  0
ARC
  5
13C23
  8
0
 10
3525.3310078091471951
 20
174.3817009049732007
 30
0.0
 40
2.9741812425762659
 50
179.9433416004260948
 51
270.0001554602790179
  0
ARC
  5
13C24
  8
0
 10
3525.3171594448272117
 20
174.3728966503587969
 30
0.0
 40
0.9057927257262423
 50
180.6306800992147998
 51
268.9155034492969207
  0
LINE
  5
13C25
  8
0
 10
3509.6617240297127864
 20
171.4242766914630067
 30
0.0
 11
3518.1656600309252099
 21
171.424276691463092
 31
0.0
  0
ARC
  5
13C26
  8
0
 10
3518.165652887098986
 20
174.3764709058208098
 30
0.0
 40
2.9521942143663069
 50
270.0001386463732729
 51
0.1585787174548311
  0
LINE
  5
13C27
  8
0
 10
3509.6236549720579205
 20
173.53934626626301
 30
0.0
 11
3518.2037297853589735
 21
173.5393462733630088
 31
0.0
  0
ARC
  5
13C28
  8
0
 10
3518.1850755395648775
 20
174.3680766453595083
 30
0.0
 40
0.8289402936011033
 50
271.2894774128041036
 51
359.5977999935749949
  0
ARC
  5
13C29
  8
0
 10
3509.6617238748590353
 20
184.069680894362989
 30
0.0
 40
2.9521749116000069
 50
89.9999969945698126
 51
180.0
  0
LINE
  5
13C2A
  8
0
 10
3506.7095489632579302
 20
184.069680894362989
 30
0.0
 11
3506.7095489632579302
 21
174.3846417445539032
 31
0.0
  0
ARC
  5
13C2B
  8
0
 10
3509.642309217851107
 20
184.0780558520665124
 30
0.0
 40
0.8289402936010962
 50
91.2894774128041036
 51
179.5977999935749096
  0
LINE
  5
13C2C
  8
0
 10
3508.8133893477579477
 20
184.0838747283630141
 30
0.0
 11
3508.8133893477579477
 21
174.3622577690630067
 31
0.0
  0
ARC
  5
13C2D
  8
0
 10
3509.6617318703201818
 20
174.3764709058220888
 30
0.0
 40
2.952194214369523
 50
179.84142128257119
 51
269.9998478305587923
  0
ARC
  5
13C2E
  8
0
 10
3509.6423092303771227
 20
174.3680766505424913
 30
0.0
 40
0.8289403061628838
 50
180.4022003585847074
 51
268.7105217407639088
  0
LINE
  5
13C2F
  8
0
 10
3505.0554246620590675
 20
187.6917281384629916
 30
0.0
 11
3505.0554246620590675
 21
170.7625942801630003
 31
0.0
  0
ARC
  5
13C30
  8
0
 10
3506.0396766305580059
 20
187.6917281384629916
 30
0.0
 40
0.9842519684999756
 50
90.0
 51
180.0000000000015916
  0
ARC
  5
13C31
  8
0
 10
3506.0396766305580059
 20
170.7625942801630003
 30
0.0
 40
0.9842519684999756
 50
179.9999999999984084
 51
270.0
  0
LINE
  5
13C32
  8
0
 10
3505.3814821507580746
 20
187.6917281384629916
 30
0.0
 11
3505.3814821507580746
 21
170.7625942801630003
 31
0.0
  0
ARC
  5
13C33
  8
0
 10
3506.0396766305580059
 20
187.6917281384629916
 30
0.0
 40
0.658194479800013
 50
90.0
 51
179.9999999999984084
  0
LINE
  5
13C34
  8
0
 10
3505.9582357602698721
 20
186.5520337302903044
 30
0.0
 11
3505.9582357602698721
 21
172.3747296454226898
 31
0.0
  0
ARC
  5
13C35
  8
0
 10
3507.1903050987511961
 20
187.1219709722280982
 30
0.0
 40
0.6512898251874812
 50
90.9619413679463804
 51
137.0105597270197961
  0
LINE
  5
13C36
  8
0
 10
3506.7139000193578795
 20
187.5660617700629871
 30
0.0
 11
3506.1656801843860194
 21
187.0178419701904886
 31
0.0
  0
ARC
  5
13C37
  8
0
 10
3506.0396766305580059
 20
170.7625942801630003
 30
0.0
 40
0.658194479800013
 50
180.0000000000015916
 51
270.0
  0
ARC
  5
13C38
  8
0
 10
3507.6638835678231771
 20
171.3340012991446031
 30
0.0
 40
0.6532470127010565
 50
223.0273223891003909
 51
270.0
  0
LINE
  5
13C39
  8
0
 10
3507.1863414513582029
 20
170.8882601336630103
 30
0.0
 11
3506.1653424864580302
 21
171.9092590985630125
 31
0.0
  0
ARC
  5
13C3A
  8
0
 10
3506.6097199054838711
 20
172.3857910015067034
 30
0.0
 40
0.6515780421890276
 50
180.9727145845070027
 51
226.9997279330355013
  0
ARC
  5
13C3B
  8
0
 10
3507.8003416017349991
 20
171.6644073592742927
 30
0.0
 40
0.741994951545451
 50
226.1123213890008969
 51
268.9179703069405036
  0
LINE
  5
13C3C
  8
0
 10
3507.2859559324901966
 20
171.1296514416885088
 30
0.0
 11
3506.4064705878499808
 21
172.0091367863277014
 31
0.0
  0
ARC
  5
13C3D
  8
0
 10
3506.9415424451831313
 20
172.5232701516708005
 30
0.0
 40
0.7420478487725148
 50
181.0828589259506884
 51
223.8567270074584883
  0
ARC
  5
13C3E
  8
0
 10
3506.6097532623648476
 20
186.5409810698724016
 30
0.0
 40
0.651611246709469
 50
132.9609714270538916
 51
179.0280997021405085
  0
LINE
  5
13C3F
  8
0
 10
3506.1996270771201125
 20
186.4182317205045933
 30
0.0
 11
3506.1996271182579221
 21
172.5092466876629942
 31
0.0
  0
LINE
  5
13C40
  8
0
 10
3532.7247160006591002
 20
182.1451651964453902
 30
0.0
 11
3532.7247160006591002
 21
185.3591480062299865
 31
0.0
  0
CIRCLE
  5
13C41
  8
0
 10
3532.6144797801580353
 20
185.920074595162987
 30
0.0
 40
0.4400161866000012
  0
CIRCLE
  5
13C42
  8
0
 10
3532.6144797801580353
 20
185.920074595162987
 30
0.0
 40
0.5716560701000013
  0
CIRCLE
  5
13C43
  8
0
 10
3532.6144797801580353
 20
185.920074595162987
 30
0.0
 40
0.5746815669000008
  0
ARC
  5
13C44
  8
0
 10
3532.6144797801580353
 20
185.920074595162987
 30
0.0
 40
0.8267716534999998
 50
277.6622556630989038
 51
262.3377443369012099
  0
ARC
  5
13C45
  8
0
 10
3532.6318044041740905
 20
182.1498315866479913
 30
0.0
 40
0.0930287050257509
 50
299.7412865476543971
 51
357.1247937871511908
  0
LINE
  5
13C46
  8
0
 10
3532.5042435596578798
 20
182.1451651964453902
 30
0.0
 11
3532.5042435596578798
 21
185.3591480062299865
 31
0.0
  0
ARC
  5
13C47
  8
0
 10
3532.5971551561428896
 20
182.1498315866479913
 30
0.0
 40
0.0930287050257509
 50
182.8752062128471039
 51
240.2587134523456029
  0
ARC
  5
13C48
  8
0
 10
3532.6144797801580353
 20
182.1805120924707069
 30
0.0
 40
0.1282623985355754
 50
240.3380474105665883
 51
299.6619525894317917
  0
ENDSEC
  0
EOF
