  0
SECTION
  2
HEADER
  9
$ACADVER
  1
AC1009
  9
$INSBASE
 10
3522.2846666410250691
 20
175.072734828828203
 30
0.0
  9
$EXTMIN
 10
3512.8358477433248481
 20
167.1876399000281879
 30
0.0
  9
$EXTMAX
 10
3531.7334855387248354
 20
177.5795431117282135
 30
0.0
  9
$LIMMIN
 10
0.0
 20
0.0
  9
$LIMMAX
 10
11.6929133858000007
 20
8.2677165353999982
  9
$ORTHOMODE
 70
     0
  9
$REGENMODE
 70
     1
  9
$FILLMODE
 70
     1
  9
$QTEXTMODE
 70
     0
  9
$MIRRTEXT
 70
     0
  9
$DRAGMODE
 70
     2
  9
$LTSCALE
 40
0.6431102362
  9
$OSMODE
 70
  3839
  9
$ATTMODE
 70
     1
  9
$TEXTSIZE
 40
0.2
  9
$TRACEWID
 40
0.05
  9
$TEXTSTYLE
  7
STANDARD
  9
$CLAYER
  8
0
  9
$CELTYPE
  6
BYLAYER
  9
$CECOLOR
 62
   256
  9
$DIMSCALE
 40
1.0
  9
$DIMASZ
 40
0.1875
  9
$DIMEXO
 40
0.0625
  9
$DIMDLI
 40
0.4443307087
  9
$DIMRND
 40
0.0
  9
$DIMDLE
 40
0.0
  9
$DIMEXE
 40
0.125
  9
$DIMTP
 40
0.01
  9
$DIMTM
 40
0.01
  9
$DIMTXT
 40
2.0
  9
$DIMCEN
 40
0.1052362205
  9
$DIMTSZ
 40
0.0
  9
$DIMTOL
 70
     1
  9
$DIMLIM
 70
     0
  9
$DIMTIH
 70
     1
  9
$DIMTOH
 70
     1
  9
$DIMSE1
 70
     0
  9
$DIMSE2
 70
     0
  9
$DIMTAD
 70
     0
  9
$DIMZIN
 70
     0
  9
$DIMBLK
  1

  9
$DIMASO
 70
     1
  9
$DIMSHO
 70
     1
  9
$DIMPOST
  1
\X
  9
$DIMAPOST
  1

  9
$DIMALT
 70
     1
  9
$DIMALTD
 70
     2
  9
$DIMALTF
 40
25.3999999999999986
  9
$DIMLFAC
 40
1.0
  9
$DIMTOFL
 70
     0
  9
$DIMTVP
 40
0.0
  9
$DIMTIX
 70
     0
  9
$DIMSOXD
 70
     0
  9
$DIMSAH
 70
     0
  9
$DIMBLK1
  1

  9
$DIMBLK2
  1

  9
$DIMSTYLE
  2
STANDARD
  9
$DIMCLRD
 70
     0
  9
$DIMCLRE
 70
     0
  9
$DIMCLRT
 70
     0
  9
$DIMTFAC
 40
1.0
  9
$DIMGAP
 40
0.09
  9
$LUNITS
 70
     2
  9
$LUPREC
 70
     4
  9
$SKETCHINC
 40
0.1
  9
$FILLETRAD
 40
0.0
  9
$AUNITS
 70
     0
  9
$AUPREC
 70
     0
  9
$MENU
  1
.
  9
$ELEVATION
 40
0.0
  9
$PELEVATION
 40
0.0
  9
$THICKNESS
 40
0.0
  9
$LIMCHECK
 70
     0
  9
$BLIPMODE
 70
     0
  9
$CHAMFERA
 40
0.0
  9
$CHAMFERB
 40
0.0
  9
$SKPOLY
 70
     0
  9
$TDCREATE
 40
2458060.468368056230247
  9
$TDUPDATE
 40
2459174.5432986109517515
  9
$TDINDWG
 40
0.5863033565
  9
$TDUSRTIMER
 40
0.5863033565
  9
$USRTIMER
 70
     1
  9
$ANGBASE
 50
0.0
  9
$ANGDIR
 70
     0
  9
$PDMODE
 70
     0
  9
$PDSIZE
 40
0.3125
  9
$PLINEWID
 40
0.0
  9
$COORDS
 70
     1
  9
$SPLFRAME
 70
     0
  9
$SPLINETYPE
 70
     6
  9
$SPLINESEGS
 70
     8
  9
$ATTDIA
 70
     1
  9
$ATTREQ
 70
     1
  9
$HANDLING
 70
     1
  9
$HANDSEED
  5
14072
  9
$SURFTAB1
 70
     6
  9
$SURFTAB2
 70
     6
  9
$SURFTYPE
 70
     6
  9
$SURFU
 70
     6
  9
$SURFV
 70
     6
  9
$UCSNAME
  2

  9
$UCSORG
 10
0.0
 20
0.0
 30
0.0
  9
$UCSXDIR
 10
1.0
 20
0.0
 30
0.0
  9
$UCSYDIR
 10
0.0
 20
1.0
 30
0.0
  9
$PUCSNAME
  2

  9
$PUCSORG
 10
0.0
 20
0.0
 30
0.0
  9
$PUCSXDIR
 10
1.0
 20
0.0
 30
0.0
  9
$PUCSYDIR
 10
0.0
 20
1.0
 30
0.0
  9
$USERI1
 70
     0
  9
$USERI2
 70
     0
  9
$USERI3
 70
     0
  9
$USERI4
 70
     0
  9
$USERI5
 70
     0
  9
$USERR1
 40
0.0
  9
$USERR2
 40
0.0
  9
$USERR3
 40
0.0
  9
$USERR4
 40
0.0
  9
$USERR5
 40
0.0
  9
$WORLDVIEW
 70
     1
  9
$SHADEDGE
 70
     3
  9
$SHADEDIF
 70
    70
  9
$TILEMODE
 70
     1
  9
$MAXACTVP
 70
    64
  9
$PLIMCHECK
 70
     0
  9
$PEXTMIN
 10
1.0000000000000000E+20
 20
1.0000000000000000E+20
 30
1.0000000000000000E+20
  9
$PEXTMAX
 10
-1.0000000000000000E+20
 20
-1.0000000000000000E+20
 30
-1.0000000000000000E+20
  9
$PLIMMIN
 10
0.0
 20
0.0
  9
$PLIMMAX
 10
12.0
 20
9.0
  9
$UNITMODE
 70
     0
  9
$VISRETAIN
 70
     1
  9
$PLINEGEN
 70
     0
  9
$PSLTSCALE
 70
     1
  0
ENDSEC
  0
SECTION
  2
TABLES
  0
TABLE
  2
VPORT
 70
     1
  0
VPORT
  2
*ACTIVE
 70
     0
 10
0.0
 20
0.0
 11
1.0
 21
1.0
 12
0.0
 22
0.0
 13
0.0
 23
0.0
 14
1.0
 24
1.0
 15
0.0
 25
0.0
 16
0.0
 26
0.0
 36
84.7644275587107359
 17
3522.28466796875
 27
172.3835906982421875
 37
0.0
 40
21.5663106613410704
 41
3.1182994454713491
 42
50.0
 43
0.0
 44
0.0
 50
0.0
 51
0.0
 71
     0
 72
   100
 73
     1
 74
     1
 75
     0
 76
     0
 77
     0
 78
     0
  0
ENDTAB
  0
TABLE
  2
LTYPE
 70
     2
  0
LTYPE
  2
CONTINUOUS
 70
     0
  3
Solid line
 72
    65
 73
     0
 40
0.0
  0
LTYPE
  2
PHANTOM2
 70
     0
  3
___ _ _ ___ _ _ ___ _ _ ___ _ _
 72
    65
 73
     6
 40
1.25
 49
0.625
 49
-0.125
 49
0.125
 49
-0.125
 49
0.125
 49
-0.125
  0
ENDTAB
  0
TABLE
  2
LAYER
 70
     2
  0
LAYER
  2
0
 70
     0
 62
   255
  6
CONTINUOUS
  0
LAYER
  2
DEFPOINTS
 70
     0
 62
     7
  6
CONTINUOUS
  0
ENDTAB
  0
TABLE
  2
STYLE
 70
     1
  0
STYLE
  2
STANDARD
 70
     0
 40
0.0
 41
0.8
 50
0.0
 71
     0
 42
0.2
  3
txt
  4

  0
ENDTAB
  0
TABLE
  2
VIEW
 70
     0
  0
ENDTAB
  0
TABLE
  2
UCS
 70
     0
  0
ENDTAB
  0
TABLE
  2
APPID
 70
     9
  0
APPID
  2
ACAD
 70
     0
  0
APPID
  2
ACAD_MLEADERVER
 70
     0
  0
APPID
  2
ACAD_EXEMPT_FROM_CAD_STANDARDS
 70
     0
  0
APPID
  2
ACAD_NAV_VCDISPLAY
 70
     0
  0
APPID
  2
ACAECLAYERSTANDARD
 70
     0
  0
APPID
  2
ACCMTRANSPARENCY
 70
     0
  0
APPID
  2
ACAD_DSTYLE_DIMJAG
 70
     0
  0
APPID
  2
ACAD_DSTYLE_DIMTALN
 70
     0
  0
APPID
  2
ACDBATTR
 70
     0
  0
ENDTAB
  0
TABLE
  2
DIMSTYLE
 70
     1
  0
DIMSTYLE
  2
STANDARD
 70
     0
  3

  4

  5

  6

  7

 40
1.0
 41
0.1875
 42
0.0625
 43
0.38
 44
0.125
 45
0.0
 46
0.0
 47
0.01
 48
0.01
140
0.15625
141
0.09
142
0.0
143
25.3999999999999986
144
1.0
145
0.0
146
1.0
147
0.09
 71
     1
 72
     0
 73
     1
 74
     1
 75
     0
 76
     0
 77
     0
 78
     4
170
     0
171
     2
172
     0
173
     0
174
     0
175
     0
176
     0
177
     0
178
     0
  0
ENDTAB
  0
ENDSEC
  0
SECTION
  2
BLOCKS
  0
BLOCK
  8
0
  2
$MODEL_SPACE
 70
     0
 10
0.0
 20
0.0
 30
0.0
  3
$MODEL_SPACE
  1

  0
ENDBLK
  5
21
  8
0
  0
BLOCK
 67
     1
  8
0
  2
$PAPER_SPACE
 70
     0
 10
0.0
 20
0.0
 30
0.0
  3
$PAPER_SPACE
  1

  0
ENDBLK
  5
1D
 67
     1
  8
0
  0
BLOCK
  8
0
  2
_FILLED
 70
     0
 10
0.0
 20
0.0
 30
0.0
  3
_FILLED
  1

  0
SOLID
  5
13356
  8
0
  6
BYBLOCK
 62
     0
 10
0.0
 20
0.0
 30
0.0
 11
-1.0
 21
0.1666666667
 31
0.0
 12
-1.0
 22
-0.1666666667
 32
0.0
 13
-1.0
 23
-0.1666666667
 33
0.0
  0
ENDBLK
  5
13357
  8
0
  6
BYBLOCK
 62
     0
  0
ENDSEC
  0
SECTION
  2
ENTITIES
  0
ATTDEF
  5
12BEB
  8
DEFPOINTS
 10
3522.2730825951261977
 20
175.0709999300541142
 30
0.0
 40
0.001
  1
K-11825T-2KD
  3

  2
MODELNUMBER
 70
     0
1001
ACDBATTR
1070
     0
1070
     1
  0
ATTDEF
  5
12BEC
  8
DEFPOINTS
 10
3522.2730825951261977
 20
175.0693332633873922
 30
0.0
 40
0.001
  1
MIDDLETON
  3

  2
TRADENAME
 70
     0
1001
ACDBATTR
1070
     0
1070
     1
  0
ATTDEF
  5
12BED
  8
DEFPOINTS
 10
3522.2730825951261977
 20
175.0676665967206986
 30
0.0
 40
0.001
  1
KITCHEN SINK
  3

  2
PRODUCT
 70
     0
1001
ACDBATTR
1070
     0
1070
     1
  0
LINE
  5
13BCD
  8
0
 10
3514.0690207668631047
 20
174.9636365457282068
 30
0.0
 11
3515.5917532551247859
 21
174.9636365457282068
 31
0.0
  0
LINE
  5
13BCE
  8
0
 10
3516.0838792394251868
 20
174.9636365457282068
 30
0.0
 11
3516.6744304205249136
 21
174.9636365457282068
 31
0.0
  0
LINE
  5
13BCF
  8
0
 10
3517.1665564048248598
 20
174.9636365457282068
 30
0.0
 11
3527.4027768771247793
 21
174.9636365457282068
 31
0.0
  0
LINE
  5
13BD0
  8
0
 10
3527.8949028614251802
 20
174.9636365457282068
 30
0.0
 11
3528.485454042524907
 21
174.9636365457282068
 31
0.0
  0
LINE
  5
13BD1
  8
0
 10
3528.9775800268248531
 20
174.9636365457282068
 30
0.0
 11
3530.5003125151861241
 21
174.9636365457282068
 31
0.0
  0
LINE
  5
13BD2
  8
0
 10
3515.7886036488289392
 20
174.6880459946281974
 30
0.0
 11
3516.9697060111211613
 21
174.6880459946281974
 31
0.0
  0
LINE
  5
13BD3
  8
0
 10
3516.0838792394251868
 20
174.8455263095281964
 30
0.0
 11
3516.0838792394251868
 21
175.0423767032282001
 31
0.0
  0
LINE
  5
13BD4
  8
0
 10
3516.0838792394251868
 20
175.0423767032282001
 30
0.0
 11
3516.6744304205249136
 21
175.0423767032282001
 31
0.0
  0
LINE
  5
13BD5
  8
0
 10
3516.6744304205249136
 20
175.0423767032282001
 30
0.0
 11
3516.6744304205249136
 21
174.8455263095281964
 31
0.0
  0
LINE
  5
13BD6
  8
0
 10
3516.6744304205249136
 20
174.8455263095281964
 30
0.0
 11
3516.0838792394251868
 21
174.8455263095281964
 31
0.0
  0
LINE
  5
13BD7
  8
0
 10
3515.5917532551247859
 20
175.072734828828203
 30
0.0
 11
3515.5917532551247859
 21
174.8848963883316117
 31
0.0
  0
ARC
  5
13BD8
  8
0
 10
3515.7886036488289392
 20
174.8848963883316117
 30
0.0
 40
0.1968503937042607
 50
180.0
 51
270.0
  0
LINE
  5
13BD9
  8
0
 10
3517.1665564048248598
 20
175.072734828828203
 30
0.0
 11
3517.1665564048248598
 21
174.8848963883316117
 31
0.0
  0
ARC
  5
13BDA
  8
0
 10
3516.9697060111211613
 20
174.8848963883316117
 30
0.0
 40
0.1968503937042607
 50
270.0
 51
0.0
  0
LINE
  5
13BDB
  8
0
 10
3527.5996272708289325
 20
174.6880459946281974
 30
0.0
 11
3528.7807296331197904
 21
174.6880459946281974
 31
0.0
  0
LINE
  5
13BDC
  8
0
 10
3527.8949028614251802
 20
174.8455263095281964
 30
0.0
 11
3527.8949028614251802
 21
175.0423767032282001
 31
0.0
  0
LINE
  5
13BDD
  8
0
 10
3527.8949028614251802
 20
175.0423767032282001
 30
0.0
 11
3528.485454042524907
 21
175.0423767032282001
 31
0.0
  0
LINE
  5
13BDE
  8
0
 10
3528.485454042524907
 20
175.0423767032282001
 30
0.0
 11
3528.485454042524907
 21
174.8455263095281964
 31
0.0
  0
LINE
  5
13BDF
  8
0
 10
3528.485454042524907
 20
174.8455263095281964
 30
0.0
 11
3527.8949028614251802
 21
174.8455263095281964
 31
0.0
  0
LINE
  5
13BE0
  8
0
 10
3527.4027768771247793
 20
175.072734828828203
 30
0.0
 11
3527.4027768771247793
 21
174.8848963883316117
 31
0.0
  0
ARC
  5
13BE1
  8
0
 10
3527.5996272708289325
 20
174.8848963883316117
 30
0.0
 40
0.1968503937042607
 50
180.0
 51
270.0
  0
LINE
  5
13BE2
  8
0
 10
3528.9775800268248531
 20
175.072734828828203
 30
0.0
 11
3528.9775800268248531
 21
174.8848963883316117
 31
0.0
  0
ARC
  5
13BE3
  8
0
 10
3528.7807296331197904
 20
174.8848963883316117
 30
0.0
 40
0.1968503937042607
 50
270.0
 51
0.0
  0
LINE
  5
13BE4
  8
0
 10
3513.5917532551247859
 20
174.6880459946281974
 30
0.0
 11
3513.6232493181250902
 21
174.6880459946281974
 31
0.0
  0
LINE
  5
13BE5
  8
0
 10
3513.5917532551247859
 20
174.6880459946281974
 30
0.0
 11
3513.5917532551247859
 21
175.072734828828203
 31
0.0
  0
LINE
  5
13BE6
  8
0
 10
3513.6232493181250902
 20
174.6880459946281974
 30
0.0
 11
3513.6232493181250902
 21
175.072734828828203
 31
0.0
  0
LINE
  5
13BE7
  8
0
 10
3530.9460839638250036
 20
174.6880459946281974
 30
0.0
 11
3530.9775800268248531
 21
174.6880459946281974
 31
0.0
  0
LINE
  5
13BE8
  8
0
 10
3530.9460839638250036
 20
174.6880459946281974
 30
0.0
 11
3530.9460839638250036
 21
175.072734828828203
 31
0.0
  0
LINE
  5
13BE9
  8
0
 10
3530.9775800268248531
 20
174.6880459946281974
 30
0.0
 11
3530.9775800268248531
 21
175.072734828828203
 31
0.0
  0
ARC
  5
13BEA
  8
0
 10
3514.1917975627998203
 20
174.7274160733277881
 30
0.0
 40
0.2362204723999981
 50
4.0000000046693929
 51
90.0
  0
LINE
  5
13BEB
  8
0
 10
3514.4274426140000287
 20
174.7438939805277869
 30
0.0
 11
3514.7636421566771787
 21
169.9536914659400964
 31
0.0
  0
ARC
  5
13BEC
  8
0
 10
3516.5703815528690939
 20
170.0765777516133141
 30
0.0
 40
1.8109136602714411
 50
183.8910084718175142
 51
268.7733729500229742
  0
ARC
  5
13BED
  8
0
 10
3515.4028844663748714
 20
36.6451990027376269
 30
0.0
 40
131.6257197669017103
 50
88.041861701784228
 51
89.5086651575257406
  0
ARC
  5
13BEE
  8
0
 10
3519.8976955384009671
 20
168.1154025287740126
 30
0.0
 40
0.0787025607697977
 50
35.2225729268964116
 51
87.9985373357576748
  0
LINE
  5
13BEF
  8
0
 10
3520.3353663225461787
 20
167.9750414748282026
 30
0.0
 11
3524.2339669595039595
 21
167.9750414748282026
 31
0.0
  0
LINE
  5
13BF0
  8
0
 10
3519.9619890562248656
 20
168.1607945615282063
 30
0.0
 11
3520.0189677659500376
 21
168.0800896125091981
 31
0.0
  0
ARC
  5
13BF1
  8
0
 10
3520.1731639898798676
 20
168.1889540872508064
 30
0.0
 40
0.188753673699021
 50
215.2225729268963903
 51
261.8488431748672838
  0
LINE
  5
13BF2
  8
0
 10
3520.1464015269880292
 20
168.0021073053281953
 30
0.0
 11
3520.3353663225461787
 21
167.9750414748282026
 31
0.0
  0
ARC
  5
13BF3
  8
0
 10
3527.5796611614678113
 20
174.7274160733277881
 30
0.0
 40
0.2362204723999981
 50
138.4866355598140899
 51
175.9999999953305974
  0
LINE
  5
13BF4
  8
0
 10
3527.3440161102680577
 20
174.7438939805277869
 30
0.0
 11
3527.0088569266240484
 21
169.931332402428211
 31
0.0
  0
ARC
  5
13BF5
  8
0
 10
3525.2001590320342075
 20
170.0343417712120129
 30
0.0
 40
1.811628826209505
 50
272.7809348538028758
 51
356.7403990841913242
  0
ARC
  5
13BF6
  8
0
 10
3530.3071196514988515
 20
61.0518079471052673
 30
0.0
 40
107.290499079058506
 50
92.681283408959473
 51
93.012342130943594
  0
ARC
  5
13BF7
  8
0
 10
3524.6716377436491712
 20
168.1154025287740126
 30
0.0
 40
0.0787025607697977
 50
92.0014626642423252
 51
144.7774270731036097
  0
LINE
  5
13BF8
  8
0
 10
3524.6073442258248178
 20
168.1607945615282063
 30
0.0
 11
3524.5503655161001006
 21
168.0800896125091981
 31
0.0
  0
ARC
  5
13BF9
  8
0
 10
3524.3961692921698159
 20
168.1889540872508064
 30
0.0
 40
0.188753673699021
 50
278.1511568251327162
 51
324.7774270731035813
  0
LINE
  5
13BFA
  8
0
 10
3524.422931755062109
 20
168.0021073053281953
 30
0.0
 11
3524.2339669595039595
 21
167.9750414748282026
 31
0.0
  0
ARC
  5
13BFB
  8
0
 10
3522.284666646495225
 20
3535.8964432972247778
 30
0.0
 40
3367.7032301966760315
 50
269.9594364811351284
 51
270.040563518682518
  0
LINE
  5
13BFC
  8
0
 10
3514.8043363485207919
 20
169.6759624484153903
 30
0.0
 11
3514.8367548988130693
 21
169.2116273420544985
 31
0.0
  0
ARC
  5
13BFD
  8
0
 10
3516.6451417920879976
 20
169.336103144634194
 30
0.0
 40
1.8126658217096321
 50
183.9376012810527925
 51
268.7834546978535855
  0
ARC
  5
13BFE
  8
0
 10
3726.9071911223491043
 20
10180.7247366747596971
 30
0.0
 40
10015.4090477404097328
 50
268.7968321021215843
 51
268.8291954944212989
  0
ARC
  5
13BFF
  8
0
 10
3522.2598754372129406
 20
167.3280009539739979
 30
0.0
 40
0.0787025607697977
 50
35.2225729268964116
 51
87.9985373357576748
  0
LINE
  5
13C00
  8
0
 10
3522.697546221356788
 20
167.1876399000281879
 30
0.0
 11
3526.5935265615157732
 21
167.1876399000281879
 31
0.0
  0
LINE
  5
13C01
  8
0
 10
3522.3241689550368392
 20
167.3733929867281915
 30
0.0
 11
3522.3811476647620111
 21
167.2926880377092118
 31
0.0
  0
ARC
  5
13C02
  8
0
 10
3522.5353438886909316
 20
167.4015525124507917
 30
0.0
 40
0.188753673699021
 50
215.2225729268963903
 51
261.8488431748672838
  0
LINE
  5
13C03
  8
0
 10
3522.5085814258000028
 20
167.214705730528209
 30
0.0
 11
3522.697546221356788
 21
167.1876399000281879
 31
0.0
  0
ARC
  5
13C04
  8
0
 10
3530.3509582480228346
 20
174.727416073328186
 30
0.0
 40
0.2362204723999981
 50
90.0
 51
175.9999999953305974
  0
LINE
  5
13C05
  8
0
 10
3530.1153131968230809
 20
174.7438939805282132
 30
0.0
 11
3529.7298642264249793
 21
169.1842069932282016
 31
0.0
  0
ARC
  5
13C06
  8
0
 10
3527.9202167235598608
 20
169.2753302237277069
 30
0.0
 40
1.8119402660584261
 50
273.3661473351695008
 51
357.117355422384378
  0
ARC
  5
13C07
  8
0
 10
3539.0597198587970524
 20
-24.8595016997761888
 30
0.0
 40
192.6422245809864933
 50
93.2832722384098361
 51
93.5806790582384593
  0
ARC
  5
13C08
  8
0
 10
3527.0311973456609849
 20
167.3280009539739979
 30
0.0
 40
0.0787025607697977
 50
92.0014626642423252
 51
144.7774270731036097
  0
LINE
  5
13C09
  8
0
 10
3526.9669038278370863
 20
167.3733929867281915
 30
0.0
 11
3526.9099251181119143
 21
167.2926880377092118
 31
0.0
  0
ARC
  5
13C0A
  8
0
 10
3526.7557288941820843
 20
167.4015525124507917
 30
0.0
 40
0.188753673699021
 50
278.1511568251327162
 51
324.7774270731035813
  0
LINE
  5
13C0B
  8
0
 10
3526.7824913570739227
 20
167.214705730528209
 30
0.0
 11
3526.5935265615157732
 21
167.1876399000281879
 31
0.0
  0
ARC
  5
13C0C
  8
0
 10
3524.6455363876439151
 20
3326.0857678715119619
 30
0.0
 40
3158.6800112065511712
 50
269.9567759861511718
 51
270.0432240139789997
  0
LINE
  5
13C0D
  8
0
 10
3531.4120635159670201
 20
175.3179672544281971
 30
0.0
 11
3513.1572697660822087
 21
175.3179672544281971
 31
0.0
  0
LINE
  5
13C0E
  8
0
 10
3531.7334855387248354
 20
175.072734828828203
 30
0.0
 11
3512.8358477433248481
 21
175.072734828828203
 31
0.0
  0
LINE
  5
13C0F
  8
0
 10
3531.7334855387248354
 20
175.1211168607281934
 30
0.0
 11
3512.8358477433248481
 21
175.1211168607281934
 31
0.0
  0
LINE
  5
13C10
  8
0
 10
3512.8358477433248481
 20
175.072734828828203
 30
0.0
 11
3512.8358477433248481
 21
175.1211168607281934
 31
0.0
  0
LINE
  5
13C11
  8
0
 10
3512.8358477433248481
 20
175.1211168607281934
 30
0.0
 11
3513.0703716582279412
 21
175.2886339428281985
 31
0.0
  0
ARC
  5
13C12
  8
0
 10
3513.1622963824461294
 20
175.1596944459124074
 30
0.0
 40
0.1583526090329418
 50
91.8190561776619916
 51
125.4861774317597991
  0
LINE
  5
13C13
  8
0
 10
3513.8914687514161415
 20
175.072734828828203
 30
0.0
 11
3513.9521358439160394
 21
175.0120677363281914
 31
0.0
  0
ARC
  5
13C14
  8
0
 10
3514.0690590918270573
 20
175.1289909842390102
 30
0.0
 40
0.1653544429522018
 50
224.9999999999953957
 51
269.9867202922898173
  0
LINE
  5
13C15
  8
0
 10
3531.7334855387248354
 20
175.072734828828203
 30
0.0
 11
3531.7334855387248354
 21
175.1211168607281934
 31
0.0
  0
LINE
  5
13C16
  8
0
 10
3531.7334855387248354
 20
175.1211168607281934
 30
0.0
 11
3531.4989616238208328
 21
175.2886339428281985
 31
0.0
  0
ARC
  5
13C17
  8
0
 10
3531.4070368996040088
 20
175.1596944459124074
 30
0.0
 40
0.1583526090329418
 50
54.5138225682401867
 51
88.1809438223379942
  0
LINE
  5
13C18
  8
0
 10
3530.6778645306339968
 20
175.072734828828203
 30
0.0
 11
3530.6171974381340988
 21
175.0120677363281914
 31
0.0
  0
ARC
  5
13C19
  8
0
 10
3530.500274190223081
 20
175.1289909842390102
 30
0.0
 40
0.1653544429522018
 50
270.0132797077101827
 51
315.0000000000046043
  0
LINE
  5
13C1A
  8
0
 10
3529.5412189821408901
 20
177.4596995379282021
 30
0.0
 11
3528.413654873341784
 21
177.4596995379282021
 31
0.0
  0
LINE
  5
13C1B
  8
0
 10
3529.5384939129207851
 20
177.4203294591281974
 30
0.0
 11
3528.416379942561889
 21
177.4203294591281974
 31
0.0
  0
LINE
  5
13C1C
  8
0
 10
3529.5386291705758595
 20
177.5598305024282126
 30
0.0
 11
3528.4162446849068147
 21
177.5598305024282126
 31
0.0
  0
LINE
  5
13C1D
  8
0
 10
3529.4171962508048637
 20
177.5795431117282135
 30
0.0
 11
3528.537677604676901
 21
177.5795431117282135
 31
0.0
  0
LINE
  5
13C1E
  8
0
 10
3529.5324415335421691
 20
175.8219042623281894
 30
0.0
 11
3528.4224323219409598
 21
175.8219042623281894
 31
0.0
  0
LINE
  5
13C1F
  8
0
 10
3529.4558550013621243
 20
175.3837492597282051
 30
0.0
 11
3528.4990188541210046
 21
175.3837492597282051
 31
0.0
  0
LINE
  5
13C20
  8
0
 10
3529.4376062901410478
 20
175.8219042623281894
 30
0.0
 11
3529.4412655748410543
 21
175.4025917654346927
 31
0.0
  0
ARC
  5
13C21
  8
0
 10
3529.4609498647150758
 20
175.4027635476288935
 30
0.0
 40
0.019685039419682
 50
180.4999999967996018
 51
254.999999253872204
  0
LINE
  5
13C22
  8
0
 10
3529.4558550013621243
 20
175.3837492597282051
 30
0.0
 11
3529.701356774577107
 21
175.3179672544281971
 31
0.0
  0
ARC
  5
13C23
  8
0
 10
3529.4088208554080666
 20
177.3855526415470933
 30
0.0
 40
0.194171186763567
 50
79.9745477078289042
 51
87.5278322913598004
  0
LINE
  5
13C24
  8
0
 10
3529.4426232703408459
 20
177.5767589346282023
 30
0.0
 11
3529.5386229936930249
 21
177.5598315932695073
 31
0.0
  0
ARC
  5
13C25
  8
0
 10
3529.5365707190189823
 20
177.548192565220603
 30
0.0
 40
0.0118185788171846
 50
0.5304640487817112
 51
80.0000000050215192
  0
LINE
  5
13C26
  8
0
 10
3529.5483887913142098
 20
177.5483019841281873
 30
0.0
 11
3529.5490929978418535
 21
177.4675735536281991
 31
0.0
  0
ARC
  5
13C27
  8
0
 10
3529.5412189821408901
 20
177.4675735536281991
 30
0.0
 40
0.0078740157000006
 50
270.0
 51
0.0
  0
LINE
  5
13C28
  8
0
 10
3529.5302429566409046
 20
177.4596995379282021
 30
0.0
 11
3529.5305524761488414
 21
177.4242321106281963
 31
0.0
  0
ARC
  5
13C29
  8
0
 10
3529.5345423280218711
 20
177.4242669295335872
 30
0.0
 40
0.0039900037985537
 50
180.4999999365628014
 51
260.6922146528777944
  0
ARC
  5
13C2A
  8
0
 10
3529.5384849996808043
 20
177.4163924440815094
 30
0.0
 40
0.0039370251363389
 50
0.3528943437693002
 51
89.870285015057533
  0
LINE
  5
13C2B
  8
0
 10
3529.5424219501419429
 20
177.4164166927282054
 30
0.0
 11
3529.5521184946410358
 21
175.8412554042957936
 31
0.0
  0
ARC
  5
13C2C
  8
0
 10
3529.5324363041891047
 20
175.8415892837695935
 30
0.0
 40
0.019685022135991
 50
270.0152206992841002
 51
359.0281544052423897
  0
LINE
  5
13C2D
  8
0
 10
3528.5172675653411716
 20
175.8219042623281894
 30
0.0
 11
3528.513608280641165
 21
175.4025917654346927
 31
0.0
  0
ARC
  5
13C2E
  8
0
 10
3528.493923990768053
 20
175.4027635476288935
 30
0.0
 40
0.019685039419682
 50
285.000000746127796
 51
359.5000000032003982
  0
LINE
  5
13C2F
  8
0
 10
3528.4990188541210046
 20
175.3837492597282051
 30
0.0
 11
3528.2535170809051124
 21
175.3179672544281971
 31
0.0
  0
ARC
  5
13C30
  8
0
 10
3528.5460530000750623
 20
177.3855526415470933
 30
0.0
 40
0.194171186763567
 50
92.4721677086402138
 51
100.0254522921710958
  0
LINE
  5
13C31
  8
0
 10
3528.5122505851409187
 20
177.5767589346282023
 30
0.0
 11
3528.416250861790104
 21
177.5598315932695073
 31
0.0
  0
ARC
  5
13C32
  8
0
 10
3528.4183031364641465
 20
177.548192565220603
 30
0.0
 40
0.0118185788171846
 50
99.9999999949784808
 51
179.4695359512182904
  0
LINE
  5
13C33
  8
0
 10
3528.4064850641689191
 20
177.5483019841281873
 30
0.0
 11
3528.4057808576408206
 21
177.4675735536281991
 31
0.0
  0
ARC
  5
13C34
  8
0
 10
3528.413654873341784
 20
177.4675735536281991
 30
0.0
 40
0.0078740157000006
 50
180.0
 51
270.0
  0
LINE
  5
13C35
  8
0
 10
3528.4246308988422243
 20
177.4596995379282021
 30
0.0
 11
3528.4243213793329232
 21
177.4242321106281963
 31
0.0
  0
ARC
  5
13C36
  8
0
 10
3528.420331527460803
 20
177.4242669295335872
 30
0.0
 40
0.0039900037985537
 50
279.3077853471222056
 51
359.5000000634354933
  0
ARC
  5
13C37
  8
0
 10
3528.4163888558009603
 20
177.4163924440815094
 30
0.0
 40
0.0039370251363389
 50
90.129714984942467
 51
179.6471056562307069
  0
LINE
  5
13C38
  8
0
 10
3528.4124519053411859
 20
177.4164166927282054
 30
0.0
 11
3528.4111687460890607
 21
177.2079730783630112
 31
0.0
  0
LINE
  5
13C39
  8
0
 10
3528.4097603811492263
 20
176.9791903473162904
 30
0.0
 11
3528.4027553608411836
 21
175.8412554042957936
 31
0.0
  0
ARC
  5
13C3A
  8
0
 10
3528.4224375512940242
 20
175.8415892837695935
 30
0.0
 40
0.019685022135991
 50
180.9718455947574967
 51
269.9847793007158998
  0
LINE
  5
13C3B
  8
0
 10
3528.410624785528853
 20
176.9833215851282091
 30
0.0
 11
3528.3839441908248773
 21
176.9833215851282091
 31
0.0
  0
ARC
  5
13C3C
  8
0
 10
3528.3839441908248773
 20
169.2195159338359929
 30
0.0
 40
7.7638056512921798
 50
90.0
 51
113.2659544909937068
  0
ARC
  5
13C3D
  8
0
 10
3525.3141357273620997
 20
176.3592063934896998
 30
0.0
 40
0.0078675187539585
 50
242.3154337461654961
 51
293.2659544909938063
  0
ARC
  5
13C3E
  8
0
 10
3525.7553780009129696
 20
177.2001994258795889
 30
0.0
 40
0.957585384489386
 50
227.8154397106459896
 51
242.3154337461654961
  0
ARC
  5
13C3F
  8
0
 10
3525.1176246805957817
 20
176.4964745115019866
 30
0.0
 40
0.0078706627484649
 50
114.1586690726419988
 51
227.8154397106548004
  0
ARC
  5
13C40
  8
0
 10
3528.3860144211871557
 20
169.2099241850538078
 30
0.0
 40
7.9938701090457362
 50
90.0148383026060941
 51
114.1586690726419988
  0
LINE
  5
13C41
  8
0
 10
3528.3839441908248773
 20
177.2037940260281914
 30
0.0
 11
3528.4119880421958442
 21
177.2038012887475134
 31
0.0
  0
ARC
  5
13C42
  8
0
 10
3527.8570742344168139
 20
177.0969883315727884
 30
0.0
 40
0.5651002936503519
 50
347.9681730851003749
 51
11.3264209832948897
  0
ENDSEC
  0
EOF
