  0
SECTION
  2
HEADER
  9
$ACADVER
  1
AC1009
  9
$INSBASE
 10
4912.8190068447447629
 20
-2.5648314338638718
 30
0.0
  9
$EXTMIN
 10
4902.6182194430703021
 20
-3.7656188354075968
 30
0.0
  9
$EXTMAX
 10
4923.0197942463200889
 20
-1.3640440322075971
 30
0.0
  9
$LIMMIN
 10
0.0
 20
0.0
  9
$LIMMAX
 10
11.6929133858000007
 20
8.2677165353999982
  9
$ORTHOMODE
 70
     0
  9
$REGENMODE
 70
     1
  9
$FILLMODE
 70
     1
  9
$QTEXTMODE
 70
     0
  9
$MIRRTEXT
 70
     0
  9
$DRAGMODE
 70
     2
  9
$LTSCALE
 40
0.6431102362
  9
$OSMODE
 70
  3839
  9
$ATTMODE
 70
     1
  9
$TEXTSIZE
 40
0.2
  9
$TRACEWID
 40
0.05
  9
$TEXTSTYLE
  7
STANDARD
  9
$CLAYER
  8
0
  9
$CELTYPE
  6
BYLAYER
  9
$CECOLOR
 62
   256
  9
$DIMSCALE
 40
1.0
  9
$DIMASZ
 40
0.1875
  9
$DIMEXO
 40
0.0625
  9
$DIMDLI
 40
0.4443307087
  9
$DIMRND
 40
0.0
  9
$DIMDLE
 40
0.0
  9
$DIMEXE
 40
0.125
  9
$DIMTP
 40
0.01
  9
$DIMTM
 40
0.01
  9
$DIMTXT
 40
2.0
  9
$DIMCEN
 40
0.1052362205
  9
$DIMTSZ
 40
0.0
  9
$DIMTOL
 70
     1
  9
$DIMLIM
 70
     0
  9
$DIMTIH
 70
     1
  9
$DIMTOH
 70
     1
  9
$DIMSE1
 70
     0
  9
$DIMSE2
 70
     0
  9
$DIMTAD
 70
     0
  9
$DIMZIN
 70
     0
  9
$DIMBLK
  1

  9
$DIMASO
 70
     1
  9
$DIMSHO
 70
     1
  9
$DIMPOST
  1
\X
  9
$DIMAPOST
  1

  9
$DIMALT
 70
     1
  9
$DIMALTD
 70
     2
  9
$DIMALTF
 40
25.3999999999999986
  9
$DIMLFAC
 40
1.0
  9
$DIMTOFL
 70
     0
  9
$DIMTVP
 40
0.0
  9
$DIMTIX
 70
     0
  9
$DIMSOXD
 70
     0
  9
$DIMSAH
 70
     0
  9
$DIMBLK1
  1

  9
$DIMBLK2
  1

  9
$DIMSTYLE
  2
STANDARD
  9
$DIMCLRD
 70
     0
  9
$DIMCLRE
 70
     0
  9
$DIMCLRT
 70
     0
  9
$DIMTFAC
 40
1.0
  9
$DIMGAP
 40
0.09
  9
$LUNITS
 70
     2
  9
$LUPREC
 70
     4
  9
$SKETCHINC
 40
0.1
  9
$FILLETRAD
 40
0.0
  9
$AUNITS
 70
     0
  9
$AUPREC
 70
     0
  9
$MENU
  1
.
  9
$ELEVATION
 40
0.0
  9
$PELEVATION
 40
0.0
  9
$THICKNESS
 40
0.0
  9
$LIMCHECK
 70
     0
  9
$BLIPMODE
 70
     0
  9
$CHAMFERA
 40
0.0
  9
$CHAMFERB
 40
0.0
  9
$SKPOLY
 70
     0
  9
$TDCREATE
 40
2458060.468368056230247
  9
$TDUPDATE
 40
2460560.5464699068106711
  9
$TDINDWG
 40
0.5815116898
  9
$TDUSRTIMER
 40
0.5815116898
  9
$USRTIMER
 70
     1
  9
$ANGBASE
 50
0.0
  9
$ANGDIR
 70
     0
  9
$PDMODE
 70
     0
  9
$PDSIZE
 40
0.3125
  9
$PLINEWID
 40
0.0
  9
$COORDS
 70
     1
  9
$SPLFRAME
 70
     0
  9
$SPLINETYPE
 70
     6
  9
$SPLINESEGS
 70
     8
  9
$ATTDIA
 70
     1
  9
$ATTREQ
 70
     1
  9
$HANDLING
 70
     1
  9
$HANDSEED
  5
2609F
  9
$SURFTAB1
 70
     6
  9
$SURFTAB2
 70
     6
  9
$SURFTYPE
 70
     6
  9
$SURFU
 70
     6
  9
$SURFV
 70
     6
  9
$UCSNAME
  2

  9
$UCSORG
 10
0.0
 20
0.0
 30
0.0
  9
$UCSXDIR
 10
1.0
 20
0.0
 30
0.0
  9
$UCSYDIR
 10
0.0
 20
1.0
 30
0.0
  9
$PUCSNAME
  2

  9
$PUCSORG
 10
0.0
 20
0.0
 30
0.0
  9
$PUCSXDIR
 10
1.0
 20
0.0
 30
0.0
  9
$PUCSYDIR
 10
0.0
 20
1.0
 30
0.0
  9
$USERI1
 70
     0
  9
$USERI2
 70
     0
  9
$USERI3
 70
     0
  9
$USERI4
 70
     0
  9
$USERI5
 70
     0
  9
$USERR1
 40
0.0
  9
$USERR2
 40
0.0
  9
$USERR3
 40
0.0
  9
$USERR4
 40
0.0
  9
$USERR5
 40
0.0
  9
$WORLDVIEW
 70
     1
  9
$SHADEDGE
 70
     3
  9
$SHADEDIF
 70
    70
  9
$TILEMODE
 70
     1
  9
$MAXACTVP
 70
    64
  9
$PLIMCHECK
 70
     0
  9
$PEXTMIN
 10
1.0000000000000000E+20
 20
1.0000000000000000E+20
 30
1.0000000000000000E+20
  9
$PEXTMAX
 10
-1.0000000000000000E+20
 20
-1.0000000000000000E+20
 30
-1.0000000000000000E+20
  9
$PLIMMIN
 10
0.0
 20
0.0
  9
$PLIMMAX
 10
12.0
 20
9.0
  9
$UNITMODE
 70
     0
  9
$VISRETAIN
 70
     1
  9
$PLINEGEN
 70
     0
  9
$PSLTSCALE
 70
     1
  0
ENDSEC
  0
SECTION
  2
TABLES
  0
TABLE
  2
VPORT
 70
     1
  0
VPORT
  2
*ACTIVE
 70
     0
 10
0.0
 20
0.0
 11
1.0
 21
1.0
 12
1120.5383628774291083
 22
-122.4293499079988976
 13
0.0
 23
0.0
 14
1.0
 24
1.0
 15
0.0
 25
0.0
 16
0.0
 26
0.0
 36
5.1040778033513332
 17
3792.35791015625
 27
120.1806564331053977
 37
0.0
 40
9.6337175563845268
 41
2.1537376586741881
 42
50.0
 43
0.0
 44
0.0
 50
0.0
 51
0.0
 71
     0
 72
   100
 73
     1
 74
     1
 75
     0
 76
     0
 77
     0
 78
     0
  0
ENDTAB
  0
TABLE
  2
LTYPE
 70
     2
  0
LTYPE
  2
CONTINUOUS
 70
     0
  3
Solid line
 72
    65
 73
     0
 40
0.0
  0
LTYPE
  2
PHANTOM2
 70
     0
  3
___ _ _ ___ _ _ ___ _ _ ___ _ _
 72
    65
 73
     6
 40
1.25
 49
0.625
 49
-0.125
 49
0.125
 49
-0.125
 49
0.125
 49
-0.125
  0
ENDTAB
  0
TABLE
  2
LAYER
 70
     2
  0
LAYER
  2
0
 70
     0
 62
   255
  6
CONTINUOUS
  0
LAYER
  2
DEFPOINTS
 70
     0
 62
     7
  6
CONTINUOUS
  0
ENDTAB
  0
TABLE
  2
STYLE
 70
     1
  0
STYLE
  2
STANDARD
 70
     0
 40
0.0
 41
0.8
 50
0.0
 71
     0
 42
0.2
  3
txt
  4

  0
ENDTAB
  0
TABLE
  2
VIEW
 70
     0
  0
ENDTAB
  0
TABLE
  2
UCS
 70
     0
  0
ENDTAB
  0
TABLE
  2
APPID
 70
     9
  0
APPID
  2
ACAD
 70
     0
  0
APPID
  2
ACAD_MLEADERVER
 70
     0
  0
APPID
  2
ACAD_EXEMPT_FROM_CAD_STANDARDS
 70
     0
  0
APPID
  2
ACAD_NAV_VCDISPLAY
 70
     0
  0
APPID
  2
ACAECLAYERSTANDARD
 70
     0
  0
APPID
  2
ACCMTRANSPARENCY
 70
     0
  0
APPID
  2
ACAD_DSTYLE_DIMJAG
 70
     0
  0
APPID
  2
ACAD_DSTYLE_DIMTALN
 70
     0
  0
APPID
  2
ACDBATTR
 70
     0
  0
ENDTAB
  0
TABLE
  2
DIMSTYLE
 70
     1
  0
DIMSTYLE
  2
STANDARD
 70
     0
  3

  4

  5

  6

  7

 40
1.0
 41
0.1875
 42
0.0625
 43
0.38
 44
0.125
 45
0.0
 46
0.0
 47
0.01
 48
0.01
140
0.15625
141
0.09
142
0.0
143
25.3999999999999986
144
1.0
145
0.0
146
1.0
147
0.09
 71
     1
 72
     0
 73
     1
 74
     1
 75
     0
 76
     0
 77
     0
 78
     4
170
     0
171
     2
172
     0
173
     0
174
     0
175
     0
176
     0
177
     0
178
     0
  0
ENDTAB
  0
ENDSEC
  0
SECTION
  2
BLOCKS
  0
BLOCK
  8
0
  2
$MODEL_SPACE
 70
     0
 10
0.0
 20
0.0
 30
0.0
  3
$MODEL_SPACE
  1

  0
ENDBLK
  5
21
  8
0
  0
BLOCK
 67
     1
  8
0
  2
$PAPER_SPACE
 70
     0
 10
0.0
 20
0.0
 30
0.0
  3
$PAPER_SPACE
  1

  0
ENDBLK
  5
1D
 67
     1
  8
0
  0
BLOCK
  8
0
  2
_FILLED
 70
     0
 10
0.0
 20
0.0
 30
0.0
  3
_FILLED
  1

  0
SOLID
  5
25CA2
  8
0
  6
BYBLOCK
 62
     0
 10
0.0
 20
0.0
 30
0.0
 11
-1.0
 21
0.1666666667
 31
0.0
 12
-1.0
 22
-0.1666666667
 32
0.0
 13
-1.0
 23
-0.1666666667
 33
0.0
  0
ENDBLK
  5
25CA3
  8
0
  6
BYBLOCK
 62
     0
  0
ENDSEC
  0
SECTION
  2
ENTITIES
  0
ATTDEF
  5
25833
  8
DEFPOINTS
 10
4912.819462231763282
 20
-2.560052748687013
 30
0.0
 40
0.001
  1
K-11892
  3

  2
MODELNUMBER
 70
     0
1001
ACDBATTR
1070
     0
1070
     1
  0
ATTDEF
  5
25834
  8
DEFPOINTS
 10
4912.819462231763282
 20
-2.5617194153536782
 30
0.0
 40
0.001
  1
PURIST
  3

  2
TRADENAME
 70
     0
1001
ACDBATTR
1070
     0
1070
     1
  0
ATTDEF
  5
25835
  8
DEFPOINTS
 10
4912.819462231763282
 20
-2.5633860820203429
 30
0.0
 40
0.001
  1
GRAB BAR
  3

  2
PRODUCT
 70
     0
1001
ACDBATTR
1070
     0
1070
     1
  0
LINE
  5
25D31
  8
0
 10
4902.9292430651703398
 20
-1.934910174063873
 30
0.0
 11
4902.9292430651703398
 21
-3.1947526937638591
 31
0.0
  0
ARC
  5
25D32
  8
0
 10
4902.8978403269347837
 20
-1.962557721248998
 30
0.0
 40
0.0315895117114172
 50
6.2335864585347087
 51
179.8394964228884874
  0
LINE
  5
25D33
  8
0
 10
4902.8662509391706408
 20
-1.9624692290513499
 30
0.0
 11
4902.8662509391706408
 21
-3.1671936386638602
 31
0.0
  0
ARC
  5
25D34
  8
0
 10
4902.8977470021709451
 20
-3.167193638663889
 30
0.0
 40
0.0314960629999996
 50
179.999999999985306
 51
0.0000000000162844
  0
LINE
  5
25D35
  8
0
 10
4902.9292430651703398
 20
-3.1947526937638591
 30
0.0
 11
4922.7087706242200511
 21
-3.1947526937638591
 31
0.0
  0
LINE
  5
25D36
  8
0
 10
4922.7087706242200511
 20
-1.934910174063873
 30
0.0
 11
4922.7087706242200511
 21
-3.1947526937638591
 31
0.0
  0
ARC
  5
25D37
  8
0
 10
4922.7401733624556073
 20
-1.962557721248998
 30
0.0
 40
0.0315895117114172
 50
0.16050357711145
 51
173.7664135414653117
  0
LINE
  5
25D38
  8
0
 10
4922.7717627502197502
 20
-1.9624692290513499
 30
0.0
 11
4922.7717627502206597
 21
-3.1671936386638602
 31
0.0
  0
ARC
  5
25D39
  8
0
 10
4922.7402666872203554
 20
-3.167193638663889
 30
0.0
 40
0.0314960629999996
 50
179.9999999999836859
 51
0.000000000014656
  0
ARC
  5
25D3A
  8
0
 10
4903.8190068446701844
 20
-2.5648314338075968
 30
0.0
 40
1.2007874015999991
 50
31.6406573851773203
 51
328.3593426092270988
  0
ARC
  5
25D3B
  8
0
 10
4903.8190068446701844
 20
-2.5648314338075968
 30
0.0
 40
0.7686619737999996
 50
55.035133700773379
 51
124.9648662992265997
  0
ARC
  5
25D3C
  8
0
 10
4903.8190068446701844
 20
-2.5648314338075968
 30
0.0
 40
0.7686619737999996
 50
235.0351337137985865
 51
304.9648662862014135
  0
LINE
  5
25D3D
  8
0
 10
4922.7087706242200511
 20
-1.934910174063873
 30
0.0
 11
4922.7087706242200511
 21
-3.1947526937638591
 31
0.0
  0
ARC
  5
25D3E
  8
0
 10
4922.7401733624556073
 20
-1.962557721248998
 30
0.0
 40
0.0315895117114172
 50
0.16050357711145
 51
173.7664135414653117
  0
LINE
  5
25D3F
  8
0
 10
4922.7717627502197502
 20
-1.9624692290513499
 30
0.0
 11
4922.7717627502206597
 21
-3.1671936386638602
 31
0.0
  0
ARC
  5
25D40
  8
0
 10
4922.7402666872203554
 20
-3.167193638663889
 30
0.0
 40
0.0314960629999996
 50
179.9999999999836859
 51
0.000000000014656
  0
ARC
  5
25D41
  8
0
 10
4921.8190068447202066
 20
-2.5648314338075968
 30
0.0
 40
1.2007874015999991
 50
211.6406573907727022
 51
148.3593426148227934
  0
ARC
  5
25D42
  8
0
 10
4921.8190068447202066
 20
-2.5648314338075968
 30
0.0
 40
0.7686619737999996
 50
55.035133700773379
 51
124.9648662992265997
  0
ARC
  5
25D43
  8
0
 10
4921.8190068447202066
 20
-2.5648314338075968
 30
0.0
 40
0.7686619737999996
 50
235.0351337137985865
 51
304.9648662862014135
  0
LINE
  5
25D44
  8
0
 10
4902.9292430651703398
 20
-1.934910174063873
 30
0.0
 11
4922.7087706242200511
 21
-1.934910174063873
 31
0.0
  0
ENDSEC
  0
EOF
