  0
SECTION
  2
HEADER
  9
$ACADVER
  1
AC1009
  9
$INSBASE
 10
4912.8190139920907313
 20
-2.5639999481917619
 30
0.0
  9
$EXTMIN
 10
4906.9568626571635832
 20
-5.2615973165161227
 30
-0.0000000000112498
  9
$EXTMAX
 10
4918.5904081551234412
 20
-2.5583356289857662
 30
0.0000000000002956
  9
$LIMMIN
 10
0.0
 20
0.0
  9
$LIMMAX
 10
11.6929133858000007
 20
8.2677165353999982
  9
$ORTHOMODE
 70
     0
  9
$REGENMODE
 70
     1
  9
$FILLMODE
 70
     1
  9
$QTEXTMODE
 70
     0
  9
$MIRRTEXT
 70
     0
  9
$DRAGMODE
 70
     2
  9
$LTSCALE
 40
0.6431102362
  9
$OSMODE
 70
  3839
  9
$ATTMODE
 70
     1
  9
$TEXTSIZE
 40
0.2
  9
$TRACEWID
 40
0.05
  9
$TEXTSTYLE
  7
STANDARD
  9
$CLAYER
  8
0
  9
$CELTYPE
  6
BYLAYER
  9
$CECOLOR
 62
   256
  9
$DIMSCALE
 40
1.0
  9
$DIMASZ
 40
0.1875
  9
$DIMEXO
 40
0.0625
  9
$DIMDLI
 40
0.4443307087
  9
$DIMRND
 40
0.0
  9
$DIMDLE
 40
0.0
  9
$DIMEXE
 40
0.125
  9
$DIMTP
 40
0.01
  9
$DIMTM
 40
0.01
  9
$DIMTXT
 40
2.0
  9
$DIMCEN
 40
0.1052362205
  9
$DIMTSZ
 40
0.0
  9
$DIMTOL
 70
     1
  9
$DIMLIM
 70
     0
  9
$DIMTIH
 70
     1
  9
$DIMTOH
 70
     1
  9
$DIMSE1
 70
     0
  9
$DIMSE2
 70
     0
  9
$DIMTAD
 70
     0
  9
$DIMZIN
 70
     0
  9
$DIMBLK
  1

  9
$DIMASO
 70
     1
  9
$DIMSHO
 70
     1
  9
$DIMPOST
  1
\X
  9
$DIMAPOST
  1

  9
$DIMALT
 70
     1
  9
$DIMALTD
 70
     2
  9
$DIMALTF
 40
25.3999999999999986
  9
$DIMLFAC
 40
1.0
  9
$DIMTOFL
 70
     0
  9
$DIMTVP
 40
0.0
  9
$DIMTIX
 70
     0
  9
$DIMSOXD
 70
     0
  9
$DIMSAH
 70
     0
  9
$DIMBLK1
  1

  9
$DIMBLK2
  1

  9
$DIMSTYLE
  2
STANDARD
  9
$DIMCLRD
 70
     0
  9
$DIMCLRE
 70
     0
  9
$DIMCLRT
 70
     0
  9
$DIMTFAC
 40
1.0
  9
$DIMGAP
 40
0.09
  9
$LUNITS
 70
     2
  9
$LUPREC
 70
     4
  9
$SKETCHINC
 40
0.1
  9
$FILLETRAD
 40
0.0
  9
$AUNITS
 70
     0
  9
$AUPREC
 70
     0
  9
$MENU
  1
.
  9
$ELEVATION
 40
0.0
  9
$PELEVATION
 40
0.0
  9
$THICKNESS
 40
0.0
  9
$LIMCHECK
 70
     0
  9
$BLIPMODE
 70
     0
  9
$CHAMFERA
 40
0.0
  9
$CHAMFERB
 40
0.0
  9
$SKPOLY
 70
     0
  9
$TDCREATE
 40
2458060.468368056230247
  9
$TDUPDATE
 40
2460560.5487268520519137
  9
$TDINDWG
 40
0.5792200231
  9
$TDUSRTIMER
 40
0.5792200231
  9
$USRTIMER
 70
     1
  9
$ANGBASE
 50
0.0
  9
$ANGDIR
 70
     0
  9
$PDMODE
 70
     0
  9
$PDSIZE
 40
0.3125
  9
$PLINEWID
 40
0.0
  9
$COORDS
 70
     1
  9
$SPLFRAME
 70
     0
  9
$SPLINETYPE
 70
     6
  9
$SPLINESEGS
 70
     8
  9
$ATTDIA
 70
     1
  9
$ATTREQ
 70
     1
  9
$HANDLING
 70
     1
  9
$HANDSEED
  5
25F16
  9
$SURFTAB1
 70
     6
  9
$SURFTAB2
 70
     6
  9
$SURFTYPE
 70
     6
  9
$SURFU
 70
     6
  9
$SURFV
 70
     6
  9
$UCSNAME
  2

  9
$UCSORG
 10
0.0
 20
0.0
 30
0.0
  9
$UCSXDIR
 10
1.0
 20
0.0
 30
0.0
  9
$UCSYDIR
 10
0.0
 20
1.0
 30
0.0
  9
$PUCSNAME
  2

  9
$PUCSORG
 10
0.0
 20
0.0
 30
0.0
  9
$PUCSXDIR
 10
1.0
 20
0.0
 30
0.0
  9
$PUCSYDIR
 10
0.0
 20
1.0
 30
0.0
  9
$USERI1
 70
     0
  9
$USERI2
 70
     0
  9
$USERI3
 70
     0
  9
$USERI4
 70
     0
  9
$USERI5
 70
     0
  9
$USERR1
 40
0.0
  9
$USERR2
 40
0.0
  9
$USERR3
 40
0.0
  9
$USERR4
 40
0.0
  9
$USERR5
 40
0.0
  9
$WORLDVIEW
 70
     1
  9
$SHADEDGE
 70
     3
  9
$SHADEDIF
 70
    70
  9
$TILEMODE
 70
     1
  9
$MAXACTVP
 70
    64
  9
$PLIMCHECK
 70
     0
  9
$PEXTMIN
 10
1.0000000000000000E+20
 20
1.0000000000000000E+20
 30
1.0000000000000000E+20
  9
$PEXTMAX
 10
-1.0000000000000000E+20
 20
-1.0000000000000000E+20
 30
-1.0000000000000000E+20
  9
$PLIMMIN
 10
0.0
 20
0.0
  9
$PLIMMAX
 10
12.0
 20
9.0
  9
$UNITMODE
 70
     0
  9
$VISRETAIN
 70
     1
  9
$PLINEGEN
 70
     0
  9
$PSLTSCALE
 70
     1
  0
ENDSEC
  0
SECTION
  2
TABLES
  0
TABLE
  2
VPORT
 70
     1
  0
VPORT
  2
*ACTIVE
 70
     0
 10
0.0
 20
0.0
 11
1.0
 21
1.0
 12
1120.4157252498930575
 22
-124.0906229058564065
 13
0.0
 23
0.0
 14
1.0
 24
1.0
 15
0.0
 25
0.0
 16
0.0
 26
0.0
 36
5.1040778033513332
 17
3792.35791015625
 27
120.1806564331053977
 37
0.0
 40
5.4227553880124271
 41
2.1537376586741881
 42
50.0
 43
0.0
 44
0.0
 50
0.0
 51
0.0
 71
     0
 72
   100
 73
     1
 74
     1
 75
     0
 76
     0
 77
     0
 78
     0
  0
ENDTAB
  0
TABLE
  2
LTYPE
 70
     2
  0
LTYPE
  2
CONTINUOUS
 70
     0
  3
Solid line
 72
    65
 73
     0
 40
0.0
  0
LTYPE
  2
PHANTOM2
 70
     0
  3
___ _ _ ___ _ _ ___ _ _ ___ _ _
 72
    65
 73
     6
 40
1.25
 49
0.625
 49
-0.125
 49
0.125
 49
-0.125
 49
0.125
 49
-0.125
  0
ENDTAB
  0
TABLE
  2
LAYER
 70
     2
  0
LAYER
  2
0
 70
     0
 62
   255
  6
CONTINUOUS
  0
LAYER
  2
DEFPOINTS
 70
     0
 62
     7
  6
CONTINUOUS
  0
ENDTAB
  0
TABLE
  2
STYLE
 70
     1
  0
STYLE
  2
STANDARD
 70
     0
 40
0.0
 41
0.8
 50
0.0
 71
     0
 42
0.2
  3
txt
  4

  0
ENDTAB
  0
TABLE
  2
VIEW
 70
     0
  0
ENDTAB
  0
TABLE
  2
UCS
 70
     0
  0
ENDTAB
  0
TABLE
  2
APPID
 70
     9
  0
APPID
  2
ACAD
 70
     0
  0
APPID
  2
ACAD_MLEADERVER
 70
     0
  0
APPID
  2
ACAD_EXEMPT_FROM_CAD_STANDARDS
 70
     0
  0
APPID
  2
ACAD_NAV_VCDISPLAY
 70
     0
  0
APPID
  2
ACAECLAYERSTANDARD
 70
     0
  0
APPID
  2
ACCMTRANSPARENCY
 70
     0
  0
APPID
  2
ACAD_DSTYLE_DIMJAG
 70
     0
  0
APPID
  2
ACAD_DSTYLE_DIMTALN
 70
     0
  0
APPID
  2
ACDBATTR
 70
     0
  0
ENDTAB
  0
TABLE
  2
DIMSTYLE
 70
     1
  0
DIMSTYLE
  2
STANDARD
 70
     0
  3

  4

  5

  6

  7

 40
1.0
 41
0.1875
 42
0.0625
 43
0.38
 44
0.125
 45
0.0
 46
0.0
 47
0.01
 48
0.01
140
0.15625
141
0.09
142
0.0
143
25.3999999999999986
144
1.0
145
0.0
146
1.0
147
0.09
 71
     1
 72
     0
 73
     1
 74
     1
 75
     0
 76
     0
 77
     0
 78
     4
170
     0
171
     2
172
     0
173
     0
174
     0
175
     0
176
     0
177
     0
178
     0
  0
ENDTAB
  0
ENDSEC
  0
SECTION
  2
BLOCKS
  0
BLOCK
  8
0
  2
$MODEL_SPACE
 70
     0
 10
0.0
 20
0.0
 30
0.0
  3
$MODEL_SPACE
  1

  0
ENDBLK
  5
21
  8
0
  0
BLOCK
 67
     1
  8
0
  2
$PAPER_SPACE
 70
     0
 10
0.0
 20
0.0
 30
0.0
  3
$PAPER_SPACE
  1

  0
ENDBLK
  5
1D
 67
     1
  8
0
  0
BLOCK
  8
0
  2
_FILLED
 70
     0
 10
0.0
 20
0.0
 30
0.0
  3
_FILLED
  1

  0
SOLID
  5
25CA2
  8
0
  6
BYBLOCK
 62
     0
 10
0.0
 20
0.0
 30
0.0
 11
-1.0
 21
0.1666666667
 31
0.0
 12
-1.0
 22
-0.1666666667
 32
0.0
 13
-1.0
 23
-0.1666666667
 33
0.0
  0
ENDBLK
  5
25CA3
  8
0
  6
BYBLOCK
 62
     0
  0
ENDSEC
  0
SECTION
  2
ENTITIES
  0
ATTDEF
  5
25833
  8
DEFPOINTS
 10
4912.819462231763282
 20
-2.560052748687013
 30
0.0
 40
0.001
  1
K-11897
  3

  2
MODELNUMBER
 70
     0
1001
ACDBATTR
1070
     0
1070
     1
  0
ATTDEF
  5
25834
  8
DEFPOINTS
 10
4912.819462231763282
 20
-2.5617194153536782
 30
0.0
 40
0.001
  1
PURIST
  3

  2
TRADENAME
 70
     0
1001
ACDBATTR
1070
     0
1070
     1
  0
ATTDEF
  5
25835
  8
DEFPOINTS
 10
4912.819462231763282
 20
-2.5633860820203429
 30
0.0
 40
0.001
  1
GRAB BAR
  3

  2
PRODUCT
 70
     0
1001
ACDBATTR
1070
     0
1070
     1
  0
LINE
  5
25D05
  8
0
 10
4907.118226590490849
 20
-2.5639999481917619
 30
0.0
 11
4907.118226590490849
 21
-2.7529763263494238
 31
0.0
  0
ARC
  5
25D06
  8
0
 10
4907.1654689405559111
 20
-2.7529780707850171
 30
0.0
 40
0.0472423500965992
 50
179.9978843390161956
 51
270.0021149805937739
  0
ARC
  5
25D07
  8
0
 10
4907.5503520182919601
 20
-3.1151810507494111
 30
0.0
 40
0.3149606298999998
 50
7.9032077335025512
 51
90.0
  0
LINE
  5
25D08
  8
0
 10
4907.8623210786736308
 20
-3.0718739641380899
 30
0.0
 11
4907.8623210786918207
 21
-3.9970708145494291
 31
0.0
  0
LINE
  5
25D09
  8
0
 10
4907.8623210786918207
 20
-3.9970708145494291
 30
0.0
 11
4907.4292502125917963
 21
-3.9970708145494291
 31
0.0
  0
LINE
  5
25D0A
  8
0
 10
4907.4292502125917963
 20
-3.9970708145494291
 30
0.0
 11
4907.4292502125917963
 21
-5.2569133342494156
 31
0.0
  0
ARC
  5
25D0B
  8
0
 10
4909.0876759658913215
 20
-3.1151810507494111
 30
0.0
 40
0.3149606298999998
 50
90.0
 51
172.0967922664974026
  0
LINE
  5
25D0C
  8
0
 10
4908.7757069055078318
 20
-3.0718739641380899
 30
0.0
 11
4908.7757069054905514
 21
-3.9970708145494291
 31
0.0
  0
LINE
  5
25D0D
  8
0
 10
4909.5198013936924326
 20
-2.5639999481917619
 30
0.0
 11
4909.5198013936924326
 21
-2.7529763263494238
 31
0.0
  0
ARC
  5
25D0E
  8
0
 10
4909.4725572991919762
 20
-2.7529763263494238
 30
0.0
 40
0.0472440945000008
 50
270.0000006804029908
 51
0.0000000000016284
  0
LINE
  5
25D0F
  8
0
 10
4907.1654706844301472
 20
-2.800220420849425
 30
0.0
 11
4909.4725572991919762
 21
-2.800220420849425
 31
0.0
  0
LINE
  5
25D10
  8
0
 10
4907.8623210786736308
 20
-3.0718739641380899
 30
0.0
 11
4908.7757069055078318
 21
-3.0718739641548871
 31
0.0
  0
ARC
  5
25D11
  8
0
 10
4908.6588454055890907
 20
-2.9477597833932498
 30
0.0
 40
1.3173855333364941
 50
232.7981326191732876
 51
245.4578565434370034
  0
ARC
  5
25D12
  8
0
 10
4907.3978474743562401
 20
-4.0247183617345259
 30
0.0
 40
0.0315895117114172
 50
6.2335864585346101
 51
179.8394964228884874
  0
LINE
  5
25D13
  8
0
 10
4907.3662580865920972
 20
-4.0246298695368781
 30
0.0
 11
4907.3662580865911877
 21
-5.2293542791494172
 31
0.0
  0
ARC
  5
25D14
  8
0
 10
4907.3977541495924015
 20
-5.2293542791494172
 30
0.0
 40
0.0314960629999996
 50
179.999999999985306
 51
0.0000000000162844
  0
ARC
  5
25D15
  8
0
 10
4908.3187668668888364
 20
-3.713358011342192
 30
0.0
 40
0.4797765734387708
 50
244.4252477209865049
 51
294.9574420481459924
  0
ARC
  5
25D16
  8
0
 10
4907.8996882633728092
 20
-2.8128954268273079
 30
0.0
 40
1.472983370654356
 50
294.9574420481459924
 51
306.4929630562343164
  0
LINE
  5
25D17
  8
0
 10
4918.5198013936924326
 20
-2.5639999481917619
 30
0.0
 11
4918.5198013936924326
 21
-2.7529763263494238
 31
0.0
  0
ARC
  5
25D18
  8
0
 10
4918.4725590436273706
 20
-2.7529780707850171
 30
0.0
 40
0.0472423500965992
 50
269.9978850194061124
 51
0.002115660983805
  0
ARC
  5
25D19
  8
0
 10
4918.087675965892231
 20
-3.1151810507494111
 30
0.0
 40
0.3149606298999998
 50
90.0
 51
172.0967922664974026
  0
LINE
  5
25D1A
  8
0
 10
4917.7757069055087413
 20
-3.0718739641380899
 30
0.0
 11
4917.7757069054905514
 21
-3.9970708145494291
 31
0.0
  0
LINE
  5
25D1B
  8
0
 10
4917.7757069054905514
 20
-3.9970708145494291
 30
0.0
 11
4918.2087777715905759
 21
-3.9970708145494291
 31
0.0
  0
ARC
  5
25D1C
  8
0
 10
4916.5503520182919601
 20
-3.1151810507494111
 30
0.0
 40
0.3149606298999998
 50
7.9032077335025512
 51
90.0
  0
LINE
  5
25D1D
  8
0
 10
4916.8623210786736308
 20
-3.0718739641380899
 30
0.0
 11
4916.8623210786918207
 21
-3.9970708145494291
 31
0.0
  0
LINE
  5
25D1E
  8
0
 10
4916.1182265904917585
 20
-2.5639999481917619
 30
0.0
 11
4916.1182265904917585
 21
-2.7529763263494238
 31
0.0
  0
ARC
  5
25D1F
  8
0
 10
4916.165470684992215
 20
-2.7529763263494238
 30
0.0
 40
0.0472440945000008
 50
179.9999999999984084
 51
269.9999993195970092
  0
LINE
  5
25D20
  8
0
 10
4918.4725572997540439
 20
-2.800220420849425
 30
0.0
 11
4916.165470684992215
 21
-2.800220420849425
 31
0.0
  0
LINE
  5
25D21
  8
0
 10
4917.7757069055087413
 20
-3.0718739641380899
 30
0.0
 11
4916.8623210786736308
 21
-3.0718739641548871
 31
0.0
  0
ARC
  5
25D22
  8
0
 10
4916.9791825785951005
 20
-2.9477597833932498
 30
0.0
 40
1.3173855333364941
 50
294.5421434565629966
 51
307.201867380826684
  0
ARC
  5
25D23
  8
0
 10
4917.3192611172944453
 20
-3.713358011342192
 30
0.0
 40
0.4797765734387708
 50
245.0425579518538939
 51
295.5747522790135235
  0
ARC
  5
25D24
  8
0
 10
4917.7383397208086535
 20
-2.8128954268273079
 30
0.0
 40
1.472983370654356
 50
233.5070369437655984
 51
245.0425579518538939
  0
LINE
  5
25D25
  8
0
 10
4908.7757069054905514
 20
-3.9970708145494291
 30
0.0
 11
4916.8623210786918207
 21
-3.9970708144006699
 31
0.0
  0
LINE
  5
25D26
  8
0
 10
4918.2087777715905759
 20
-3.9970708145494291
 30
0.0
 11
4918.2087777715905759
 21
-5.2569133343103811
 31
0.0
  0
ARC
  5
25D27
  8
0
 10
4918.240180509827951
 20
-4.0247183617345259
 30
0.0
 40
0.0315895117114172
 50
0.16050357711145
 51
173.766413541465397
  0
LINE
  5
25D28
  8
0
 10
4918.2717698975911844
 20
-4.0246298695368781
 30
0.0
 11
4918.2717698975920939
 21
-5.2293542791494172
 31
0.0
  0
ARC
  5
25D29
  8
0
 10
4918.2402738345917896
 20
-5.2293542791494172
 30
0.0
 40
0.0314960629999996
 50
179.9999999999836859
 51
0.000000000014656
  0
LINE
  5
25D2A
  8
0
 10
4907.4292502125917963
 20
-5.2569133341121113
 30
0.0
 11
4918.2087777715905759
 21
-5.2569133343103811
 31
0.0
  0
LINE
  5
25D2B
  8
0
 10
4907.118226590490849
 20
-2.5639999481917619
 30
0.0
 11
4909.5198013936924326
 21
-2.5639999481917619
 31
0.0
  0
LINE
  5
25D2C
  8
0
 10
4916.1182265904917585
 20
-2.5639999481917619
 30
0.0
 11
4918.5198013936924326
 21
-2.5639999481917619
 31
0.0
  0
ENDSEC
  0
EOF
