  0
SECTION
  2
HEADER
  9
$ACADVER
  1
AC1009
  9
$INSBASE
 10
2941.7292767990779794
 20
150.7653549277125933
 30
0.0
  9
$EXTMIN
 10
2940.7928609113960192
 20
150.7596668994270033
 30
0.0
  9
$EXTMAX
 10
2942.6656898006958727
 20
155.707428730131312
 30
0.0
  9
$LIMMIN
 10
0.0
 20
0.0
  9
$LIMMAX
 10
11.6929133858000007
 20
8.2677165353999982
  9
$ORTHOMODE
 70
     0
  9
$REGENMODE
 70
     1
  9
$FILLMODE
 70
     1
  9
$QTEXTMODE
 70
     0
  9
$MIRRTEXT
 70
     0
  9
$DRAGMODE
 70
     2
  9
$LTSCALE
 40
0.6431102362
  9
$OSMODE
 70
  4095
  9
$ATTMODE
 70
     1
  9
$TEXTSIZE
 40
0.2
  9
$TRACEWID
 40
0.05
  9
$TEXTSTYLE
  7
STANDARD
  9
$CLAYER
  8
0
  9
$CELTYPE
  6
BYLAYER
  9
$CECOLOR
 62
   256
  9
$DIMSCALE
 40
1.0
  9
$DIMASZ
 40
0.1875
  9
$DIMEXO
 40
0.0625
  9
$DIMDLI
 40
0.4443307087
  9
$DIMRND
 40
0.0
  9
$DIMDLE
 40
0.0
  9
$DIMEXE
 40
0.125
  9
$DIMTP
 40
0.01
  9
$DIMTM
 40
0.01
  9
$DIMTXT
 40
2.0
  9
$DIMCEN
 40
0.1052362205
  9
$DIMTSZ
 40
0.0
  9
$DIMTOL
 70
     1
  9
$DIMLIM
 70
     0
  9
$DIMTIH
 70
     1
  9
$DIMTOH
 70
     1
  9
$DIMSE1
 70
     0
  9
$DIMSE2
 70
     0
  9
$DIMTAD
 70
     0
  9
$DIMZIN
 70
     0
  9
$DIMBLK
  1

  9
$DIMASO
 70
     1
  9
$DIMSHO
 70
     1
  9
$DIMPOST
  1
\X
  9
$DIMAPOST
  1

  9
$DIMALT
 70
     1
  9
$DIMALTD
 70
     2
  9
$DIMALTF
 40
25.3999999999999986
  9
$DIMLFAC
 40
1.0
  9
$DIMTOFL
 70
     0
  9
$DIMTVP
 40
0.0
  9
$DIMTIX
 70
     0
  9
$DIMSOXD
 70
     0
  9
$DIMSAH
 70
     0
  9
$DIMBLK1
  1

  9
$DIMBLK2
  1

  9
$DIMSTYLE
  2
STANDARD
  9
$DIMCLRD
 70
     0
  9
$DIMCLRE
 70
     0
  9
$DIMCLRT
 70
     0
  9
$DIMTFAC
 40
1.0
  9
$DIMGAP
 40
0.09
  9
$LUNITS
 70
     2
  9
$LUPREC
 70
     4
  9
$SKETCHINC
 40
0.1
  9
$FILLETRAD
 40
0.0
  9
$AUNITS
 70
     0
  9
$AUPREC
 70
     0
  9
$MENU
  1
.
  9
$ELEVATION
 40
0.0
  9
$PELEVATION
 40
0.0
  9
$THICKNESS
 40
0.0
  9
$LIMCHECK
 70
     0
  9
$BLIPMODE
 70
     0
  9
$CHAMFERA
 40
0.0
  9
$CHAMFERB
 40
0.0
  9
$SKPOLY
 70
     0
  9
$TDCREATE
 40
2458060.468368056230247
  9
$TDUPDATE
 40
2459070.6365625001490116
  9
$TDINDWG
 40
0.3689306713
  9
$TDUSRTIMER
 40
0.3689306713
  9
$USRTIMER
 70
     1
  9
$ANGBASE
 50
0.0
  9
$ANGDIR
 70
     0
  9
$PDMODE
 70
     0
  9
$PDSIZE
 40
0.3125
  9
$PLINEWID
 40
0.0
  9
$COORDS
 70
     1
  9
$SPLFRAME
 70
     0
  9
$SPLINETYPE
 70
     6
  9
$SPLINESEGS
 70
     8
  9
$ATTDIA
 70
     1
  9
$ATTREQ
 70
     1
  9
$HANDLING
 70
     1
  9
$HANDSEED
  5
858D
  9
$SURFTAB1
 70
     6
  9
$SURFTAB2
 70
     6
  9
$SURFTYPE
 70
     6
  9
$SURFU
 70
     6
  9
$SURFV
 70
     6
  9
$UCSNAME
  2

  9
$UCSORG
 10
0.0
 20
0.0
 30
0.0
  9
$UCSXDIR
 10
1.0
 20
0.0
 30
0.0
  9
$UCSYDIR
 10
0.0
 20
1.0
 30
0.0
  9
$PUCSNAME
  2

  9
$PUCSORG
 10
0.0
 20
0.0
 30
0.0
  9
$PUCSXDIR
 10
1.0
 20
0.0
 30
0.0
  9
$PUCSYDIR
 10
0.0
 20
1.0
 30
0.0
  9
$USERI1
 70
     0
  9
$USERI2
 70
     0
  9
$USERI3
 70
     0
  9
$USERI4
 70
     0
  9
$USERI5
 70
     0
  9
$USERR1
 40
0.0
  9
$USERR2
 40
0.0
  9
$USERR3
 40
0.0
  9
$USERR4
 40
0.0
  9
$USERR5
 40
0.0
  9
$WORLDVIEW
 70
     1
  9
$SHADEDGE
 70
     3
  9
$SHADEDIF
 70
    70
  9
$TILEMODE
 70
     1
  9
$MAXACTVP
 70
    64
  9
$PLIMCHECK
 70
     0
  9
$PEXTMIN
 10
1.0000000000000000E+20
 20
1.0000000000000000E+20
 30
1.0000000000000000E+20
  9
$PEXTMAX
 10
-1.0000000000000000E+20
 20
-1.0000000000000000E+20
 30
-1.0000000000000000E+20
  9
$PLIMMIN
 10
0.0
 20
0.0
  9
$PLIMMAX
 10
12.0
 20
9.0
  9
$UNITMODE
 70
     0
  9
$VISRETAIN
 70
     1
  9
$PLINEGEN
 70
     0
  9
$PSLTSCALE
 70
     1
  0
ENDSEC
  0
SECTION
  2
TABLES
  0
TABLE
  2
VPORT
 70
     1
  0
VPORT
  2
*ACTIVE
 70
     0
 10
0.0
 20
0.0
 11
1.0
 21
1.0
 12
0.0
 22
0.0
 13
0.0
 23
0.0
 14
1.0
 24
1.0
 15
0.0
 25
0.0
 16
0.0
 26
0.0
 36
19.1453609017744384
 17
2941.7293701171879547
 27
153.2335474389712999
 37
0.0
 40
5.2903430680464067
 41
2.8398203592814371
 42
50.0
 43
0.0
 44
0.0
 50
0.0
 51
0.0
 71
     0
 72
   100
 73
     1
 74
     1
 75
     0
 76
     0
 77
     0
 78
     0
  0
ENDTAB
  0
TABLE
  2
LTYPE
 70
     2
  0
LTYPE
  2
CONTINUOUS
 70
     0
  3
Solid line
 72
    65
 73
     0
 40
0.0
  0
LTYPE
  2
PHANTOM2
 70
     0
  3
___ _ _ ___ _ _ ___ _ _ ___ _ _
 72
    65
 73
     6
 40
1.25
 49
0.625
 49
-0.125
 49
0.125
 49
-0.125
 49
0.125
 49
-0.125
  0
ENDTAB
  0
TABLE
  2
LAYER
 70
     2
  0
LAYER
  2
0
 70
     0
 62
   255
  6
CONTINUOUS
  0
LAYER
  2
DEFPOINTS
 70
     0
 62
     7
  6
CONTINUOUS
  0
ENDTAB
  0
TABLE
  2
STYLE
 70
     1
  0
STYLE
  2
STANDARD
 70
     0
 40
0.0
 41
0.8
 50
0.0
 71
     0
 42
0.2
  3
txt
  4

  0
ENDTAB
  0
TABLE
  2
VIEW
 70
     0
  0
ENDTAB
  0
TABLE
  2
UCS
 70
     0
  0
ENDTAB
  0
TABLE
  2
APPID
 70
     9
  0
APPID
  2
ACAD
 70
     0
  0
APPID
  2
ACAD_MLEADERVER
 70
     0
  0
APPID
  2
ACAD_EXEMPT_FROM_CAD_STANDARDS
 70
     0
  0
APPID
  2
ACAD_NAV_VCDISPLAY
 70
     0
  0
APPID
  2
ACAECLAYERSTANDARD
 70
     0
  0
APPID
  2
ACCMTRANSPARENCY
 70
     0
  0
APPID
  2
ACAD_DSTYLE_DIMJAG
 70
     0
  0
APPID
  2
ACAD_DSTYLE_DIMTALN
 70
     0
  0
APPID
  2
ACDBATTR
 70
     0
  0
ENDTAB
  0
TABLE
  2
DIMSTYLE
 70
     1
  0
DIMSTYLE
  2
STANDARD
 70
     0
  3

  4

  5

  6

  7

 40
1.0
 41
0.1875
 42
0.0625
 43
0.38
 44
0.125
 45
0.0
 46
0.0
 47
0.01
 48
0.01
140
0.15625
141
0.09
142
0.0
143
25.3999999999999986
144
1.0
145
0.0
146
1.0
147
0.09
 71
     1
 72
     0
 73
     1
 74
     1
 75
     0
 76
     0
 77
     0
 78
     4
170
     0
171
     2
172
     0
173
     0
174
     0
175
     0
176
     0
177
     0
178
     0
  0
ENDTAB
  0
ENDSEC
  0
SECTION
  2
BLOCKS
  0
BLOCK
  8
0
  2
$MODEL_SPACE
 70
     0
 10
0.0
 20
0.0
 30
0.0
  3
$MODEL_SPACE
  1

  0
ENDBLK
  5
21
  8
0
  0
BLOCK
 67
     1
  8
0
  2
$PAPER_SPACE
 70
     0
 10
0.0
 20
0.0
 30
0.0
  3
$PAPER_SPACE
  1

  0
ENDBLK
  5
1D
 67
     1
  8
0
  0
BLOCK
  8
0
  2
_FILLED
 70
     0
 10
0.0
 20
0.0
 30
0.0
  3
_FILLED
  1

  0
SOLID
  5
77FD
  8
0
  6
BYBLOCK
 62
     0
 10
0.0
 20
0.0
 30
0.0
 11
-1.0
 21
0.1666666667
 31
0.0
 12
-1.0
 22
-0.1666666667
 32
0.0
 13
-1.0
 23
-0.1666666667
 33
0.0
  0
ENDBLK
  5
77FE
  8
0
  6
BYBLOCK
 62
     0
  0
ENDSEC
  0
SECTION
  2
ENTITIES
  0
ATTDEF
  5
6F69
  8
DEFPOINTS
 10
2941.7297513884409454
 20
150.7630002327603052
 30
0.0
 40
0.001
  1
K-12050T
  3

  2
MODELNUMBER
 70
     0
1001
ACDBATTR
1070
     0
1070
     1
  0
ATTDEF
  5
6F6A
  8
DEFPOINTS
 10
2941.7297513884409454
 20
150.7613335660936116
 30
0.0
 40
0.001
  1
LISON
  3

  2
TRADENAME
 70
     0
1001
ACDBATTR
1070
     0
1070
     1
  0
ATTDEF
  5
6F6B
  8
DEFPOINTS
 10
2941.7297513884409454
 20
150.7596668994270033
 30
0.0
 40
0.001
  1
BATHROOM SINK FAUCET
  3

  2
PRODUCT
 70
     0
1001
ACDBATTR
1070
     0
1070
     1
  0
LINE
  5
8158
  8
0
 10
2940.7928637974609956
 20
150.7653549277125933
 30
0.0
 11
2942.6656898006958727
 21
150.7653549277125933
 31
0.0
  0
LINE
  5
8159
  8
0
 10
2942.6656898006958727
 20
150.7653549277125933
 30
0.0
 11
2942.5913547879958969
 21
153.6111502405125862
 31
0.0
  0
LINE
  5
815A
  8
0
 10
2942.5913547879958969
 20
153.6111502405125862
 30
0.0
 11
2942.5913547879958969
 21
153.6196776359124954
 31
0.0
  0
LINE
  5
815B
  8
0
 10
2942.5913547879958969
 20
153.6196776359124954
 30
0.0
 11
2942.3252981113241731
 21
153.6196778262543035
 31
0.0
  0
LINE
  5
815C
  8
0
 10
2941.1327428025279005
 20
153.6196786794299101
 30
0.0
 11
2940.8672008734970404
 21
153.6196788694034012
 31
0.0
  0
LINE
  5
815D
  8
0
 10
2940.8672008734970404
 20
153.6196788694034012
 30
0.0
 11
2940.86720086739615
 21
153.6111514394009134
 31
0.0
  0
LINE
  5
815E
  8
0
 10
2940.86720086739615
 20
153.6111514394009134
 30
0.0
 11
2940.7928609113960192
 21
150.7653549277125933
 31
0.0
  0
ARC
  5
815F
  8
0
 10
2941.674155445418819
 20
153.6197722721155117
 30
0.0
 40
0.8661418390762086
 50
359.9937495789465061
 51
5.4722558079708739
  0
ARC
  5
8160
  8
0
 10
2941.784391869195133
 20
153.6197722721038019
 30
0.0
 40
0.8661418391983328
 50
174.5277441920291039
 51
179.9999996620539093
  0
LINE
  5
8161
  8
0
 10
2942.2992994465380434
 20
153.7023548012126071
 30
0.0
 11
2942.6556010750960013
 21
153.7023548012126071
 31
0.0
  0
ARC
  5
8162
  8
0
 10
2925.4758103242697871
 20
153.0843399390460888
 30
0.0
 40
17.190903193609401
 50
2.0602335210409191
 51
6.7726253463924602
  0
ARC
  5
8163
  8
0
 10
2941.7980784412497997
 20
154.9585139241877982
 30
0.0
 40
0.7641783484649864
 50
11.5603465877051992
 51
57.2670654210567989
  0
ARC
  5
8164
  8
0
 10
2941.9623080283581658
 20
155.2820173767669019
 30
0.0
 40
0.4049178691724732
 50
52.0560727587202408
 51
71.8889701119203721
  0
ARC
  5
8165
  8
0
 10
2941.7268601098107865
 20
154.0776241723930866
 30
0.0
 40
1.6298059220113581
 50
77.1913695202096335
 51
89.9258654972285285
  0
ARC
  5
8166
  8
0
 10
2941.7305877395860989
 20
154.0438224763906021
 30
0.0
 40
1.6636070413786621
 50
90.055753941956155
 51
102.5304729054364969
  0
ARC
  5
8167
  8
0
 10
2941.4365754717341588
 20
155.4044176565105033
 30
0.0
 40
0.2717549144198143
 50
104.2562215044305987
 51
124.6319066663336059
  0
ARC
  5
8168
  8
0
 10
2941.8047427558772142
 20
154.8084050709294957
 30
0.0
 40
0.9720549431621573
 50
122.5224659796889028
 51
143.2976511829124036
  0
ARC
  5
8169
  8
0
 10
2941.544532983757108
 20
155.0064544656821113
 30
0.0
 40
0.6450739400411308
 50
143.5880841263845014
 51
175.8342509750380032
  0
ARC
  5
816A
  8
0
 10
2957.7923533313419284
 20
153.096727300432093
 30
0.0
 40
17.0041328112129193
 50
173.3926052052777891
 51
177.9588938369647053
  0
LINE
  5
816B
  8
0
 10
2940.7990091050960473
 20
153.7023548012126071
 30
0.0
 11
2941.1587357322300704
 21
153.7023548012126071
 31
0.0
  0
ARC
  5
816C
  8
0
 10
2941.4357907166890982
 20
155.2901697267112979
 30
0.0
 40
0.335597448095635
 50
105.7646516031062021
 51
127.4978991028623057
  0
ARC
  5
816D
  8
0
 10
2941.7218604987028812
 20
154.1113690154334108
 30
0.0
 40
1.5484325317058401
 50
89.798438821740703
 51
104.1009800615932051
  0
ARC
  5
816E
  8
0
 10
2941.732163201450021
 20
154.102954653965611
 30
0.0
 40
1.5568448833647099
 50
76.0447469235677147
 51
90.1786938424125282
  0
ARC
  5
816F
  8
0
 10
2942.0122894475612156
 20
155.2772730488165962
 30
0.0
 40
0.3498148855544708
 50
52.9394103642662728
 51
74.1861996218803483
  0
ARC
  5
8170
  8
0
 10
2941.8548509594152165
 20
154.9434787568426088
 30
0.0
 40
0.7150640695887232
 50
19.6865309580428693
 51
59.0025764737095528
  0
ARC
  5
8171
  8
0
 10
2941.5925041004070408
 20
154.9483712194470968
 30
0.0
 40
0.7071554713534213
 50
120.6893929576179971
 51
162.2866921980900088
  0
ARC
  5
8172
  8
0
 10
2941.727305153296129
 20
154.3716461398124977
 30
0.0
 40
0.1771720986514827
 50
320.9684852768785959
 51
219.0378316569052117
  0
CIRCLE
  5
8173
  8
0
 10
2941.727305153296129
 20
154.3716461398124977
 30
0.0
 40
0.1476377952999996
  0
ARC
  5
8174
  8
0
 10
2941.7384791603058147
 20
154.4975036533826938
 30
0.0
 40
0.2690056024492363
 50
276.7694268332709271
 51
298.0392656024853864
  0
ARC
  5
8175
  8
0
 10
2941.7157185296018724
 20
154.4962528800407995
 30
0.0
 40
0.2677153645948731
 50
241.9166932949003126
 51
263.2870979852535811
  0
ARC
  5
8176
  8
0
 10
2941.8249828593698112
 20
153.4474661944439049
 30
0.0
 40
0.7133396359952342
 50
146.0343959310249033
 51
172.1940770325277867
  0
ARC
  5
8177
  8
0
 10
2941.7301307393390744
 20
153.5048632820598868
 30
0.0
 40
0.6026284683068949
 50
90.272176788282863
 51
145.5219446486858885
  0
ARC
  5
8178
  8
0
 10
2941.7307293018488963
 20
153.5079906907120062
 30
0.0
 40
0.5995042521520931
 50
24.6334370085057799
 51
90.3308017763901887
  0
ARC
  5
8179
  8
0
 10
2941.5952728118259074
 20
153.4355397796574891
 30
0.0
 40
0.7528902696355713
 50
13.4876788925717896
 51
25.348621123743829
  0
ARC
  5
817A
  8
0
 10
2943.7637957306510543
 20
152.812208511473699
 30
0.0
 40
2.7449822258801002
 50
164.530811215081286
 51
171.3935182191191018
  0
ARC
  5
817B
  8
0
 10
2943.5482752381408318
 20
152.4393707940251943
 30
0.0
 40
2.6185522395864562
 50
162.5870972504893928
 51
175.3814433849921102
  0
ARC
  5
817C
  8
0
 10
2942.1205710941399047
 20
152.4852053737101016
 30
0.0
 40
1.1938050755968019
 50
172.054749384631009
 51
193.0201133766686894
  0
ARC
  5
817D
  8
0
 10
2934.0443648384698463
 20
152.9815586878561078
 30
0.0
 40
6.9553252022489787
 50
353.6828314529846011
 51
356.715611917928527
  0
LINE
  5
817E
  8
0
 10
2940.9882656725958441
 20
152.5830742153125925
 30
0.0
 11
2941.031939447896093
 21
152.762162117812494
 31
0.0
  0
LINE
  5
817F
  8
0
 10
2941.031939447896093
 20
152.762162117812494
 30
0.0
 11
2941.1110926637961711
 21
153.06746101381259
 31
0.0
  0
ARC
  5
8180
  8
0
 10
2940.7599051300107931
 20
153.1049987480938057
 30
0.0
 40
0.3531880028837971
 50
353.8989331477969813
 51
2.4373226308615399
  0
ARC
  5
8181
  8
0
 10
2942.7216580488670843
 20
153.1669240540985868
 30
0.0
 40
1.609568027394251
 50
174.3478165496815109
 51
181.669929853128707
  0
ARC
  5
8182
  8
0
 10
2941.8120523423699524
 20
153.3021090777812958
 30
0.0
 40
0.6925302064144095
 50
162.2857986102723089
 51
178.0686081866863049
  0
ARC
  5
8183
  8
0
 10
2941.3225760645850642
 20
153.4505462969316909
 30
0.0
 40
0.1812536585038063
 50
130.0451899588985043
 51
159.9037695085233963
  0
ARC
  5
8184
  8
0
 10
2942.0238578701259939
 20
152.6222969267531084
 30
0.0
 40
1.266514427140736
 50
119.4086473261532007
 51
130.2247275136490998
  0
ARC
  5
8185
  8
0
 10
2941.7256217564090548
 20
153.1335387557398064
 30
0.0
 40
0.6747638905222895
 50
89.6907971330072371
 51
118.6641514793341941
  0
ARC
  5
8186
  8
0
 10
2941.7329201248048776
 20
153.1335149754326892
 30
0.0
 40
0.6747877544743357
 50
61.3371461659224124
 51
90.3105106960313435
  0
ARC
  5
8187
  8
0
 10
2941.7081862623499546
 20
153.0155586124978981
 30
0.0
 40
0.7909224255541276
 50
46.5030869524196575
 51
63.8644007866068009
  0
ARC
  5
8188
  8
0
 10
2942.1459962860049018
 20
153.4594003665764888
 30
0.0
 40
0.1680385443363147
 50
27.0937555921497299
 51
50.6286998260760797
  0
ARC
  5
8189
  8
0
 10
2941.7750550357850443
 20
153.3198579647371105
 30
0.0
 40
0.5636044943072366
 50
0.5684323346183168
 51
22.5432616109484982
  0
ARC
  5
818A
  8
0
 10
2939.7168972989611575
 20
153.1062986471530962
 30
0.0
 40
2.6308779548348769
 50
359.1540212677907107
 51
4.7782451945241267
  0
ARC
  5
818B
  8
0
 10
3091.8402318964549522
 20
191.6597193552796909
 30
0.0
 40
154.3937926654413104
 50
194.4751421760259973
 51
194.5921824141765057
  0
ARC
  5
818C
  8
0
 10
2927.3421233236708758
 20
148.9891131219634133
 30
0.0
 40
15.5492237597703191
 50
13.3638661512840908
 51
14.0431081251030996
  0
ARC
  5
818D
  8
0
 10
2949.412054203405205
 20
152.9810136913064014
 30
0.0
 40
6.9531482715317097
 50
183.2809276837948005
 51
186.3145862912008113
  0
ARC
  5
818E
  8
0
 10
2940.8161429029751162
 20
152.5383792058511006
 30
0.0
 40
1.7154629404336981
 50
349.176940450385473
 51
15.6382730381491992
  0
ARC
  5
818F
  8
0
 10
2938.1437759745949734
 20
152.0140575898523991
 30
0.0
 40
4.4354800716680911
 50
12.8539633429745503
 51
16.1142592160385405
  0
ARC
  5
8190
  8
0
 10
2938.2612898706088345
 20
152.557944534501388
 30
0.0
 40
4.2002930727078978
 50
9.4163197726970136
 51
14.5215182067369408
  0
ARC
  5
8191
  8
0
 10
2941.7253762086388633
 20
152.7149055514703093
 30
0.0
 40
0.6279630203638432
 50
60.0424478478008083
 51
113.5173472461213038
  0
ARC
  5
8192
  8
0
 10
2941.9613361674360021
 20
153.1173439815086965
 30
0.0
 40
0.1615009448339344
 50
349.1888436134516951
 51
61.2749139013929707
  0
ARC
  5
8193
  8
0
 10
2941.9237214981999387
 20
153.1565152448756919
 30
0.0
 40
0.2081802366672683
 50
299.4342399626784186
 51
340.5080520261914216
  0
ARC
  5
8194
  8
0
 10
2941.7264006483128469
 20
153.5351415282237042
 30
0.0
 40
0.6350609323628267
 50
246.8183695032012963
 51
298.1516041193817728
  0
ARC
  5
8195
  8
0
 10
2941.5651345566238888
 20
153.1804270336054969
 30
0.0
 40
0.2456546252603553
 50
203.7192668001642915
 51
248.8277353932724054
  0
ARC
  5
8196
  8
0
 10
2941.4704113357820461
 20
153.1219729016754059
 30
0.0
 40
0.1362937700119302
 50
136.2161987585351994
 51
197.2258191965493097
  0
ARC
  5
8197
  8
0
 10
2941.598275506560185
 20
153.0119984960797979
 30
0.0
 40
0.3048368377085661
 50
113.8940861431710942
 51
137.9226268013948982
  0
ARC
  5
8198
  8
0
 10
2941.7525045937768482
 20
152.7489553481321991
 30
0.0
 40
0.6602441255132577
 50
59.8217708321225388
 51
88.5409224417238363
  0
ARC
  5
8199
  8
0
 10
2941.9819284837008126
 20
153.1251979886112906
 30
0.0
 40
0.2198581298729885
 50
5.5021015413166712
 51
62.2187555079307231
  0
ARC
  5
819A
  8
0
 10
2941.9973035276611881
 20
153.1535377867087959
 30
0.0
 40
0.2035995853059566
 50
311.6703273804984065
 51
357.956697157113183
  0
ARC
  5
819B
  8
0
 10
2941.8815993349130622
 20
153.2633363697734126
 30
0.0
 40
0.3627910767535692
 50
278.3201524964547957
 51
313.7918399755785117
  0
ARC
  5
819C
  8
0
 10
2942.6226159890429699
 20
148.7970928457162927
 30
0.0
 40
4.16458071240615
 50
99.5162535897039788
 51
101.6104274435243013
  0
ARC
  5
819D
  8
0
 10
2941.7230550962840425
 20
153.6029872027438046
 30
0.0
 40
0.7334925683443482
 50
248.3672526292440921
 51
270.6462706980328221
  0
ARC
  5
819E
  8
0
 10
2941.6051796274291519
 20
153.3021881100119117
 30
0.0
 40
0.4104266087755745
 50
227.1164157088138893
 51
248.1832110694462017
  0
ARC
  5
819F
  8
0
 10
2941.4612206667338796
 20
153.153523413044411
 30
0.0
 40
0.2035744620195543
 50
182.0395070679417984
 51
228.3313045377570063
  0
ARC
  5
81A0
  8
0
 10
2941.4497770162588495
 20
153.1365150731371898
 30
0.0
 40
0.19224992966566
 50
127.1049912329672935
 51
177.0889822700135028
  0
ARC
  5
81A1
  8
0
 10
2941.5893950765421323
 20
152.9868749352147859
 30
0.0
 40
0.3963817375601156
 50
116.0591326296734991
 51
130.1527935052507985
  0
LINE
  5
81A2
  8
0
 10
2941.4152651651961605
 20
153.3429609583126023
 30
0.0
 11
2941.4152651651961605
 21
153.4457616173125984
 31
0.0
  0
ARC
  5
81A3
  8
0
 10
2941.7231988287271633
 20
152.7767890005019922
 30
0.0
 40
0.736442464268697
 50
86.4096720358724468
 51
114.7170089268219044
  0
LINE
  5
81A4
  8
0
 10
2941.7693163602962159
 20
153.5117860593126125
 30
0.0
 11
2941.4152651651961605
 21
153.4457616173125984
 31
0.0
  0
LINE
  5
81A5
  8
0
 10
2941.7693163602962159
 20
153.5117860593126125
 30
0.0
 11
2941.7693163602962159
 21
153.4089854003125026
 31
0.0
  0
ARC
  5
81A6
  8
0
 10
2941.6912113898702046
 20
153.4711534312490073
 30
0.0
 40
0.0998261011748774
 50
275.0537515761433269
 51
321.4817936468825792
  0
LINE
  5
81A7
  8
0
 10
2941.7000050987071518
 20
153.3717154045154132
 30
0.0
 11
2941.5105025366960945
 21
153.3358499585125969
 31
0.0
  0
ARC
  5
81A8
  8
0
 10
2941.4487013058060256
 20
153.6040576119007994
 30
0.0
 40
0.2752357852380461
 50
269.9103978607760723
 51
282.9757846330443272
  0
ARC
  5
81A9
  8
0
 10
2941.448342441125078
 20
153.3745830141369879
 30
0.0
 40
0.0457609068684931
 50
223.7115181538177069
 51
269.9103978607760723
  0
ARC
  5
81AA
  8
0
 10
2941.7080026378730508
 20
153.2561995112291129
 30
0.0
 40
0.3873611586883027
 50
273.4522719279507896
 51
281.3850489309438103
  0
ARC
  5
81AB
  8
0
 10
2941.7315812753367936
 20
152.8447163778868969
 30
0.0
 40
0.781616299522997
 50
67.5560923456234264
 51
116.0194322640938935
  0
ARC
  5
81AC
  8
0
 10
2941.9110104201199647
 20
153.2625379566534889
 30
0.0
 40
0.3270020361328377
 50
30.8294472499472292
 51
68.6639862417082298
  0
ARC
  5
81AD
  8
0
 10
2942.0515814809541553
 20
153.3578101530293054
 30
0.0
 40
0.1577714010745183
 50
341.018286255940211
 51
27.2793300956925187
  0
LINE
  5
81AE
  8
0
 10
2942.2007736572959402
 20
153.1462784835125888
 30
0.0
 11
2942.2007736572959402
 21
153.4091278840328982
 31
0.0
  0
LINE
  5
81AF
  8
0
 10
2941.2577751639960297
 20
153.1462784836126048
 30
0.0
 11
2941.2580451234489374
 21
153.4104054790956866
 31
0.0
  0
ARC
  5
81B0
  8
0
 10
2941.496366843740816
 20
153.3134171103012875
 30
0.0
 40
0.2573022937962551
 50
114.7352233548287046
 51
157.6867614534837116
  0
ARC
  5
81B1
  8
0
 10
2941.3874133942258595
 20
153.3581315881615978
 30
0.0
 40
0.139530316264807
 50
157.6867614534837116
 51
201.5841982782991977
  0
ARC
  5
81B2
  8
0
 10
2941.728860407853972
 20
153.5634974511939106
 30
0.0
 40
0.5797801259516243
 50
248.6212701946774075
 51
292.4162372654324145
  0
ARC
  5
81B3
  8
0
 10
2941.8397695899911923
 20
153.2841246993504001
 30
0.0
 40
0.2792527995870207
 50
293.2380358713647865
 51
316.3768560728350963
  0
ARC
  5
81B4
  8
0
 10
2941.9609570181569325
 20
153.1781344488823038
 30
0.0
 40
0.1186019892564323
 50
313.049840767133503
 51
35.5978747590127895
  0
ARC
  5
81B5
  8
0
 10
2941.6031547705219964
 20
153.2589425792631914
 30
0.0
 40
0.2504304487223959
 50
217.6347789422254948
 51
250.0024340588583129
  0
ARC
  5
81B6
  8
0
 10
2941.4992193980660886
 20
153.1788010148883075
 30
0.0
 40
0.1191855174370439
 50
148.0247012339870025
 51
217.6347789422266885
  0
LINE
  5
81B7
  8
0
 10
2942.0905911730210391
 20
153.2141721732369035
 30
0.0
 11
2942.0787484942720766
 21
153.1642924833386985
 31
0.0
  0
LINE
  5
81B8
  8
0
 10
2941.3720282786021016
 20
153.2162965368569871
 30
0.0
 11
2941.3807993322880066
 21
153.1653148891336116
 31
0.0
  0
ENDSEC
  0
EOF
