  0
SECTION
  2
HEADER
  9
$ACADVER
  1
AC1009
  9
$INSBASE
 10
4976.6774494480578142
 20
339.5143680110653008
 30
0.0
  9
$EXTMIN
 10
4946.5334919983997679
 20
323.4647639225694888
 30
-0.0000000000112498
  9
$EXTMAX
 10
5006.7670821688352589
 20
355.5436444153980915
 30
0.0000000000002956
  9
$LIMMIN
 10
0.0
 20
0.0
  9
$LIMMAX
 10
11.6929133858000007
 20
8.2677165353999982
  9
$ORTHOMODE
 70
     0
  9
$REGENMODE
 70
     1
  9
$FILLMODE
 70
     1
  9
$QTEXTMODE
 70
     0
  9
$MIRRTEXT
 70
     0
  9
$DRAGMODE
 70
     2
  9
$LTSCALE
 40
0.6431102362
  9
$OSMODE
 70
  4095
  9
$ATTMODE
 70
     1
  9
$TEXTSIZE
 40
0.2
  9
$TRACEWID
 40
0.05
  9
$TEXTSTYLE
  7
STANDARD
  9
$CLAYER
  8
0
  9
$CELTYPE
  6
BYLAYER
  9
$CECOLOR
 62
   256
  9
$DIMSCALE
 40
1.0
  9
$DIMASZ
 40
0.1875
  9
$DIMEXO
 40
0.0625
  9
$DIMDLI
 40
0.4443307087
  9
$DIMRND
 40
0.0
  9
$DIMDLE
 40
0.0
  9
$DIMEXE
 40
0.125
  9
$DIMTP
 40
0.01
  9
$DIMTM
 40
0.01
  9
$DIMTXT
 40
2.0
  9
$DIMCEN
 40
0.1052362205
  9
$DIMTSZ
 40
0.0
  9
$DIMTOL
 70
     1
  9
$DIMLIM
 70
     0
  9
$DIMTIH
 70
     1
  9
$DIMTOH
 70
     1
  9
$DIMSE1
 70
     0
  9
$DIMSE2
 70
     0
  9
$DIMTAD
 70
     0
  9
$DIMZIN
 70
     0
  9
$DIMBLK
  1

  9
$DIMASO
 70
     1
  9
$DIMSHO
 70
     1
  9
$DIMPOST
  1
\X
  9
$DIMAPOST
  1

  9
$DIMALT
 70
     1
  9
$DIMALTD
 70
     2
  9
$DIMALTF
 40
25.3999999999999986
  9
$DIMLFAC
 40
1.0
  9
$DIMTOFL
 70
     0
  9
$DIMTVP
 40
0.0
  9
$DIMTIX
 70
     0
  9
$DIMSOXD
 70
     0
  9
$DIMSAH
 70
     0
  9
$DIMBLK1
  1

  9
$DIMBLK2
  1

  9
$DIMSTYLE
  2
STANDARD
  9
$DIMCLRD
 70
     0
  9
$DIMCLRE
 70
     0
  9
$DIMCLRT
 70
     0
  9
$DIMTFAC
 40
1.0
  9
$DIMGAP
 40
0.09
  9
$LUNITS
 70
     2
  9
$LUPREC
 70
     4
  9
$SKETCHINC
 40
0.1
  9
$FILLETRAD
 40
0.0
  9
$AUNITS
 70
     0
  9
$AUPREC
 70
     0
  9
$MENU
  1
.
  9
$ELEVATION
 40
0.0
  9
$PELEVATION
 40
0.0
  9
$THICKNESS
 40
0.0
  9
$LIMCHECK
 70
     0
  9
$BLIPMODE
 70
     0
  9
$CHAMFERA
 40
0.0
  9
$CHAMFERB
 40
0.0
  9
$SKPOLY
 70
     0
  9
$TDCREATE
 40
2458060.468368056230247
  9
$TDUPDATE
 40
2459429.5738541660830379
  9
$TDINDWG
 40
0.5832709491
  9
$TDUSRTIMER
 40
0.5832709491
  9
$USRTIMER
 70
     1
  9
$ANGBASE
 50
0.0
  9
$ANGDIR
 70
     0
  9
$PDMODE
 70
     0
  9
$PDSIZE
 40
0.3125
  9
$PLINEWID
 40
0.0
  9
$COORDS
 70
     1
  9
$SPLFRAME
 70
     0
  9
$SPLINETYPE
 70
     6
  9
$SPLINESEGS
 70
     8
  9
$ATTDIA
 70
     1
  9
$ATTREQ
 70
     1
  9
$HANDLING
 70
     1
  9
$HANDSEED
  5
21EB1
  9
$SURFTAB1
 70
     6
  9
$SURFTAB2
 70
     6
  9
$SURFTYPE
 70
     6
  9
$SURFU
 70
     6
  9
$SURFV
 70
     6
  9
$UCSNAME
  2

  9
$UCSORG
 10
0.0
 20
0.0
 30
0.0
  9
$UCSXDIR
 10
1.0
 20
0.0
 30
0.0
  9
$UCSYDIR
 10
0.0
 20
1.0
 30
0.0
  9
$PUCSNAME
  2

  9
$PUCSORG
 10
0.0
 20
0.0
 30
0.0
  9
$PUCSXDIR
 10
1.0
 20
0.0
 30
0.0
  9
$PUCSYDIR
 10
0.0
 20
1.0
 30
0.0
  9
$USERI1
 70
     0
  9
$USERI2
 70
     0
  9
$USERI3
 70
     0
  9
$USERI4
 70
     0
  9
$USERI5
 70
     0
  9
$USERR1
 40
0.0
  9
$USERR2
 40
0.0
  9
$USERR3
 40
0.0
  9
$USERR4
 40
0.0
  9
$USERR5
 40
0.0
  9
$WORLDVIEW
 70
     1
  9
$SHADEDGE
 70
     3
  9
$SHADEDIF
 70
    70
  9
$TILEMODE
 70
     1
  9
$MAXACTVP
 70
    64
  9
$PLIMCHECK
 70
     0
  9
$PEXTMIN
 10
1.0000000000000000E+20
 20
1.0000000000000000E+20
 30
1.0000000000000000E+20
  9
$PEXTMAX
 10
-1.0000000000000000E+20
 20
-1.0000000000000000E+20
 30
-1.0000000000000000E+20
  9
$PLIMMIN
 10
0.0
 20
0.0
  9
$PLIMMAX
 10
12.0
 20
9.0
  9
$UNITMODE
 70
     0
  9
$VISRETAIN
 70
     1
  9
$PLINEGEN
 70
     0
  9
$PSLTSCALE
 70
     1
  0
ENDSEC
  0
SECTION
  2
TABLES
  0
TABLE
  2
VPORT
 70
     1
  0
VPORT
  2
*ACTIVE
 70
     0
 10
0.0
 20
0.0
 11
1.0
 21
1.0
 12
1065.2849306383050134
 22
206.9245990664448129
 13
0.0
 23
0.0
 14
1.0
 24
1.0
 15
0.0
 25
0.0
 16
0.0
 26
0.0
 36
60.4960186965801583
 17
3911.3653564453120453
 27
132.5796051025390057
 37
0.0
 40
36.2253636298985171
 41
1.67063492063492
 42
50.0
 43
0.0
 44
0.0
 50
0.0
 51
0.0
 71
     0
 72
   100
 73
     1
 74
     1
 75
     0
 76
     0
 77
     0
 78
     0
  0
ENDTAB
  0
TABLE
  2
LTYPE
 70
     2
  0
LTYPE
  2
CONTINUOUS
 70
     0
  3
Solid line
 72
    65
 73
     0
 40
0.0
  0
LTYPE
  2
PHANTOM2
 70
     0
  3
___ _ _ ___ _ _ ___ _ _ ___ _ _
 72
    65
 73
     6
 40
1.25
 49
0.625
 49
-0.125
 49
0.125
 49
-0.125
 49
0.125
 49
-0.125
  0
ENDTAB
  0
TABLE
  2
LAYER
 70
     2
  0
LAYER
  2
0
 70
     0
 62
   255
  6
CONTINUOUS
  0
LAYER
  2
DEFPOINTS
 70
     0
 62
     7
  6
CONTINUOUS
  0
ENDTAB
  0
TABLE
  2
STYLE
 70
     1
  0
STYLE
  2
STANDARD
 70
     0
 40
0.0
 41
0.8
 50
0.0
 71
     0
 42
0.2
  3
txt
  4

  0
ENDTAB
  0
TABLE
  2
VIEW
 70
     0
  0
ENDTAB
  0
TABLE
  2
UCS
 70
     0
  0
ENDTAB
  0
TABLE
  2
APPID
 70
    11
  0
APPID
  2
ACAD
 70
     0
  0
APPID
  2
ACAD_MLEADERVER
 70
     0
  0
APPID
  2
ACAD_EXEMPT_FROM_CAD_STANDARDS
 70
     0
  0
APPID
  2
ACAD_NAV_VCDISPLAY
 70
     0
  0
APPID
  2
ACAECLAYERSTANDARD
 70
     0
  0
APPID
  2
ACCMTRANSPARENCY
 70
     0
  0
APPID
  2
ACAD_DSTYLE_DIMJAG
 70
     0
  0
APPID
  2
ACAD_DSTYLE_DIMTALN
 70
     0
  0
APPID
  2
ACDBATTR
 70
     0
  0
APPID
  2
ACADANNOTATIVE
 70
     0
  0
APPID
  2
DCO15
 70
     0
  0
ENDTAB
  0
TABLE
  2
DIMSTYLE
 70
     1
  0
DIMSTYLE
  2
STANDARD
 70
     0
  3

  4

  5

  6

  7

 40
1.0
 41
0.1875
 42
0.0625
 43
0.38
 44
0.125
 45
0.0
 46
0.0
 47
0.01
 48
0.01
140
0.15625
141
0.09
142
0.0
143
25.3999999999999986
144
1.0
145
0.0
146
1.0
147
0.09
 71
     1
 72
     0
 73
     1
 74
     1
 75
     0
 76
     0
 77
     0
 78
     4
170
     0
171
     2
172
     0
173
     0
174
     0
175
     0
176
     0
177
     0
178
     0
  0
ENDTAB
  0
ENDSEC
  0
SECTION
  2
BLOCKS
  0
BLOCK
  8
0
  2
$MODEL_SPACE
 70
     0
 10
0.0
 20
0.0
 30
0.0
  3
$MODEL_SPACE
  1

  0
ENDBLK
  5
21
  8
0
  0
BLOCK
 67
     1
  8
0
  2
$PAPER_SPACE
 70
     0
 10
0.0
 20
0.0
 30
0.0
  3
$PAPER_SPACE
  1

  0
ENDBLK
  5
1D
 67
     1
  8
0
  0
ENDSEC
  0
SECTION
  2
ENTITIES
  0
ATTDEF
  5
20106
  8
DEFPOINTS
 10
4976.6717164926903934
 20
339.5124198823390884
 30
0.0
 40
0.001
  1
K-1219T
  3

  2
MODELNUMBER
 70
     0
1001
ACDBATTR
1070
     0
1070
     1
  0
ATTDEF
  5
20107
  8
DEFPOINTS
 10
4976.6715906830331733
 20
339.5107530419600153
 30
0.0
 40
0.001
  1
HOURGLASS
  3

  2
TRADENAME
 70
     0
1001
ACDBATTR
1070
     0
1070
     1
  0
ATTDEF
  5
20108
  8
DEFPOINTS
 10
4976.6717164926903934
 20
339.509086549005815
 30
0.0
 40
0.001
  1
BATH
  3

  2
PRODUCT
 70
     0
1001
ACDBATTR
1070
     0
1070
     1
  0
LINE
  5
21DDE
  8
0
 10
5006.6774494480787325
 20
323.9881780110653153
 30
0.0
 11
5006.6774494480787325
 21
355.0405580110652863
 31
0.0
  0
LINE
  5
21DDF
  8
0
 10
4946.6774494480378053
 20
323.9881780110653153
 30
0.0
 11
4946.6774494480378053
 21
355.0405580110652863
 31
0.0
  0
LINE
  5
21DE0
  8
0
 10
5006.177449448077823
 20
355.5405580110652863
 30
0.0
 11
4947.1774494480368958
 21
355.5405580110652863
 31
0.0
  0
LINE
  5
21DE1
  8
0
 10
4947.1774494480368958
 20
323.4881780110653153
 30
0.0
 11
5006.177449448077823
 21
323.4881780110653153
 31
0.0
  0
ARC
  5
21DE2
  8
0
 10
4947.1774494480368958
 20
323.9881780110653153
 30
0.0
 40
0.5
 50
180.0
 51
270.0
  0
ARC
  5
21DE3
  8
0
 10
5006.177449448077823
 20
323.9881780110653153
 30
0.0
 40
0.5
 50
270.0
 51
0.0
  0
ARC
  5
21DE4
  8
0
 10
5006.177449448077823
 20
355.0405580110652863
 30
0.0
 40
0.5
 50
0.0
 51
90.0
  0
ARC
  5
21DE5
  8
0
 10
4947.1774494480368958
 20
355.0405580110652863
 30
0.0
 40
0.5
 50
90.0
 51
180.0
  0
CIRCLE
  5
21DE6
  8
0
 10
4997.7486494480590409
 20
339.5143680110653008
 30
0.0
 40
0.9842500000000028
  0
CIRCLE
  5
21DE7
  8
0
 10
4997.7486494480590409
 20
339.5143680110653008
 30
0.0
 40
2.010771963199999
  0
ARC
  5
21DE8
  8
0
 10
4950.9755749161813583
 20
351.611754620793306
 30
0.0
 40
0.9330463460248656
 50
103.1692380161535993
 51
171.9938568215877979
  0
ARC
  5
21DE9
  8
0
 10
5009.7113604786727592
 20
339.4744020556070723
 30
0.0
 40
60.90789034104737
 50
168.3807214902205942
 51
179.9624042020913919
  0
ARC
  5
21DEA
  8
0
 10
4958.0087569613770029
 20
304.8893672204649192
 30
0.0
 40
48.1788670245845907
 50
81.6873254655985335
 51
98.64969241459778
  0
ARC
  5
21DEB
  8
0
 10
4977.8508061798411291
 20
406.6145896092264138
 30
0.0
 40
55.5651195737605477
 50
256.6005458179834022
 51
268.7900073551439846
  0
ARC
  5
21DEC
  8
0
 10
5067.0405808008063104
 20
334.3369187479387961
 30
0.0
 40
110.2037369265274975
 50
173.6580359482528877
 51
177.3072126795482859
  0
ARC
  5
21DED
  8
0
 10
4961.5963031298733767
 20
345.6449378019219125
 30
0.0
 40
4.1756938149775422
 50
102.3435007193215966
 51
168.0398323374828919
  0
ARC
  5
21DEE
  8
0
 10
4964.0082531072521306
 20
338.3929617376314809
 30
0.0
 40
11.8031841143006702
 50
84.868150835299474
 51
106.258714948076701
  0
ARC
  5
21DEF
  8
0
 10
4955.7890805179513336
 20
243.8669438553756947
 30
0.0
 40
106.6858213723679967
 50
81.9528864510469788
 51
85.012581856591666
  0
ARC
  5
21DF0
  8
0
 10
4974.7132479385027182
 20
402.5260074150826881
 30
0.0
 40
53.1736193030264914
 50
265.6971764636584226
 51
272.1169532514279013
  0
ARC
  5
21DF1
  8
0
 10
4951.070957045673822
 20
327.5041336024374914
 30
0.0
 40
1.0421983165986011
 50
192.0236632913702977
 51
252.8132418708854914
  0
ARC
  5
21DF2
  8
0
 10
5009.7113604786727592
 20
339.5543339665234726
 30
0.0
 40
60.90789034104737
 50
180.0375957979086081
 51
191.6192785097792921
  0
ARC
  5
21DF3
  8
0
 10
4958.0087569613770029
 20
374.1393688016656824
 30
0.0
 40
48.1788670245845907
 50
261.35030758540222
 51
278.3126745344014807
  0
ARC
  5
21DF4
  8
0
 10
4977.8508061798411291
 20
272.4141464129040173
 30
0.0
 40
55.5651195737605477
 50
91.2099926448559444
 51
103.3994541820165978
  0
ARC
  5
21DF5
  8
0
 10
5067.0405808008063104
 20
344.6918172741918056
 30
0.0
 40
110.2037369265274975
 50
182.6927873204516004
 51
186.3419640517469986
  0
ARC
  5
21DF6
  8
0
 10
4961.5963031298733767
 20
333.3837982202086891
 30
0.0
 40
4.1756938149775422
 50
191.9601676625169944
 51
257.6564992806784176
  0
ARC
  5
21DF7
  8
0
 10
4964.0082531072521306
 20
340.6357742844991208
 30
0.0
 40
11.8031841143006702
 50
253.7412850519233132
 51
275.1318491647004976
  0
ARC
  5
21DF8
  8
0
 10
4955.7890805179513336
 20
435.1617921667548217
 30
0.0
 40
106.6858213723679967
 50
274.9874181434083198
 51
278.047113548953007
  0
ARC
  5
21DF9
  8
0
 10
4974.7132479385027182
 20
276.5027286070479136
 30
0.0
 40
53.1736193030264914
 50
87.883046748572113
 51
94.3028235363416059
  0
ARC
  5
21DFA
  8
0
 10
5002.3665495100822227
 20
351.6000823801791171
 30
0.0
 40
0.9473724806670993
 50
8.5975894627167104
 51
76.2393156995754424
  0
ARC
  5
21DFB
  8
0
 10
4943.6435384174428691
 20
339.4744020556070723
 30
0.0
 40
60.90789034104737
 50
0.0375957979085914
 51
11.6192785097794005
  0
ARC
  5
21DFC
  8
0
 10
4995.3461419347404444
 20
304.8893672204649192
 30
0.0
 40
48.1788670245845907
 50
81.3503075854022342
 51
98.3126745344014807
  0
ARC
  5
21DFD
  8
0
 10
4975.5040927162772277
 20
406.6145896092264138
 30
0.0
 40
55.5651195737605477
 50
271.2099926448559017
 51
283.3994541820165978
  0
ARC
  5
21DFE
  8
0
 10
4974.9446316103867503
 20
405.0653142104104063
 30
0.0
 40
55.7035941265870633
 50
271.7826348544635948
 51
281.2319438539918792
  0
ARC
  5
21DFF
  8
0
 10
5002.3063775681712286
 20
327.483633722705008
 30
0.0
 40
1.0161007065524239
 50
286.3196802347241032
 51
348.8434146030236889
  0
ARC
  5
21E00
  8
0
 10
4943.6435384174428691
 20
339.5543339665234726
 30
0.0
 40
60.90789034104737
 50
348.3807214902205942
 51
359.9624042020914203
  0
ARC
  5
21E01
  8
0
 10
4995.3461419347404444
 20
374.1393688016656824
 30
0.0
 40
48.1788670245845907
 50
261.6873254655985193
 51
278.64969241459778
  0
ARC
  5
21E02
  8
0
 10
4975.5040927162772277
 20
272.4141464129040173
 30
0.0
 40
55.5651195737605477
 50
76.6005458179834164
 51
88.7900073551440414
  0
ARC
  5
21E03
  8
0
 10
4995.447556711517791
 20
302.2555419368023877
 30
0.0
 40
49.1306911441884679
 50
87.3990250007397265
 51
101.3308520051898967
  0
ARC
  5
21E04
  8
0
 10
4997.4906418517848579
 20
346.6920030329052906
 30
0.0
 40
4.6473577534320816
 50
12.6803586588896202
 51
87.7005155680139978
  0
ARC
  5
21E05
  8
0
 10
4684.0363024584867162
 20
323.2621676602998946
 30
0.0
 40
318.9269365448619737
 50
2.9210012444874272
 51
4.3967964460404181
  0
ARC
  5
21E06
  8
0
 10
4974.9446316103867503
 20
273.9634218117212185
 30
0.0
 40
55.7035941265870633
 50
78.7680561460081208
 51
88.2173651455364052
  0
ARC
  5
21E07
  8
0
 10
4995.447556711517791
 20
376.7731940853291803
 30
0.0
 40
49.1306911441884679
 50
258.6691479948099754
 51
272.600974999260302
  0
ARC
  5
21E08
  8
0
 10
4997.4906418517848579
 20
332.3367329892262774
 30
0.0
 40
4.6473577534320816
 50
272.2994844319860022
 51
347.3196413411104118
  0
ARC
  5
21E09
  8
0
 10
4684.0363024584867162
 20
355.7665683618316734
 30
0.0
 40
318.9269365448619737
 50
355.6032035539595881
 51
357.0789987555126004
  0
ARC
  5
21E0B
  8
0
 10
4943.7038294844405755
 20
339.6637196192875763
 30
0.0
 40
60.1474745845329224
 50
359.8577292618292063
 51
7.8927591118193918
  0
ARC
  5
21E0C
  8
0
 10
4996.9380210397557676
 20
347.172351243823698
 30
0.0
 40
6.3877701818762658
 50
6.749816001827063
 51
27.8985460018267695
  0
ARC
  5
21E0D
  8
0
 10
4999.5195881075151192
 20
348.3764230038984806
 30
0.0
 40
3.5457624595917889
 50
30.2228844089605211
 51
76.9813752861970926
  0
ARC
  5
21E0E
  8
0
 10
4996.3318221840572733
 20
330.7214915751919193
 30
0.0
 40
21.4826828935753511
 50
79.3057136933389728
 51
93.1247190857047684
  0
ARC
  5
21E0F
  8
0
 10
4995.1325905862704531
 20
303.9870517932658913
 30
0.0
 40
48.1851914782459119
 50
89.9664454870160739
 51
94.2782340201462148
  0
ARC
  5
21E10
  8
0
 10
4993.3816431006489438
 20
321.2853644535857143
 30
0.0
 40
30.80782850515617
 50
93.4308574613725966
 51
103.6101977848228017
  0
ARC
  5
21E11
  8
0
 10
4974.0368689838805949
 20
401.0454882914514769
 30
0.0
 40
51.2646899560655527
 50
277.552980165530073
 51
283.6468501830167952
  0
ARC
  5
21E12
  8
0
 10
4974.5287921073204416
 20
407.0998262227577129
 30
0.0
 40
57.216235909313518
 50
260.4868021773090163
 51
276.2676332316901835
  0
ARC
  5
21E13
  8
0
 10
4959.6564412383340823
 20
346.1896744282756231
 30
0.0
 40
3.850423776128725
 50
117.8622356696349982
 51
170.9532203248309088
  0
ARC
  5
21E14
  8
0
 10
4962.512370442064821
 20
340.7871551059776039
 30
0.0
 40
9.9613604182911892
 50
88.360364462971404
 51
117.8622356696349982
  0
ARC
  5
21E15
  8
0
 10
4963.1661285963382397
 20
327.0679461959052787
 30
0.0
 40
23.6793618583504788
 50
85.3825149459807307
 51
90.8922396535370467
  0
ARC
  5
21E16
  8
0
 10
4943.7038294844405755
 20
339.3650164028430254
 30
0.0
 40
60.1474745845329224
 50
352.1072408881806268
 51
0.1422707381707908
  0
ARC
  5
21E17
  8
0
 10
4996.9380210397557676
 20
331.8563847783067899
 30
0.0
 40
6.3877701818762658
 50
332.1014539981733265
 51
353.2501839981728722
  0
ARC
  5
21E18
  8
0
 10
4999.5195881075151192
 20
330.6523130182321211
 30
0.0
 40
3.5457624595917889
 50
283.0186247138029216
 51
329.7771155910394896
  0
ARC
  5
21E19
  8
0
 10
4996.3318221840572733
 20
348.3072444469386824
 30
0.0
 40
21.4826828935753511
 50
266.8752809142952174
 51
280.694286306661013
  0
ARC
  5
21E1A
  8
0
 10
4995.1325905862704531
 20
375.0416842288647103
 30
0.0
 40
48.1851914782459119
 50
265.7217659798537852
 51
270.0335545129838124
  0
ARC
  5
21E1B
  8
0
 10
4993.3816431006489438
 20
357.7433715685448874
 30
0.0
 40
30.80782850515617
 50
256.3898022151770988
 51
266.569142538627375
  0
ARC
  5
21E1C
  8
0
 10
4974.0368689838805949
 20
277.9832477306791247
 30
0.0
 40
51.2646899560655527
 50
76.3531498169831906
 51
82.4470198344698559
  0
ARC
  5
21E1D
  8
0
 10
4974.5287921073204416
 20
271.9289097993727751
 30
0.0
 40
57.216235909313518
 50
83.7323667683098449
 51
99.5131978226910547
  0
ARC
  5
21E1E
  8
0
 10
4959.6564412383340823
 20
332.8390615938550923
 30
0.0
 40
3.850423776128725
 50
189.0467796751690912
 51
242.1377643303650018
  0
ARC
  5
21E1F
  8
0
 10
4962.512370442064821
 20
338.2415809161529978
 30
0.0
 40
9.9613604182911892
 50
242.1377643303650018
 51
271.639635537028596
  0
ARC
  5
21E20
  8
0
 10
4963.0626263503681912
 20
355.1434808958298959
 30
0.0
 40
26.8604913446065794
 50
269.4342316150152783
 51
274.2910137854457844
  0
ARC
  5
21E21
  8
0
 10
4959.3955846762291912
 20
347.8708717128100147
 30
0.0
 40
3.7014409711011131
 50
149.274271315160604
 51
196.8957368125329879
  0
ARC
  5
21E22
  8
0
 10
4961.9334999145521579
 20
345.0181384134352243
 30
0.0
 40
7.4310357061067238
 50
83.5024856671335698
 51
140.3280506421679945
  0
ARC
  5
21E23
  8
0
 10
4957.3261328475527989
 20
296.7645010990511878
 30
0.0
 40
55.9030666894827419
 50
77.5369050149821817
 51
84.4071258223714267
  0
ARC
  5
21E24
  8
0
 10
4976.8079318549998789
 20
389.108875319195306
 30
0.0
 40
38.4802851246568522
 50
258.8863168305766749
 51
276.0014015304324744
  0
ARC
  5
21E25
  8
0
 10
4974.5547968655791919
 20
409.6136868610066131
 30
0.0
 40
59.1083677899367075
 50
276.0953795710439067
 51
281.3475006273328063
  0
ARC
  5
21E26
  8
0
 10
4991.9972907187093369
 20
328.6731568563091059
 30
0.0
 40
23.7110633614405799
 50
82.332761222145308
 51
104.1897525449157058
  0
ARC
  5
21E27
  8
0
 10
4959.3955846762291912
 20
331.1578643093207006
 30
0.0
 40
3.7014409711011131
 50
163.1042631874668984
 51
210.725728684839396
  0
ARC
  5
21E28
  8
0
 10
4961.9334999145521579
 20
334.0105976086953774
 30
0.0
 40
7.4310357061067238
 50
219.6719493578320055
 51
276.4975143328663876
  0
ARC
  5
21E29
  8
0
 10
4957.3261328475527989
 20
382.2642349230794139
 30
0.0
 40
55.9030666894827419
 50
275.5928741776285733
 51
282.4630949850177899
  0
ARC
  5
21E2A
  8
0
 10
4976.8079318549998789
 20
289.9198607029352956
 30
0.0
 40
38.4802851246568522
 50
83.9985984695675256
 51
101.1136831694232967
  0
ARC
  5
21E2B
  8
0
 10
4974.5547968655791919
 20
269.4150491611238181
 30
0.0
 40
59.1083677899367075
 50
78.6524993726672079
 51
83.9046204289560933
  0
ARC
  5
21E2C
  8
0
 10
4991.9972907187093369
 20
350.3555791658196767
 30
0.0
 40
23.7110633614387787
 50
255.8102474550842942
 51
277.6672387778547204
  0
ENDSEC
  0
EOF
