  0
SECTION
  2
HEADER
  9
$ACADVER
  1
AC1009
  9
$INSBASE
 10
493.8951093130668824
 20
-6.6991685834278796
 30
0.0
  9
$EXTMIN
 10
492.7533770295668774
 20
-8.8926160681278663
 30
0.0
  9
$EXTMAX
 10
495.0368415965668873
 20
-5.5574362999278737
 30
0.0
  9
$LIMMIN
 10
0.0
 20
0.0
  9
$LIMMAX
 10
11.6929133858000007
 20
8.2677165353999982
  9
$ORTHOMODE
 70
     1
  9
$REGENMODE
 70
     1
  9
$FILLMODE
 70
     1
  9
$QTEXTMODE
 70
     0
  9
$MIRRTEXT
 70
     0
  9
$DRAGMODE
 70
     2
  9
$LTSCALE
 40
0.6431102362
  9
$OSMODE
 70
  4095
  9
$ATTMODE
 70
     1
  9
$TEXTSIZE
 40
0.2
  9
$TRACEWID
 40
0.05
  9
$TEXTSTYLE
  7
STANDARD
  9
$CLAYER
  8
0
  9
$CELTYPE
  6
BYLAYER
  9
$CECOLOR
 62
   256
  9
$DIMSCALE
 40
1.0
  9
$DIMASZ
 40
0.1875
  9
$DIMEXO
 40
0.0625
  9
$DIMDLI
 40
0.4443307087
  9
$DIMRND
 40
0.0
  9
$DIMDLE
 40
0.0
  9
$DIMEXE
 40
0.125
  9
$DIMTP
 40
0.01
  9
$DIMTM
 40
0.01
  9
$DIMTXT
 40
1.0
  9
$DIMCEN
 40
0.1052362205
  9
$DIMTSZ
 40
0.0
  9
$DIMTOL
 70
     1
  9
$DIMLIM
 70
     0
  9
$DIMTIH
 70
     1
  9
$DIMTOH
 70
     1
  9
$DIMSE1
 70
     0
  9
$DIMSE2
 70
     0
  9
$DIMTAD
 70
     0
  9
$DIMZIN
 70
     0
  9
$DIMBLK
  1

  9
$DIMASO
 70
     1
  9
$DIMSHO
 70
     1
  9
$DIMPOST
  1
\X
  9
$DIMAPOST
  1

  9
$DIMALT
 70
     1
  9
$DIMALTD
 70
     2
  9
$DIMALTF
 40
25.3999999999999986
  9
$DIMLFAC
 40
1.0
  9
$DIMTOFL
 70
     0
  9
$DIMTVP
 40
0.0
  9
$DIMTIX
 70
     0
  9
$DIMSOXD
 70
     0
  9
$DIMSAH
 70
     0
  9
$DIMBLK1
  1

  9
$DIMBLK2
  1

  9
$DIMSTYLE
  2
STANDARD
  9
$DIMCLRD
 70
     0
  9
$DIMCLRE
 70
     0
  9
$DIMCLRT
 70
     0
  9
$DIMTFAC
 40
1.0
  9
$DIMGAP
 40
0.09
  9
$LUNITS
 70
     2
  9
$LUPREC
 70
     4
  9
$SKETCHINC
 40
0.1
  9
$FILLETRAD
 40
0.0
  9
$AUNITS
 70
     0
  9
$AUPREC
 70
     0
  9
$MENU
  1
.
  9
$ELEVATION
 40
0.0
  9
$PELEVATION
 40
0.0
  9
$THICKNESS
 40
0.0
  9
$LIMCHECK
 70
     0
  9
$BLIPMODE
 70
     0
  9
$CHAMFERA
 40
0.0
  9
$CHAMFERB
 40
0.0
  9
$SKPOLY
 70
     0
  9
$TDCREATE
 40
2458306.6094560190103948
  9
$TDUPDATE
 40
2459888.6315856478177011
  9
$TDINDWG
 40
0.06504375
  9
$TDUSRTIMER
 40
0.0650436227
  9
$USRTIMER
 70
     1
  9
$ANGBASE
 50
0.0
  9
$ANGDIR
 70
     0
  9
$PDMODE
 70
     0
  9
$PDSIZE
 40
0.3125
  9
$PLINEWID
 40
0.0
  9
$COORDS
 70
     1
  9
$SPLFRAME
 70
     0
  9
$SPLINETYPE
 70
     6
  9
$SPLINESEGS
 70
     8
  9
$ATTDIA
 70
     1
  9
$ATTREQ
 70
     1
  9
$HANDLING
 70
     1
  9
$HANDSEED
  5
1F1B
  9
$SURFTAB1
 70
     6
  9
$SURFTAB2
 70
     6
  9
$SURFTYPE
 70
     6
  9
$SURFU
 70
     6
  9
$SURFV
 70
     6
  9
$UCSNAME
  2

  9
$UCSORG
 10
0.0
 20
0.0
 30
0.0
  9
$UCSXDIR
 10
1.0
 20
0.0
 30
0.0
  9
$UCSYDIR
 10
0.0
 20
1.0
 30
0.0
  9
$PUCSNAME
  2

  9
$PUCSORG
 10
0.0
 20
0.0
 30
0.0
  9
$PUCSXDIR
 10
1.0
 20
0.0
 30
0.0
  9
$PUCSYDIR
 10
0.0
 20
1.0
 30
0.0
  9
$USERI1
 70
     0
  9
$USERI2
 70
     0
  9
$USERI3
 70
     0
  9
$USERI4
 70
     0
  9
$USERI5
 70
     0
  9
$USERR1
 40
0.0
  9
$USERR2
 40
0.0
  9
$USERR3
 40
0.0
  9
$USERR4
 40
0.0
  9
$USERR5
 40
0.0
  9
$WORLDVIEW
 70
     1
  9
$SHADEDGE
 70
     3
  9
$SHADEDIF
 70
    70
  9
$TILEMODE
 70
     1
  9
$MAXACTVP
 70
    64
  9
$PLIMCHECK
 70
     0
  9
$PEXTMIN
 10
1.0000000000000000E+20
 20
1.0000000000000000E+20
 30
1.0000000000000000E+20
  9
$PEXTMAX
 10
-1.0000000000000000E+20
 20
-1.0000000000000000E+20
 30
-1.0000000000000000E+20
  9
$PLIMMIN
 10
0.0
 20
0.0
  9
$PLIMMAX
 10
12.0
 20
9.0
  9
$UNITMODE
 70
     0
  9
$VISRETAIN
 70
     1
  9
$PLINEGEN
 70
     0
  9
$PSLTSCALE
 70
     1
  0
ENDSEC
  0
SECTION
  2
TABLES
  0
TABLE
  2
VPORT
 70
     1
  0
VPORT
  2
*ACTIVE
 70
     0
 10
0.0
 20
0.0
 11
1.0
 21
1.0
 12
0.0
 22
0.0
 13
0.0
 23
0.0
 14
1.0
 24
1.0
 15
0.0
 25
0.0
 16
0.0
 26
0.0
 36
11.5722496369186008
 17
493.895111083984375
 27
-7.2250263690948477
 37
0.0
 40
4.0393899443197316
 41
2.1481900452488678
 42
50.0
 43
0.0
 44
0.0
 50
0.0
 51
0.0
 71
     0
 72
   100
 73
     1
 74
     1
 75
     0
 76
     0
 77
     0
 78
     0
  0
ENDTAB
  0
TABLE
  2
LTYPE
 70
     1
  0
LTYPE
  2
CONTINUOUS
 70
     0
  3
Solid line
 72
    65
 73
     0
 40
0.0
  0
ENDTAB
  0
TABLE
  2
LAYER
 70
     2
  0
LAYER
  2
0
 70
     0
 62
   255
  6
CONTINUOUS
  0
LAYER
  2
DEFPOINT
 70
     0
 62
     7
  6
CONTINUOUS
  0
ENDTAB
  0
TABLE
  2
STYLE
 70
     1
  0
STYLE
  2
STANDARD
 70
     0
 40
0.0
 41
0.8
 50
0.0
 71
     0
 42
0.2
  3
txt
  4

  0
ENDTAB
  0
TABLE
  2
VIEW
 70
     0
  0
ENDTAB
  0
TABLE
  2
UCS
 70
     0
  0
ENDTAB
  0
TABLE
  2
APPID
 70
    10
  0
APPID
  2
ACAD
 70
     0
  0
APPID
  2
ACADANNOTATIVE
 70
     0
  0
APPID
  2
ACAD_MLEADERVER
 70
     0
  0
APPID
  2
ACAD_EXEMPT_FROM_CAD_STANDARDS
 70
     0
  0
APPID
  2
ACAD_DSTYLE_DIMJAG
 70
     0
  0
APPID
  2
ACAD_DSTYLE_DIMTALN
 70
     0
  0
APPID
  2
ACAD_NAV_VCDISPLAY
 70
     0
  0
APPID
  2
ACAECLAYERSTANDARD
 70
     0
  0
APPID
  2
ACCMTRANSPARENCY
 70
     0
  0
APPID
  2
ACDBATTR
 70
     0
  0
ENDTAB
  0
TABLE
  2
DIMSTYLE
 70
     1
  0
DIMSTYLE
  2
STANDARD
 70
     0
  3

  4

  5

  6

  7

 40
1.0
 41
0.1875
 42
0.0625
 43
0.38
 44
0.125
 45
0.0
 46
0.0
 47
0.01
 48
0.01
140
0.15625
141
0.09
142
0.0
143
25.3999999999999986
144
1.0
145
0.0
146
1.0
147
0.09
 71
     1
 72
     0
 73
     1
 74
     1
 75
     0
 76
     0
 77
     0
 78
     4
170
     0
171
     2
172
     0
173
     0
174
     0
175
     0
176
     0
177
     0
178
     0
  0
ENDTAB
  0
ENDSEC
  0
SECTION
  2
BLOCKS
  0
BLOCK
  8
0
  2
$MODEL_SPACE
 70
     0
 10
0.0
 20
0.0
 30
0.0
  3
$MODEL_SPACE
  1

  0
ENDBLK
  5
1598
  8
0
  0
BLOCK
 67
     1
  8
0
  2
$PAPER_SPACE
 70
     0
 10
0.0
 20
0.0
 30
0.0
  3
$PAPER_SPACE
  1

  0
ENDBLK
  5
1594
 67
     1
  8
0
  0
ENDSEC
  0
SECTION
  2
ENTITIES
  0
ATTDEF
  5
659
  8
DEFPOINT
 10
493.8902598997246969
 20
-6.7009893580442714
 30
0.0
 40
0.001
  1
K-126B16-SANA
  3

  2
MODELNUMBER
 70
     0
1001
ACDBATTR
1070
     0
1070
     1
  0
ATTDEF
  5
65A
  8
DEFPOINT
 10
493.8902598997246969
 20
-6.7026560247109357
 30
0.0
 40
0.001
  1
OBLO
  3

  2
TRADENAME
 70
     0
1001
ACDBATTR
1070
     0
1070
     1
  0
ATTDEF
  5
65B
  8
DEFPOINT
 10
493.8902598997246969
 20
-6.7043226913776
 30
0.0
 40
0.001
  1
BATHROOM SINK FAUCET
  3

  2
PRODUCT
 70
     0
1001
ACDBATTR
1070
     0
1070
     1
  0
ARC
  5
1C97
  8
0
 10
493.8951093130668824
 20
-6.6991685834278742
 30
0.0
 40
1.141732283499999
 50
90.0
 51
241.1289022423488007
  0
ARC
  5
1C98
  8
0
 10
493.8951093130668824
 20
-6.4727906306278813
 30
0.0
 40
0.5512748184958216
 50
90.0
 51
180.0
  0
ARC
  5
1C99
  8
0
 10
493.8951093130668824
 20
-6.4727906306278813
 30
0.0
 40
0.5610236219999987
 50
90.0
 51
180.0
  0
LINE
  5
1C9A
  8
0
 10
493.3438344945708991
 20
-6.4727906306278813
 30
0.0
 11
493.3438344945708991
 21
-8.4392283670850592
 31
0.0
  0
ARC
  5
1C9B
  8
0
 10
493.8951093130668824
 20
-6.9255465362278672
 30
0.0
 40
0.5610236219999987
 50
180.0
 51
190.6967935977403101
  0
LINE
  5
1C9C
  8
0
 10
493.334085691066889
 20
-6.4727906306278813
 30
0.0
 11
493.334085691066889
 21
-6.9255465362278672
 31
0.0
  0
ARC
  5
1C9D
  8
0
 10
493.8654592881604231
 20
-8.1560309920089047
 30
0.0
 40
0.5600253011141878
 50
104.5700005659177947
 51
137.0343124795008976
  0
ARC
  5
1C9E
  8
0
 10
493.7621953932303995
 20
-8.0594240296257702
 30
0.0
 40
0.4186173581462491
 50
137.0771165193793024
 51
177.9943249466278985
  0
ARC
  5
1C9F
  8
0
 10
493.8654592881604231
 20
-8.3279704315562491
 30
0.0
 40
0.5600253011141878
 50
222.9656875204991024
 51
255.4299994340821911
  0
ARC
  5
1CA0
  8
0
 10
493.7621953932303995
 20
-8.4245773939393835
 30
0.0
 40
0.4186173581462491
 50
182.0056750533719025
 51
222.9228834806206123
  0
ARC
  5
1CA1
  8
0
 10
493.8872122760523098
 20
-8.2543822761347734
 30
0.0
 40
0.5296542849773741
 50
92.4724797913400494
 51
133.567342435465406
  0
ARC
  5
1CA2
  8
0
 10
493.7628325650285888
 20
-8.1237294573150756
 30
0.0
 40
0.3492645314080925
 50
133.5551425128138874
 51
179.6237917855227124
  0
ARC
  5
1CA3
  8
0
 10
493.8205581980989223
 20
-8.1090544928212545
 30
0.0
 40
0.4071709367643228
 50
181.7425793550831088
 51
220.0000238605339007
  0
ARC
  5
1CA4
  8
0
 10
493.8836908009336071
 20
-8.0316774913294715
 30
0.0
 40
0.5056159792715393
 50
222.1188114300981908
 51
267.8096517925644093
  0
ARC
  5
1CA5
  8
0
 10
493.8868589636559818
 20
-8.2573735246737634
 30
0.0
 40
0.5179134740379333
 50
92.4892961024019371
 51
132.6745011510826942
  0
ARC
  5
1CA6
  8
0
 10
493.7817897871266268
 20
-8.1434094257180867
 30
0.0
 40
0.3629059009734586
 50
132.6745011510826942
 51
168.5767410459918096
  0
ARC
  5
1CA7
  8
0
 10
493.7563702816515843
 20
-8.1382732149983745
 30
0.0
 40
0.3369726805957953
 50
168.5767410459918096
 51
198.4055707427623929
  0
LINE
  5
1CA8
  8
0
 10
493.4194827464299919
 20
-8.1306985149851094
 30
0.0
 11
493.4194699093114878
 21
-8.0597935553602404
 31
0.0
  0
LINE
  5
1CA9
  8
0
 10
493.8643632437667179
 20
-7.7252210688278886
 30
0.0
 11
493.8643668648671223
 21
-7.76576305782788
 31
0.0
  0
ARC
  5
1CAA
  8
0
 10
493.8788300949069026
 20
-8.2149586916478903
 30
0.0
 40
0.405234333166696
 50
96.7216202568428542
 51
145.251206541491598
  0
ARC
  5
1CAB
  8
0
 10
493.7826941109229892
 20
-8.1379909549464138
 30
0.0
 40
0.2824995890884069
 50
146.964393684670199
 51
212.9216030854649944
  0
ARC
  5
1CAC
  8
0
 10
493.8974240795805031
 20
-8.0306203690979672
 30
0.0
 40
0.4380419678730538
 50
216.5568446046293047
 51
269.6972277115680754
  0
ARC
  5
1CAD
  8
0
 10
493.8951093130668824
 20
-8.2439466463775055
 30
0.0
 40
0.6526056911496231
 50
90.0
 51
105.1477230716836999
  0
ARC
  5
1CAE
  8
0
 10
493.8951093130668824
 20
-8.2387744141822701
 30
0.0
 40
0.6538416539455955
 50
254.8815950984701999
 51
270.0
  0
LINE
  5
1CAF
  8
0
 10
493.8643664225671159
 20
-8.5369240518278637
 30
0.0
 11
493.8643668648743983
 21
-8.520168119578809
 31
0.0
  0
ARC
  5
1CB0
  8
0
 10
493.8960757873430225
 20
-8.5260358372275604
 30
0.0
 40
0.0322472615043643
 50
91.7174540670548453
 51
169.5160441356231047
  0
ARC
  5
1CB1
  8
0
 10
493.926834651338595
 20
-6.673047707910202
 30
0.0
 40
1.852187232948354
 50
268.0672442784050986
 51
269.0185566289729877
  0
ARC
  5
1CB2
  8
0
 10
493.8967936488490977
 20
-7.719738285265203
 30
0.0
 40
0.0400643261365887
 50
215.9608763684175017
 51
267.5905302486312962
  0
ARC
  5
1CB3
  8
0
 10
493.8951093130668824
 20
-7.7609990879833193
 30
0.0
 40
0.0311093800968371
 50
188.8087134444483866
 51
270.0
  0
ARC
  5
1CB4
  8
0
 10
493.8951093130668824
 20
-8.2705468060413772
 30
0.0
 40
0.4624466997696033
 50
90.0
 51
97.9186748800381537
  0
ARC
  5
1CB5
  8
0
 10
493.8867974043112099
 20
-8.2740157643734502
 30
0.0
 40
0.2955651956863322
 50
95.9731531391823864
 51
134.7065267862606959
  0
ARC
  5
1CB6
  8
0
 10
493.826419486719999
 20
-8.2130161365945238
 30
0.0
 40
0.209737184397311
 50
134.7065267862606959
 51
153.023147722191311
  0
ARC
  5
1CB7
  8
0
 10
493.8243175826023048
 20
-8.2119462323720196
 30
0.0
 40
0.2073786475702442
 50
153.023147722191311
 51
204.4543427763489944
  0
ARC
  5
1CB8
  8
0
 10
493.8475681522194236
 20
-8.1953300787452346
 30
0.0
 40
0.2354862481953425
 50
205.7927946520684088
 51
230.4919627518102914
  0
LINE
  5
1CB9
  8
0
 10
493.8560401651600955
 20
-7.980055261684929
 30
0.0
 11
493.8560411341808276
 21
-8.0255610772346468
 31
0.0
  0
ARC
  5
1CBA
  8
0
 10
493.6902452657948857
 20
-8.0634926401480467
 30
0.0
 40
0.0118472665320165
 50
184.3489561567334079
 51
247.7935818183997867
  0
LINE
  5
1CBB
  8
0
 10
493.6857676565808219
 20
-8.0744611742346191
 30
0.0
 11
493.7203038611831971
 21
-8.0911439508356633
 31
0.0
  0
ARC
  5
1CBC
  8
0
 10
493.851399870120872
 20
-8.2237068507249713
 30
0.0
 40
0.1864378877442054
 50
134.6812328711843065
 51
156.1110098414004028
  0
LINE
  5
1CBD
  8
0
 10
493.6809337825811212
 20
-8.148205864073736
 30
0.0
 11
493.6463975779604993
 21
-8.1315230873514164
 31
0.0
  0
ARC
  5
1CBE
  8
0
 10
493.6508752783300906
 20
-8.1205544711760123
 30
0.0
 40
0.0118473769841788
 50
169.69123186601459
 51
247.793323713873491
  0
ARC
  5
1CBF
  8
0
 10
493.8337928863546153
 20
-8.1974186935984843
 30
0.0
 40
0.1656471469921197
 50
137.9748022529645084
 51
157.1887534892333065
  0
LINE
  5
1CC0
  8
0
 10
493.6811014882534892
 20
-8.1331978694635207
 30
0.0
 11
493.6808709241394126
 21
-8.1481755001887048
 31
0.0
  0
LINE
  5
1CC1
  8
0
 10
493.6811014882534892
 20
-8.1331978694635207
 30
0.0
 11
493.6414918459494174
 21
-8.1140643594605475
 31
0.0
  0
ARC
  5
1CC2
  8
0
 10
493.8170572651191037
 20
-8.2097329781969446
 30
0.0
 40
0.1972185357284392
 50
154.195190206827192
 51
205.9343639525218066
  0
ARC
  5
1CC3
  8
0
 10
493.6430873705606928
 20
-8.2915772626840347
 30
0.0
 40
0.005559124443349
 50
232.4519945233435863
 51
306.5450632869798824
  0
LINE
  5
1CC4
  8
0
 10
493.646397578106928
 20
-8.2960434009012012
 30
0.0
 11
493.6809337825005173
 21
-8.2793568748735478
 31
0.0
  0
ARC
  5
1CC5
  8
0
 10
493.8513730196958136
 20
-8.2038644845905875
 30
0.0
 40
0.186409856408939
 50
203.8899164142827942
 51
225.3218534699213933
  0
LINE
  5
1CC6
  8
0
 10
493.7203038611809234
 20
-8.3364145138346313
 30
0.0
 11
493.6857676566403939
 21
-8.3531010398059831
 31
0.0
  0
ARC
  5
1CC7
  8
0
 10
493.6828974637027159
 20
-8.3485648431900525
 30
0.0
 40
0.005367968632353
 50
221.4662773689850042
 51
302.3228119786351726
  0
ARC
  5
1CC8
  8
0
 10
493.8854416036023167
 20
-8.1548827201069152
 30
0.0
 40
0.2856082449087893
 50
223.6764095834714112
 51
264.0914428166992138
  0
ARC
  5
1CC9
  8
0
 10
493.845989385110272
 20
-8.1834917040756405
 30
0.0
 40
0.2298785392017888
 50
209.4297071756346043
 51
223.3664666052218877
  0
LINE
  5
1CCA
  8
0
 10
493.6788730485807832
 20
-8.3413405965346268
 30
0.0
 11
493.7105706594913954
 21
-8.3260255664756126
 31
0.0
  0
LINE
  5
1CCB
  8
0
 10
493.6788730485807832
 20
-8.3413405965346268
 30
0.0
 11
493.6788750000807795
 21
-8.3521193999346277
 31
0.0
  0
LINE
  5
1CCC
  8
0
 10
493.6977537499413984
 20
-8.3701623966860037
 30
0.0
 11
493.6977549908809237
 21
-8.3770160434346277
 31
0.0
  0
LINE
  5
1CCD
  8
0
 10
493.6977549908809237
 20
-8.3770160434346277
 30
0.0
 11
493.6866878973809207
 21
-8.3862771931346227
 31
0.0
  0
ARC
  5
1CCE
  8
0
 10
493.8203455911133233
 20
-8.2112793743027392
 30
0.0
 40
0.2202013071935337
 50
125.3773006932610059
 51
232.6285751557039987
  0
LINE
  5
1CCF
  8
0
 10
493.8560407779808088
 20
-8.4389736580346302
 30
0.0
 11
493.8560411341662189
 21
-8.4019826511916786
 31
0.0
  0
ARC
  5
1CD0
  8
0
 10
493.8946568174808931
 20
-8.1425713613427373
 30
0.0
 40
0.2622696861990634
 50
261.5331857212389082
 51
270.0988528280425953
  0
ARC
  5
1CD1
  8
0
 10
493.8946568174808931
 20
-8.3005686344014631
 30
0.0
 40
0.3361447655616558
 50
89.9228722329956156
 51
126.8937041484938959
  0
ARC
  5
1CD2
  8
0
 10
493.8946568174808931
 20
-8.2845993386673396
 30
0.0
 40
0.2619007290612408
 50
89.901007911205653
 51
98.4788298205070021
  0
ARC
  5
1CD3
  8
0
 10
493.8939341642351906
 20
-7.9650347221806657
 30
0.0
 40
0.4712855935356724
 50
265.3881998683510801
 51
270.1428669559476248
  0
ARC
  5
1CD4
  8
0
 10
493.3453333727729273
 20
-8.0603200046773154
 30
0.0
 40
0.0745362134784218
 50
310.0748519761053785
 51
340.8591801342798249
  0
ARC
  5
1CD5
  8
0
 10
493.4193993686528756
 20
-8.1427094816903356
 30
0.0
 40
0.0363733488086254
 50
135.809149353757789
 51
192.2645659353489975
  0
ARC
  5
1CD6
  8
0
 10
493.4026935268955754
 20
-8.1453208462006188
 30
0.0
 40
0.0195195383269788
 50
195.192311951812286
 51
268.9626119060628184
  0
ARC
  5
1CD7
  8
0
 10
493.3999055710816037
 20
-8.1481998281510322
 30
0.0
 40
0.0168145388995128
 50
278.325051385905283
 51
341.282374968776594
  0
ARC
  5
1CD8
  8
0
 10
493.8951093130668824
 20
-6.6991685834278742
 30
0.0
 40
1.141732283499999
 50
298.8710977576511141
 51
90.0
  0
ARC
  5
1CD9
  8
0
 10
493.8951093130668824
 20
-6.4727906306278813
 30
0.0
 40
0.5512748184958216
 50
0.0
 51
90.0
  0
ARC
  5
1CDA
  8
0
 10
493.8951093130668824
 20
-6.4727906306278813
 30
0.0
 40
0.5610236219999987
 50
0.0
 51
90.0
  0
LINE
  5
1CDB
  8
0
 10
494.4463841315629793
 20
-6.4727906306278813
 30
0.0
 11
494.4463841315629793
 21
-8.4392283670850592
 31
0.0
  0
ARC
  5
1CDC
  8
0
 10
493.8951093130668824
 20
-6.9255465362278672
 30
0.0
 40
0.5610236219999987
 50
349.3032064022594909
 51
0.0
  0
LINE
  5
1CDD
  8
0
 10
494.4561329350668757
 20
-6.4727906306278813
 30
0.0
 11
494.4561329350668757
 21
-6.9255465362278672
 31
0.0
  0
ARC
  5
1CDE
  8
0
 10
493.9247593379732848
 20
-8.1560309920089047
 30
0.0
 40
0.5600253011141878
 50
42.9656875204991309
 51
75.4299994340822337
  0
ARC
  5
1CDF
  8
0
 10
494.028023232903422
 20
-8.0594240296257702
 30
0.0
 40
0.4186173581462491
 50
2.0056750533719621
 51
42.9228834806206407
  0
ARC
  5
1CE0
  8
0
 10
493.9247593379732848
 20
-8.3279704315562491
 30
0.0
 40
0.5600253011141878
 50
284.5700005659177805
 51
317.0343124795007839
  0
ARC
  5
1CE1
  8
0
 10
494.028023232903422
 20
-8.4245773939393835
 30
0.0
 40
0.4186173581462491
 50
317.077116519379274
 51
357.9943249466281259
  0
ARC
  5
1CE2
  8
0
 10
493.9030063500815118
 20
-8.2543822761347734
 30
0.0
 40
0.5296542849773741
 50
46.4326575645345727
 51
87.5275202086599649
  0
ARC
  5
1CE3
  8
0
 10
494.0273860611051759
 20
-8.1237294573150756
 30
0.0
 40
0.3492645314080925
 50
0.3762082144772965
 51
46.4448574871860274
  0
ARC
  5
1CE4
  8
0
 10
493.9696604280348993
 20
-8.1090544928212545
 30
0.0
 40
0.4071709367643228
 50
319.9999761394661277
 51
358.2574206449169196
  0
ARC
  5
1CE5
  8
0
 10
493.9065278252003282
 20
-8.0316774913294715
 30
0.0
 40
0.5056159792715393
 50
272.1903482074357044
 51
317.8811885699017239
  0
ARC
  5
1CE6
  8
0
 10
493.9033596624777829
 20
-8.2573735246737634
 30
0.0
 40
0.5179134740379333
 50
47.3254988489172419
 51
87.5107038975980629
  0
ARC
  5
1CE7
  8
0
 10
494.0084288390073084
 20
-8.1434094257180867
 30
0.0
 40
0.3629059009734586
 50
11.4232589540081708
 51
47.3254988489172419
  0
ARC
  5
1CE8
  8
0
 10
494.0338483444821804
 20
-8.1382732149983745
 30
0.0
 40
0.3369726805957953
 50
341.5944292572374934
 51
11.4232589540081708
  0
LINE
  5
1CE9
  8
0
 10
494.3707358797038864
 20
-8.1306985149851094
 30
0.0
 11
494.3707487168222769
 21
-8.0597935553602404
 31
0.0
  0
LINE
  5
1CEA
  8
0
 10
493.9258553823671036
 20
-7.7252210688278886
 30
0.0
 11
493.9258517612666992
 21
-7.76576305782788
 31
0.0
  0
ARC
  5
1CEB
  8
0
 10
493.911388531226919
 20
-8.2149586916478903
 30
0.0
 40
0.405234333166696
 50
34.7487934585083593
 51
83.2783797431571458
  0
ARC
  5
1CEC
  8
0
 10
494.0075245152107755
 20
-8.1379909549464138
 30
0.0
 40
0.2824995890884069
 50
327.0783969145348919
 51
33.0356063153297583
  0
ARC
  5
1CED
  8
0
 10
493.8927945465533753
 20
-8.0306203690979672
 30
0.0
 40
0.4380419678730538
 50
270.3027722884319246
 51
323.4431553953705816
  0
ARC
  5
1CEE
  8
0
 10
493.8951093130668824
 20
-8.2439466463775055
 30
0.0
 40
0.6526056911496231
 50
74.852276928316229
 51
90.0
  0
ARC
  5
1CEF
  8
0
 10
493.8951093130668824
 20
-8.2387744141822701
 30
0.0
 40
0.6538416539455955
 50
270.0
 51
285.1184049015298001
  0
LINE
  5
1CF0
  8
0
 10
493.9258522035667056
 20
-8.5369240518278637
 30
0.0
 11
493.9258517612594801
 21
-8.520168119578809
 31
0.0
  0
ARC
  5
1CF1
  8
0
 10
493.894142838790799
 20
-8.5260358372275604
 30
0.0
 40
0.0322472615043643
 50
10.4839558643769397
 51
88.2825459329451547
  0
ARC
  5
1CF2
  8
0
 10
493.8633839747952834
 20
-6.673047707910202
 30
0.0
 40
1.852187232948354
 50
270.9814433710270123
 51
271.9327557215917182
  0
ARC
  5
1CF3
  8
0
 10
493.8951093130668824
 20
-7.7609990879833193
 30
0.0
 40
0.0311093800968371
 50
269.9999999999968168
 51
351.1912865555515282
  0
ARC
  5
1CF4
  8
0
 10
493.8951093130668824
 20
-8.2705468060413772
 30
0.0
 40
0.4624466997696033
 50
82.0813251199618463
 51
90.0
  0
ARC
  5
1CF5
  8
0
 10
493.9034212218226116
 20
-8.2740157643734502
 30
0.0
 40
0.2955651956863322
 50
45.2934732137392828
 51
84.0268468608176136
  0
ARC
  5
1CF6
  8
0
 10
493.9637991394138226
 20
-8.2130161365945238
 30
0.0
 40
0.209737184397311
 50
26.976852277808721
 51
45.2934732137392828
  0
ARC
  5
1CF7
  8
0
 10
493.9659010435316873
 20
-8.2119462323720196
 30
0.0
 40
0.2073786475702442
 50
335.5456572236508919
 51
26.976852277808721
  0
ARC
  5
1CF8
  8
0
 10
493.9426504739143979
 20
-8.1953300787452346
 30
0.0
 40
0.2354862481953425
 50
309.5080372481896802
 51
334.2072053479315059
  0
LINE
  5
1CF9
  8
0
 10
493.934178460973726
 20
-7.980055261684929
 30
0.0
 11
493.9341774919529939
 21
-8.0255610772346468
 31
0.0
  0
ARC
  5
1CFA
  8
0
 10
494.0999733603389927
 20
-8.0634926401480467
 30
0.0
 40
0.0118472665320165
 50
292.2064181816002133
 51
355.6510438432665069
  0
LINE
  5
1CFB
  8
0
 10
494.1044509695529996
 20
-8.0744611742346191
 30
0.0
 11
494.0699147649506813
 21
-8.0911439508356633
 31
0.0
  0
ARC
  5
1CFC
  8
0
 10
493.93881875601312
 20
-8.2237068507249713
 30
0.0
 40
0.1864378877442054
 50
23.8889901585995901
 51
45.3187671288156366
  0
LINE
  5
1CFD
  8
0
 10
494.1092848435529277
 20
-8.148205864073736
 30
0.0
 11
494.143821048173379
 21
-8.1315230873514164
 31
0.0
  0
ARC
  5
1CFE
  8
0
 10
494.1393433478037878
 20
-8.1205544711760123
 30
0.0
 40
0.0118473769841788
 50
292.2066762861264237
 51
10.30876813398541
  0
ARC
  5
1CFF
  8
0
 10
493.9564257397792062
 20
-8.1974186935984843
 30
0.0
 40
0.1656471469921197
 50
22.8112465107667006
 51
42.02519774703552
  0
LINE
  5
1D00
  8
0
 10
494.1091171378802755
 20
-8.1331978694635207
 30
0.0
 11
494.1093477019945226
 21
-8.1481755001887048
 31
0.0
  0
LINE
  5
1D01
  8
0
 10
494.1091171378802755
 20
-8.1331978694635207
 30
0.0
 11
494.1487267801845178
 21
-8.1140643594605475
 31
0.0
  0
ARC
  5
1D02
  8
0
 10
493.9731613610147178
 20
-8.2097329781969446
 30
0.0
 40
0.1972185357284392
 50
334.0656360474781081
 51
25.8048097931727582
  0
ARC
  5
1D03
  8
0
 10
494.1471312555731856
 20
-8.2915772626840347
 30
0.0
 40
0.005559124443349
 50
233.4549367130175881
 51
307.5480054766563853
  0
LINE
  5
1D04
  8
0
 10
494.1438210480268935
 20
-8.2960434009012012
 30
0.0
 11
494.1092848436333043
 21
-8.2793568748735478
 31
0.0
  0
ARC
  5
1D05
  8
0
 10
493.9388456064381216
 20
-8.2038644845905875
 30
0.0
 40
0.186409856408939
 50
314.6781465300762761
 51
336.1100835857171205
  0
LINE
  5
1D06
  8
0
 10
494.0699147649530119
 20
-8.3364145138346313
 30
0.0
 11
494.1044509694934277
 21
-8.3531010398059831
 31
0.0
  0
ARC
  5
1D07
  8
0
 10
494.1073211624312194
 20
-8.3485648431900525
 30
0.0
 40
0.005367968632353
 50
237.6771880213647989
 51
318.5337226310148822
  0
ARC
  5
1D08
  8
0
 10
493.9047770225315048
 20
-8.1548827201069152
 30
0.0
 40
0.2856082449087893
 50
275.9085571833007862
 51
316.3235904165284751
  0
ARC
  5
1D09
  8
0
 10
493.9442292410236064
 20
-8.1834917040756405
 30
0.0
 40
0.2298785392017888
 50
316.633533394777885
 51
330.5702928243654242
  0
LINE
  5
1D0A
  8
0
 10
494.1113455775529815
 20
-8.3413405965346268
 30
0.0
 11
494.0796479666424261
 21
-8.3260255664756126
 31
0.0
  0
LINE
  5
1D0B
  8
0
 10
494.1113455775529815
 20
-8.3413405965346268
 30
0.0
 11
494.1113436260529852
 21
-8.3521193999346277
 31
0.0
  0
LINE
  5
1D0C
  8
0
 10
494.09246487619248
 20
-8.3701623966860037
 30
0.0
 11
494.0924636352528978
 21
-8.3770160434346277
 31
0.0
  0
LINE
  5
1D0D
  8
0
 10
494.0924636352528978
 20
-8.3770160434346277
 30
0.0
 11
494.1035307287529008
 21
-8.3862771931346227
 31
0.0
  0
ARC
  5
1D0E
  8
0
 10
493.969873035020612
 20
-8.2112793743027392
 30
0.0
 40
0.2202013071935337
 50
307.371424844295916
 51
54.6226993067390012
  0
LINE
  5
1D0F
  8
0
 10
493.9341778481530127
 20
-8.4389736580346302
 30
0.0
 11
493.9341774919676027
 21
-8.4019826511916786
 31
0.0
  0
ARC
  5
1D10
  8
0
 10
493.8955618086529853
 20
-8.1425713613427373
 30
0.0
 40
0.2622696861990634
 50
269.9011471719574047
 51
278.4668142787610918
  0
ARC
  5
1D11
  8
0
 10
493.8955618086529853
 20
-8.3005686344014631
 30
0.0
 40
0.3361447655616558
 50
53.1062958515061396
 51
90.0771277670043986
  0
ARC
  5
1D12
  8
0
 10
493.8955618086529853
 20
-8.2845993386673396
 30
0.0
 40
0.2619007290612408
 50
81.5211701794930121
 51
90.0989920887943327
  0
ARC
  5
1D13
  8
0
 10
493.8962844618986878
 20
-7.9650347221806657
 30
0.0
 40
0.4712855935356724
 50
269.8571330440523184
 51
274.6118001316489199
  0
ARC
  5
1D14
  8
0
 10
494.4448852533610079
 20
-8.0603200046773154
 30
0.0
 40
0.0745362134784218
 50
199.1408198657200899
 51
229.9251480238945078
  0
ARC
  5
1D15
  8
0
 10
494.3708192574808891
 20
-8.1427094816903356
 30
0.0
 40
0.0363733488086254
 50
347.7354340646509741
 51
44.19085064624214
  0
ARC
  5
1D16
  8
0
 10
494.3875250992381893
 20
-8.1453208462006188
 30
0.0
 40
0.0195195383269788
 50
271.0373880939371816
 51
344.8076880481875719
  0
ARC
  5
1D17
  8
0
 10
494.3903130550522178
 20
-8.1481998281510322
 30
0.0
 40
0.0168145388995128
 50
198.717625031223406
 51
261.674948614094717
  0
ARC
  5
1D18
  8
0
 10
493.8934249772847807
 20
-7.719738285265203
 30
0.0
 40
0.0400643261365887
 50
272.4094697513685901
 51
324.0391236315825267
  0
ARC
  5
1D19
  8
0
 10
493.9604886425992731
 20
-8.0610270973329676
 30
0.0
 40
0.0103165194602044
 50
304.530166872833604
 51
54.4589288166066297
  0
ARC
  5
1D1A
  8
0
 10
493.9570140087087111
 20
-8.0559771717251323
 30
0.0
 40
0.0164463505605584
 50
236.564117412454209
 51
304.530166872833604
  0
ARC
  5
1D1B
  8
0
 10
493.9536507141439756
 20
-8.0610709313499314
 30
0.0
 40
0.0103424061437357
 50
137.5589197623955897
 51
236.56411741245401
  0
ARC
  5
1D1C
  8
0
 10
493.9570870877242896
 20
-8.0650782696469179
 30
0.0
 40
0.015595700161746
 50
52.9416455838057374
 51
135.2131612868919888
  0
ARC
  5
1D1D
  8
0
 10
493.9731148201883002
 20
-8.1203067895548173
 30
0.0
 40
0.0131430672641373
 50
38.3876683730444768
 51
135.9792358741057967
  0
ARC
  5
1D1E
  8
0
 10
493.9764377530383967
 20
-8.1170567475412128
 30
0.0
 40
0.0085339901043492
 50
320.9782236590233993
 51
35.1364338766680078
  0
ARC
  5
1D1F
  8
0
 10
493.9730290767345195
 20
-8.1133039255960711
 30
0.0
 40
0.0135668858997472
 50
237.3486735603094928
 51
317.7269891626575031
  0
ARC
  5
1D20
  8
0
 10
493.9706262895994087
 20
-8.1170536542481244
 30
0.0
 40
0.0091133647106656
 50
139.8169483647002949
 51
237.3486735603094928
  0
ARC
  5
1D21
  8
0
 10
493.8978873757698125
 20
-8.0523536859407017
 30
0.0
 40
0.0103165194602044
 50
304.530166872833604
 51
54.4589288166066297
  0
ARC
  5
1D22
  8
0
 10
493.8944127418791936
 20
-8.0473037603328947
 30
0.0
 40
0.0164463505605584
 50
236.564117412454209
 51
304.530166872833604
  0
ARC
  5
1D23
  8
0
 10
493.891049447314515
 20
-8.0523975199576938
 30
0.0
 40
0.0103424061437357
 50
137.5589197623955897
 51
236.56411741245401
  0
ARC
  5
1D24
  8
0
 10
493.8944858208944879
 20
-8.0564048582546501
 30
0.0
 40
0.015595700161746
 50
52.9416455838057374
 51
135.2131612868919888
  0
ARC
  5
1D25
  8
0
 10
494.0165374888562724
 20
-8.0867066930576499
 30
0.0
 40
0.0103165194602044
 50
304.530166872833604
 51
54.4589288166066297
  0
ARC
  5
1D26
  8
0
 10
494.0130628549657104
 20
-8.0816567674498145
 30
0.0
 40
0.0164463505605584
 50
236.564117412454209
 51
304.530166872833604
  0
ARC
  5
1D27
  8
0
 10
494.0096995604009749
 20
-8.0867505270746136
 30
0.0
 40
0.0103424061437357
 50
137.5589197623955897
 51
236.56411741245401
  0
ARC
  5
1D28
  8
0
 10
494.0131359339812889
 20
-8.0907578653716001
 30
0.0
 40
0.015595700161746
 50
52.9416455838057374
 51
135.2131612868919888
  0
ARC
  5
1D29
  8
0
 10
494.0592135173293968
 20
-8.1254856486924751
 30
0.0
 40
0.0103165194602044
 50
304.530166872833604
 51
54.4589288166066297
  0
ARC
  5
1D2A
  8
0
 10
494.055738883438778
 20
-8.1204357230846682
 30
0.0
 40
0.0164463505605584
 50
236.564117412454209
 51
304.530166872833604
  0
ARC
  5
1D2B
  8
0
 10
494.0523755888740993
 20
-8.1255294827094673
 30
0.0
 40
0.0103424061437357
 50
137.5589197623955897
 51
236.56411741245401
  0
ARC
  5
1D2C
  8
0
 10
494.055811962454527
 20
-8.1295368210064254
 30
0.0
 40
0.015595700161746
 50
52.9416455838057374
 51
135.2131612868919888
  0
ARC
  5
1D2D
  8
0
 10
494.0848298954780944
 20
-8.1739631968956843
 30
0.0
 40
0.0103165194602044
 50
304.530166872833604
 51
54.4589288166066297
  0
ARC
  5
1D2E
  8
0
 10
494.0813552615874755
 20
-8.1689132712878472
 30
0.0
 40
0.0164463505605584
 50
236.564117412454209
 51
304.530166872833604
  0
ARC
  5
1D2F
  8
0
 10
494.0779919670227969
 20
-8.174007030912648
 30
0.0
 40
0.0103424061437357
 50
137.5589197623955897
 51
236.56411741245401
  0
ARC
  5
1D30
  8
0
 10
494.0814283406028267
 20
-8.1780143692096345
 30
0.0
 40
0.015595700161746
 50
52.9416455838057374
 51
135.2131612868919888
  0
ARC
  5
1D31
  8
0
 10
494.0902755190037965
 20
-8.2272391034540107
 30
0.0
 40
0.0103165194602044
 50
304.530166872833604
 51
54.4589288166066297
  0
ARC
  5
1D32
  8
0
 10
494.0868008851127229
 20
-8.2221891778462037
 30
0.0
 40
0.0164463505605584
 50
236.564117412454209
 51
304.530166872833604
  0
ARC
  5
1D33
  8
0
 10
494.0834375905479874
 20
-8.2272829374710028
 30
0.0
 40
0.0103424061437357
 50
137.5589197623955897
 51
236.56411741245401
  0
ARC
  5
1D34
  8
0
 10
494.0868739641284719
 20
-8.2312902757679893
 30
0.0
 40
0.015595700161746
 50
52.9416455838057374
 51
135.2131612868919888
  0
ARC
  5
1D35
  8
0
 10
494.0747739811670272
 20
-8.2786382859161023
 30
0.0
 40
0.0103165194602044
 50
304.530166872833604
 51
54.4589288166066297
  0
ARC
  5
1D36
  8
0
 10
494.0712993472758967
 20
-8.2735883603082652
 30
0.0
 40
0.0164463505605584
 50
236.564117412454209
 51
304.530166872833604
  0
ARC
  5
1D37
  8
0
 10
494.0679360527112181
 20
-8.278682119933066
 30
0.0
 40
0.0103424061437357
 50
137.5589197623955897
 51
236.56411741245401
  0
ARC
  5
1D38
  8
0
 10
494.0713724262915889
 20
-8.2826894582300525
 30
0.0
 40
0.015595700161746
 50
52.9416455838057374
 51
135.2131612868919888
  0
ARC
  5
1D39
  8
0
 10
494.0401384856970139
 20
-8.3230917649207043
 30
0.0
 40
0.0103165194602044
 50
304.530166872833604
 51
54.4589288166066297
  0
ARC
  5
1D3A
  8
0
 10
494.0366638518063951
 20
-8.3180418393128974
 30
0.0
 40
0.0164463505605584
 50
236.564117412454209
 51
304.530166872833604
  0
ARC
  5
1D3B
  8
0
 10
494.0333005572417164
 20
-8.3231355989376965
 30
0.0
 40
0.0103424061437357
 50
137.5589197623955897
 51
236.56411741245401
  0
ARC
  5
1D3C
  8
0
 10
494.0367369308216894
 20
-8.3271429372346546
 30
0.0
 40
0.015595700161746
 50
52.9416455838057374
 51
135.2131612868919888
  0
ARC
  5
1D3D
  8
0
 10
493.9897715314421021
 20
-8.3556420643149494
 30
0.0
 40
0.0103165194602044
 50
304.530166872833604
 51
54.4589288166066297
  0
ARC
  5
1D3E
  8
0
 10
493.9862968975514264
 20
-8.350592138707114
 30
0.0
 40
0.0164463505605584
 50
236.564117412454209
 51
304.530166872833604
  0
ARC
  5
1D3F
  8
0
 10
493.9829336029868045
 20
-8.3556858983319131
 30
0.0
 40
0.0103424061437357
 50
137.5589197623955897
 51
236.56411741245401
  0
ARC
  5
1D40
  8
0
 10
493.9863699765667207
 20
-8.3596932366288996
 30
0.0
 40
0.015595700161746
 50
52.9416455838057374
 51
135.2131612868919888
  0
ARC
  5
1D41
  8
0
 10
493.929828452485026
 20
-8.3730951665392723
 30
0.0
 40
0.0103165194602044
 50
304.530166872833604
 51
54.4589288166066297
  0
ARC
  5
1D42
  8
0
 10
493.9263538185938955
 20
-8.3680452409314352
 30
0.0
 40
0.0164463505605584
 50
236.564117412454209
 51
304.530166872833604
  0
ARC
  5
1D43
  8
0
 10
493.9229905240296716
 20
-8.3731390005562361
 30
0.0
 40
0.0103424061437357
 50
137.5589197623955897
 51
236.56411741245401
  0
ARC
  5
1D44
  8
0
 10
493.9264268976095877
 20
-8.3771463388532226
 30
0.0
 40
0.015595700161746
 50
52.9416455838057374
 51
135.2131612868919888
  0
ARC
  5
1D45
  8
0
 10
493.9259058873983008
 20
-8.1031829617148912
 30
0.0
 40
0.0131430672641373
 50
38.3876683730444768
 51
135.9792358741057967
  0
ARC
  5
1D46
  8
0
 10
493.9292288202485111
 20
-8.0999329197012582
 30
0.0
 40
0.0085339901043492
 50
320.9782236590233993
 51
35.1364338766680078
  0
ARC
  5
1D47
  8
0
 10
493.9258201439445202
 20
-8.0961800977561182
 30
0.0
 40
0.0135668858997472
 50
237.3486735603094928
 51
317.7269891626575031
  0
ARC
  5
1D48
  8
0
 10
493.9234173568094093
 20
-8.0999298264082
 30
0.0
 40
0.0091133647106656
 50
139.8169483647002949
 51
237.3486735603094928
  0
ARC
  5
1D49
  8
0
 10
493.8991184537114805
 20
-8.1431468646635352
 30
0.0
 40
0.0131430672641373
 50
38.3876683730444768
 51
135.9792358741057967
  0
ARC
  5
1D4A
  8
0
 10
493.902441386561577
 20
-8.1398968226499306
 30
0.0
 40
0.0085339901043492
 50
320.9782236590233993
 51
35.1364338766680078
  0
ARC
  5
1D4B
  8
0
 10
493.8990327102575861
 20
-8.1361440007047872
 30
0.0
 40
0.0135668858997472
 50
237.3486735603094928
 51
317.7269891626575031
  0
ARC
  5
1D4C
  8
0
 10
493.8966299231225889
 20
-8.1398937293568423
 30
0.0
 40
0.0091133647106656
 50
139.8169483647002949
 51
237.3486735603094928
  0
ARC
  5
1D4D
  8
0
 10
493.9501025641959018
 20
-8.1594422154785065
 30
0.0
 40
0.0131430672641373
 50
38.3876683730444768
 51
135.9792358741057967
  0
ARC
  5
1D4E
  8
0
 10
493.9534254970465099
 20
-8.1561921734648735
 30
0.0
 40
0.0085339901043492
 50
320.9782236590233993
 51
35.1364338766680078
  0
ARC
  5
1D4F
  8
0
 10
493.950016820742519
 20
-8.1524393515197318
 30
0.0
 40
0.0135668858997472
 50
237.3486735603094928
 51
317.7269891626575031
  0
ARC
  5
1D50
  8
0
 10
493.9476140336071239
 20
-8.1561890801717851
 30
0.0
 40
0.0091133647106656
 50
139.8169483647002949
 51
237.3486735603094928
  0
ARC
  5
1D51
  8
0
 10
494.0097414596496037
 20
-8.1505315208972746
 30
0.0
 40
0.0131430672641373
 50
38.3876683730444768
 51
135.9792358741057967
  0
ARC
  5
1D52
  8
0
 10
494.0130643924995866
 20
-8.1472814788836416
 30
0.0
 40
0.0085339901043492
 50
320.9782236590233993
 51
35.1364338766680078
  0
ARC
  5
1D53
  8
0
 10
494.0096557161957094
 20
-8.1435286569384981
 30
0.0
 40
0.0135668858997472
 50
237.3486735603094928
 51
317.7269891626575031
  0
ARC
  5
1D54
  8
0
 10
494.0072529290607122
 20
-8.1472783855905817
 30
0.0
 40
0.0091133647106656
 50
139.8169483647002949
 51
237.3486735603094928
  0
ARC
  5
1D55
  8
0
 10
494.0301107233059952
 20
-8.1898731706736356
 30
0.0
 40
0.0131430672641373
 50
38.3876683730444768
 51
135.9792358741057967
  0
ARC
  5
1D56
  8
0
 10
494.0334336561566033
 20
-8.1866231286600026
 30
0.0
 40
0.0085339901043492
 50
320.9782236590233993
 51
35.1364338766680078
  0
ARC
  5
1D57
  8
0
 10
494.0300249798526124
 20
-8.1828703067148592
 30
0.0
 40
0.0135668858997472
 50
237.3486735603094928
 51
317.7269891626575031
  0
ARC
  5
1D58
  8
0
 10
494.0276221927172173
 20
-8.1866200353669427
 30
0.0
 40
0.0091133647106656
 50
139.8169483647002949
 51
237.3486735603094928
  0
ARC
  5
1D59
  8
0
 10
493.9799757790320882
 20
-8.1977873855588967
 30
0.0
 40
0.0131430672641373
 50
38.3876683730444768
 51
135.9792358741057967
  0
ARC
  5
1D5A
  8
0
 10
493.9832987118822984
 20
-8.1945373435452922
 30
0.0
 40
0.0085339901043492
 50
320.9782236590233993
 51
35.1364338766680078
  0
ARC
  5
1D5B
  8
0
 10
493.9798900355783076
 20
-8.1907845216001505
 30
0.0
 40
0.0135668858997472
 50
237.3486735603094928
 51
317.7269891626575031
  0
ARC
  5
1D5C
  8
0
 10
493.9774872484433104
 20
-8.1945342502522038
 30
0.0
 40
0.0091133647106656
 50
139.8169483647002949
 51
237.3486735603094928
  0
ARC
  5
1D5D
  8
0
 10
493.9269620461524823
 20
-8.201917246825829
 30
0.0
 40
0.0131430672641373
 50
38.3876683730444768
 51
135.9792358741057967
  0
ARC
  5
1D5E
  8
0
 10
493.9302849790025789
 20
-8.198667204812196
 30
0.0
 40
0.0085339901043492
 50
320.9782236590233993
 51
35.1364338766680078
  0
ARC
  5
1D5F
  8
0
 10
493.926876302698588
 20
-8.1949143828670543
 30
0.0
 40
0.0135668858997472
 50
237.3486735603094928
 51
317.7269891626575031
  0
ARC
  5
1D60
  8
0
 10
493.9244735155637045
 20
-8.1986641115191361
 30
0.0
 40
0.0091133647106656
 50
139.8169483647002949
 51
237.3486735603094928
  0
ARC
  5
1D61
  8
0
 10
493.9125723066655951
 20
-8.2446342129391752
 30
0.0
 40
0.0131430672641373
 50
38.3876683730444768
 51
135.9792358741057967
  0
ARC
  5
1D62
  8
0
 10
493.9158952395156916
 20
-8.2413841709255422
 30
0.0
 40
0.0085339901043492
 50
320.9782236590233993
 51
35.1364338766680078
  0
ARC
  5
1D63
  8
0
 10
493.9124865632118144
 20
-8.2376313489804005
 30
0.0
 40
0.0135668858997472
 50
237.3486735603094928
 51
317.7269891626575031
  0
ARC
  5
1D64
  8
0
 10
493.9100837760768172
 20
-8.2413810776324823
 30
0.0
 40
0.0091133647106656
 50
139.8169483647002949
 51
237.3486735603094928
  0
ARC
  5
1D65
  8
0
 10
493.8896674416711789
 20
-8.2908861571053905
 30
0.0
 40
0.0131430672641373
 50
38.3876683730444768
 51
135.9792358741057967
  0
ARC
  5
1D66
  8
0
 10
493.8929903745217871
 20
-8.2876361150917859
 30
0.0
 40
0.0085339901043492
 50
320.9782236590233993
 51
35.1364338766680078
  0
ARC
  5
1D67
  8
0
 10
493.8895816982177962
 20
-8.2838832931466442
 30
0.0
 40
0.0135668858997472
 50
237.3486735603094928
 51
317.7269891626575031
  0
ARC
  5
1D68
  8
0
 10
493.8871789110824011
 20
-8.2876330217986975
 30
0.0
 40
0.0091133647106656
 50
139.8169483647002949
 51
237.3486735603094928
  0
ARC
  5
1D69
  8
0
 10
493.9770457836559103
 20
-8.2438632416829734
 30
0.0
 40
0.0131430672641373
 50
38.3876683730444768
 51
135.9792358741057967
  0
ARC
  5
1D6A
  8
0
 10
493.9803687165060069
 20
-8.2406131996693404
 30
0.0
 40
0.0085339901043492
 50
320.9782236590233993
 51
35.1364338766680078
  0
ARC
  5
1D6B
  8
0
 10
493.9769600402020728
 20
-8.2368603777241987
 30
0.0
 40
0.0135668858997472
 50
237.3486735603094928
 51
317.7269891626575031
  0
ARC
  5
1D6C
  8
0
 10
493.9745572530670756
 20
-8.2406101063762804
 30
0.0
 40
0.0091133647106656
 50
139.8169483647002949
 51
237.3486735603094928
  0
ARC
  5
1D6D
  8
0
 10
494.0330222485787885
 20
-8.2332708393971501
 30
0.0
 40
0.0131430672641373
 50
38.3876683730444768
 51
135.9792358741057967
  0
ARC
  5
1D6E
  8
0
 10
494.0363451814288851
 20
-8.2300207973835171
 30
0.0
 40
0.0085339901043492
 50
320.9782236590233993
 51
35.1364338766680078
  0
ARC
  5
1D6F
  8
0
 10
494.0329365051248942
 20
-8.2262679754383754
 30
0.0
 40
0.0135668858997472
 50
237.3486735603094928
 51
317.7269891626575031
  0
ARC
  5
1D70
  8
0
 10
494.0305337179900107
 20
-8.2300177040904572
 30
0.0
 40
0.0091133647106656
 50
139.8169483647002949
 51
237.3486735603094928
  0
ARC
  5
1D71
  8
0
 10
493.9427256047044921
 20
-8.2792626710548092
 30
0.0
 40
0.0131430672641373
 50
38.3876683730444768
 51
135.9792358741057967
  0
ARC
  5
1D72
  8
0
 10
493.9460485375545886
 20
-8.2760126290411762
 30
0.0
 40
0.0085339901043492
 50
320.9782236590233993
 51
35.1364338766680078
  0
ARC
  5
1D73
  8
0
 10
493.9426398612505977
 20
-8.2722598070960345
 30
0.0
 40
0.0135668858997472
 50
237.3486735603094928
 51
317.7269891626575031
  0
ARC
  5
1D74
  8
0
 10
493.9402370741156005
 20
-8.2760095357480878
 30
0.0
 40
0.0091133647106656
 50
139.8169483647002949
 51
237.3486735603094928
  0
ARC
  5
1D75
  8
0
 10
494.0167158473042832
 20
-8.2737014023095252
 30
0.0
 40
0.0131430672641373
 50
38.3876683730444768
 51
135.9792358741057967
  0
ARC
  5
1D76
  8
0
 10
494.0200387801548914
 20
-8.270451360295894
 30
0.0
 40
0.0085339901043492
 50
320.9782236590233993
 51
35.1364338766680078
  0
ARC
  5
1D77
  8
0
 10
494.0166301038509005
 20
-8.2666985383507523
 30
0.0
 40
0.0135668858997472
 50
237.3486735603094928
 51
317.7269891626575031
  0
ARC
  5
1D78
  8
0
 10
494.0142273167159033
 20
-8.2704482670028341
 30
0.0
 40
0.0091133647106656
 50
139.8169483647002949
 51
237.3486735603094928
  0
ARC
  5
1D79
  8
0
 10
493.9843938788333162
 20
-8.3069514523253787
 30
0.0
 40
0.0131430672641373
 50
38.3876683730444768
 51
135.9792358741057967
  0
ARC
  5
1D7A
  8
0
 10
493.9877168116838106
 20
-8.3037014103117457
 30
0.0
 40
0.0085339901043492
 50
320.9782236590233993
 51
35.1364338766680078
  0
ARC
  5
1D7B
  8
0
 10
493.9843081353798766
 20
-8.2999485883666324
 30
0.0
 40
0.0135668858997472
 50
237.3486735603094928
 51
317.7269891626575031
  0
ARC
  5
1D7C
  8
0
 10
493.9819053482444815
 20
-8.3036983170186858
 30
0.0
 40
0.0091133647106656
 50
139.8169483647002949
 51
237.3486735603094928
  0
ARC
  5
1D7D
  8
0
 10
493.9391022288901922
 20
-8.3279462771868822
 30
0.0
 40
0.0131430672641373
 50
38.3876683730444768
 51
135.9792358741057967
  0
ARC
  5
1D7E
  8
0
 10
493.9424251617404025
 20
-8.3246962351732492
 30
0.0
 40
0.0085339901043492
 50
320.9782236590233993
 51
35.1364338766680078
  0
ARC
  5
1D7F
  8
0
 10
493.9390164854365253
 20
-8.3209434132281075
 30
0.0
 40
0.0135668858997472
 50
237.3486735603094928
 51
317.7269891626575031
  0
ARC
  5
1D80
  8
0
 10
493.9366136983014144
 20
-8.3246931418801609
 30
0.0
 40
0.0091133647106656
 50
139.8169483647002949
 51
237.3486735603094928
  0
ARC
  5
1D81
  8
0
 10
493.8883694391980725
 20
-8.3338671084241156
 30
0.0
 40
0.0131430672641373
 50
38.3876683730444768
 51
135.9792358741057967
  0
ARC
  5
1D82
  8
0
 10
493.8916923720486807
 20
-8.330617066410511
 30
0.0
 40
0.0085339901043492
 50
320.9782236590233993
 51
35.1364338766680078
  0
ARC
  5
1D83
  8
0
 10
493.8882836957446898
 20
-8.3268642444653693
 30
0.0
 40
0.0135668858997472
 50
237.3486735603094928
 51
317.7269891626575031
  0
ARC
  5
1D84
  8
0
 10
493.8858809086092947
 20
-8.3306139731174227
 30
0.0
 40
0.0091133647106656
 50
139.8169483647002949
 51
237.3486735603094928
  0
ARC
  5
1D85
  8
0
 10
493.8282719962310807
 20
-8.0610270973329676
 30
0.0
 40
0.0103165194602044
 50
125.5410711833932993
 51
235.4698331271663108
  0
ARC
  5
1D86
  8
0
 10
493.8317466301216996
 20
-8.0559771717251323
 30
0.0
 40
0.0164463505605584
 50
235.4698331271663108
 51
303.4358825875456205
  0
ARC
  5
1D87
  8
0
 10
493.8351099246863782
 20
-8.0610709313499314
 30
0.0
 40
0.0103424061437357
 50
303.4358825875459047
 51
42.4410802376044174
  0
ARC
  5
1D88
  8
0
 10
493.8316735511060074
 20
-8.0650782696469179
 30
0.0
 40
0.015595700161746
 50
44.7868387131081889
 51
127.0583544161943053
  0
ARC
  5
1D89
  8
0
 10
493.8258199160454183
 20
-8.1148359423830172
 30
0.0
 40
0.0131430672641373
 50
44.0207641258941607
 51
141.6123316269554948
  0
ARC
  5
1D8A
  8
0
 10
493.8224969831953217
 20
-8.1115859003694144
 30
0.0
 40
0.0085339901043492
 50
144.8635661233319922
 51
219.0217763409766007
  0
ARC
  5
1D8B
  8
0
 10
493.8259056594993126
 20
-8.1078330784242727
 30
0.0
 40
0.0135668858997472
 50
222.2730108373422979
 51
302.6513264396904219
  0
ARC
  5
1D8C
  8
0
 10
493.8283084466341961
 20
-8.1115828070763261
 30
0.0
 40
0.0091133647106656
 50
302.6513264396904219
 51
40.1830516352996909
  0
ARC
  5
1D8D
  8
0
 10
493.7722231499740815
 20
-8.0867066930576499
 30
0.0
 40
0.0103165194602044
 50
125.5410711833932993
 51
235.4698331271663108
  0
ARC
  5
1D8E
  8
0
 10
493.7756977838647003
 20
-8.0816567674498145
 30
0.0
 40
0.0164463505605584
 50
235.4698331271663108
 51
303.4358825875456205
  0
ARC
  5
1D8F
  8
0
 10
493.779061078429379
 20
-8.0867505270746136
 30
0.0
 40
0.0103424061437357
 50
303.4358825875459047
 51
42.4410802376044174
  0
ARC
  5
1D90
  8
0
 10
493.7756247048490081
 20
-8.0907578653716001
 30
0.0
 40
0.015595700161746
 50
44.7868387131081889
 51
127.0583544161943053
  0
ARC
  5
1D91
  8
0
 10
493.7295471215009002
 20
-8.1254856486924751
 30
0.0
 40
0.0103165194602044
 50
125.5410711833932993
 51
235.4698331271663108
  0
ARC
  5
1D92
  8
0
 10
493.7330217553915759
 20
-8.1204357230846682
 30
0.0
 40
0.0164463505605584
 50
235.4698331271663108
 51
303.4358825875456205
  0
ARC
  5
1D93
  8
0
 10
493.7363850499563114
 20
-8.1255294827094673
 30
0.0
 40
0.0103424061437357
 50
303.4358825875459047
 51
42.4410802376044174
  0
ARC
  5
1D94
  8
0
 10
493.7329486763758837
 20
-8.1295368210064254
 30
0.0
 40
0.015595700161746
 50
44.7868387131081889
 51
127.0583544161943053
  0
ARC
  5
1D95
  8
0
 10
493.7039307433523163
 20
-8.1739631968956843
 30
0.0
 40
0.0103165194602044
 50
125.5410711833932993
 51
235.4698331271663108
  0
ARC
  5
1D96
  8
0
 10
493.7074053772428783
 20
-8.1689132712878472
 30
0.0
 40
0.0164463505605584
 50
235.4698331271663108
 51
303.4358825875456205
  0
ARC
  5
1D97
  8
0
 10
493.7107686718076138
 20
-8.174007030912648
 30
0.0
 40
0.0103424061437357
 50
303.4358825875459047
 51
42.4410802376044174
  0
ARC
  5
1D98
  8
0
 10
493.7073322982276977
 20
-8.1780143692096345
 30
0.0
 40
0.015595700161746
 50
44.7868387131081889
 51
127.0583544161943053
  0
ARC
  5
1D99
  8
0
 10
493.6984851198266142
 20
-8.2272391034540107
 30
0.0
 40
0.0103165194602044
 50
125.5410711833932993
 51
235.4698331271663108
  0
ARC
  5
1D9A
  8
0
 10
493.7019597537176878
 20
-8.2221891778462037
 30
0.0
 40
0.0164463505605584
 50
235.4698331271663108
 51
303.4358825875456205
  0
ARC
  5
1D9B
  8
0
 10
493.7053230482819117
 20
-8.2272829374710028
 30
0.0
 40
0.0103424061437357
 50
303.4358825875459047
 51
42.4410802376044174
  0
ARC
  5
1D9C
  8
0
 10
493.7018866747019956
 20
-8.2312902757679893
 30
0.0
 40
0.015595700161746
 50
44.7868387131081889
 51
127.0583544161943053
  0
ARC
  5
1D9D
  8
0
 10
493.7139866576633835
 20
-8.2786382859161023
 30
0.0
 40
0.0103165194602044
 50
125.5410711833932993
 51
235.4698331271663108
  0
ARC
  5
1D9E
  8
0
 10
493.717461291554514
 20
-8.2735883603082652
 30
0.0
 40
0.0164463505605584
 50
235.4698331271663108
 51
303.4358825875456205
  0
ARC
  5
1D9F
  8
0
 10
493.7208245861186811
 20
-8.278682119933066
 30
0.0
 40
0.0103424061437357
 50
303.4358825875459047
 51
42.4410802376044174
  0
ARC
  5
1DA0
  8
0
 10
493.7173882125388218
 20
-8.2826894582300525
 30
0.0
 40
0.015595700161746
 50
44.7868387131081889
 51
127.0583544161943053
  0
ARC
  5
1DA1
  8
0
 10
493.7486221531333968
 20
-8.3230917649207043
 30
0.0
 40
0.0103165194602044
 50
125.5410711833932993
 51
235.4698331271663108
  0
ARC
  5
1DA2
  8
0
 10
493.7520967870240156
 20
-8.3180418393128974
 30
0.0
 40
0.0164463505605584
 50
235.4698331271663108
 51
303.4358825875456205
  0
ARC
  5
1DA3
  8
0
 10
493.7554600815886943
 20
-8.3231355989376965
 30
0.0
 40
0.0103424061437357
 50
303.4358825875459047
 51
42.4410802376044174
  0
ARC
  5
1DA4
  8
0
 10
493.7520237080087782
 20
-8.3271429372346546
 30
0.0
 40
0.015595700161746
 50
44.7868387131081889
 51
127.0583544161943053
  0
ARC
  5
1DA5
  8
0
 10
493.7989891073883086
 20
-8.3556420643149494
 30
0.0
 40
0.0103165194602044
 50
125.5410711833932993
 51
235.4698331271663108
  0
ARC
  5
1DA6
  8
0
 10
493.8024637412789275
 20
-8.350592138707114
 30
0.0
 40
0.0164463505605584
 50
235.4698331271663108
 51
303.4358825875456205
  0
ARC
  5
1DA7
  8
0
 10
493.8058270358436062
 20
-8.3556858983319131
 30
0.0
 40
0.0103424061437357
 50
303.4358825875459047
 51
42.4410802376044174
  0
ARC
  5
1DA8
  8
0
 10
493.80239066226369
 20
-8.3596932366288996
 30
0.0
 40
0.015595700161746
 50
44.7868387131081889
 51
127.0583544161943053
  0
ARC
  5
1DA9
  8
0
 10
493.8593088099131023
 20
-8.3730951665392723
 30
0.0
 40
0.0103165194602044
 50
125.5410711833932993
 51
235.4698331271663108
  0
ARC
  5
1DAA
  8
0
 10
493.8627834438041759
 20
-8.3680452409314352
 30
0.0
 40
0.0164463505605584
 50
235.4698331271663108
 51
303.4358825875456205
  0
ARC
  5
1DAB
  8
0
 10
493.8661467383683998
 20
-8.3731390005562361
 30
0.0
 40
0.0103424061437357
 50
303.4358825875459047
 51
42.4410802376044174
  0
ARC
  5
1DAC
  8
0
 10
493.8627103647884837
 20
-8.3771463388532226
 30
0.0
 40
0.015595700161746
 50
44.7868387131081889
 51
127.0583544161943053
  0
ARC
  5
1DAD
  8
0
 10
493.8744366123912073
 20
-8.1012505387814944
 30
0.0
 40
0.0131430672641373
 50
44.0207641258941607
 51
141.6123316269554948
  0
ARC
  5
1DAE
  8
0
 10
493.8711136795411107
 20
-8.0980004967678614
 30
0.0
 40
0.0085339901043492
 50
144.8635661233319922
 51
219.0217763409766007
  0
ARC
  5
1DAF
  8
0
 10
493.8745223558449879
 20
-8.0942476748227197
 30
0.0
 40
0.0135668858997472
 50
222.2730108373422979
 51
302.6513264396904219
  0
ARC
  5
1DB0
  8
0
 10
493.8769251429800988
 20
-8.0979974034748015
 30
0.0
 40
0.0091133647106656
 50
302.6513264396904219
 51
40.1830516352996909
  0
ARC
  5
1DB1
  8
0
 10
493.8462860402323145
 20
-8.1548586310321127
 30
0.0
 40
0.0131430672641373
 50
44.0207641258941607
 51
141.6123316269554948
  0
ARC
  5
1DB2
  8
0
 10
493.84296310738182
 20
-8.1516085890184797
 30
0.0
 40
0.0085339901043492
 50
144.8635661233319922
 51
219.0217763409766007
  0
ARC
  5
1DB3
  8
0
 10
493.8463717836858109
 20
-8.147855767073338
 30
0.0
 40
0.0135668858997472
 50
222.2730108373422979
 51
302.6513264396904219
  0
ARC
  5
1DB4
  8
0
 10
493.8487745708210923
 20
-8.1516054957253914
 30
0.0
 40
0.0091133647106656
 50
302.6513264396904219
 51
40.1830516352996909
  0
ARC
  5
1DB5
  8
0
 10
493.7866761885704818
 20
-8.1425142302781772
 30
0.0
 40
0.0131430672641373
 50
44.0207641258941607
 51
141.6123316269554948
  0
ARC
  5
1DB6
  8
0
 10
493.7833532557203853
 20
-8.139264188264546
 30
0.0
 40
0.0085339901043492
 50
144.8635661233319922
 51
219.0217763409766007
  0
ARC
  5
1DB7
  8
0
 10
493.7867619320243193
 20
-8.1355113663194043
 30
0.0
 40
0.0135668858997472
 50
222.2730108373422979
 51
302.6513264396904219
  0
ARC
  5
1DB8
  8
0
 10
493.7891647191593734
 20
-8.1392610949714861
 30
0.0
 40
0.0091133647106656
 50
302.6513264396904219
 51
40.1830516352996909
  0
ARC
  5
1DB9
  8
0
 10
493.7621480121413811
 20
-8.1801774544374766
 30
0.0
 40
0.0131430672641373
 50
44.0207641258941607
 51
141.6123316269554948
  0
ARC
  5
1DBA
  8
0
 10
493.7588250792908866
 20
-8.1769274124238436
 30
0.0
 40
0.0085339901043492
 50
144.8635661233319922
 51
219.0217763409766007
  0
ARC
  5
1DBB
  8
0
 10
493.7622337555948207
 20
-8.1731745904787019
 30
0.0
 40
0.0135668858997472
 50
222.2730108373422979
 51
302.6513264396904219
  0
ARC
  5
1DBC
  8
0
 10
493.7646365427302726
 20
-8.1769243191307837
 30
0.0
 40
0.0091133647106656
 50
302.6513264396904219
 51
40.1830516352996909
  0
ARC
  5
1DBD
  8
0
 10
493.8118206289743739
 20
-8.1904757876719074
 30
0.0
 40
0.0131430672641373
 50
44.0207641258941607
 51
141.6123316269554948
  0
ARC
  5
1DBE
  8
0
 10
493.808497696124391
 20
-8.1872257456583029
 30
0.0
 40
0.0085339901043492
 50
144.8635661233319922
 51
219.0217763409766007
  0
ARC
  5
1DBF
  8
0
 10
493.8119063724278135
 20
-8.1834729237131612
 30
0.0
 40
0.0135668858997472
 50
222.2730108373422979
 51
302.6513264396904219
  0
ARC
  5
1DC0
  8
0
 10
493.8143091595633223
 20
-8.1872226523652145
 30
0.0
 40
0.0091133647106656
 50
302.6513264396904219
 51
40.1830516352996909
  0
ARC
  5
1DC1
  8
0
 10
493.8765266917711187
 20
-8.1895661680778318
 30
0.0
 40
0.0131430672641373
 50
44.0207641258941607
 51
141.6123316269554948
  0
ARC
  5
1DC2
  8
0
 10
493.8732037589210222
 20
-8.1863161260641988
 30
0.0
 40
0.0085339901043492
 50
144.8635661233319922
 51
219.0217763409766007
  0
ARC
  5
1DC3
  8
0
 10
493.8766124352248994
 20
-8.1825633041190571
 30
0.0
 40
0.0135668858997472
 50
222.2730108373422979
 51
302.6513264396904219
  0
ARC
  5
1DC4
  8
0
 10
493.8790152223598966
 20
-8.1863130327711389
 30
0.0
 40
0.0091133647106656
 50
302.6513264396904219
 51
40.1830516352996909
  0
ARC
  5
1DC5
  8
0
 10
493.8615377882564985
 20
-8.2319581251847751
 30
0.0
 40
0.0131430672641373
 50
44.0207641258941607
 51
141.6123316269554948
  0
ARC
  5
1DC6
  8
0
 10
493.858214855406402
 20
-8.2287080831711421
 30
0.0
 40
0.0085339901043492
 50
144.8635661233319922
 51
219.0217763409766007
  0
ARC
  5
1DC7
  8
0
 10
493.8616235317103929
 20
-8.2249552612260004
 30
0.0
 40
0.0135668858997472
 50
222.2730108373422979
 51
302.6513264396904219
  0
ARC
  5
1DC8
  8
0
 10
493.8640263188452764
 20
-8.2287049898780822
 30
0.0
 40
0.0091133647106656
 50
302.6513264396904219
 51
40.1830516352996909
  0
ARC
  5
1DC9
  8
0
 10
493.8085331056959717
 20
-8.2360874880071364
 30
0.0
 40
0.0131430672641373
 50
44.0207641258941607
 51
141.6123316269554948
  0
ARC
  5
1DCA
  8
0
 10
493.8052101728459888
 20
-8.2328374459935034
 30
0.0
 40
0.0085339901043492
 50
144.8635661233319922
 51
219.0217763409766007
  0
ARC
  5
1DCB
  8
0
 10
493.8086188491499229
 20
-8.2290846240483617
 30
0.0
 40
0.0135668858997472
 50
222.2730108373422979
 51
302.6513264396904219
  0
ARC
  5
1DCC
  8
0
 10
493.8110216362849201
 20
-8.2328343527004435
 30
0.0
 40
0.0091133647106656
 50
302.6513264396904219
 51
40.1830516352996909
  0
ARC
  5
1DCD
  8
0
 10
493.7547640819619232
 20
-8.2227961642167031
 30
0.0
 40
0.0131430672641373
 50
44.0207641258941607
 51
141.6123316269554948
  0
ARC
  5
1DCE
  8
0
 10
493.7514411491118267
 20
-8.2195461222030701
 30
0.0
 40
0.0085339901043492
 50
144.8635661233319922
 51
219.0217763409766007
  0
ARC
  5
1DCF
  8
0
 10
493.7548498254157039
 20
-8.2157933002579284
 30
0.0
 40
0.0135668858997472
 50
222.2730108373422979
 51
302.6513264396904219
  0
ARC
  5
1DD0
  8
0
 10
493.7572526125507011
 20
-8.2195430289100102
 30
0.0
 40
0.0091133647106656
 50
302.6513264396904219
 51
40.1830516352996909
  0
ARC
  5
1DD1
  8
0
 10
493.8385289239714098
 20
-8.2743866416316223
 30
0.0
 40
0.0131430672641373
 50
44.0207641258941607
 51
141.6123316269554948
  0
ARC
  5
1DD2
  8
0
 10
493.8352059911211995
 20
-8.2711365996179893
 30
0.0
 40
0.0085339901043492
 50
144.8635661233319922
 51
219.0217763409766007
  0
ARC
  5
1DD3
  8
0
 10
493.8386146674251904
 20
-8.2673837776728476
 30
0.0
 40
0.0135668858997472
 50
222.2730108373422979
 51
302.6513264396904219
  0
ARC
  5
1DD4
  8
0
 10
493.8410174545601876
 20
-8.2711335063248992
 30
0.0
 40
0.0091133647106656
 50
302.6513264396904219
 51
40.1830516352996909
  0
ARC
  5
1DD5
  8
0
 10
493.7665531000060923
 20
-8.2644925682932211
 30
0.0
 40
0.0131430672641373
 50
44.0207641258941607
 51
141.6123316269554948
  0
ARC
  5
1DD6
  8
0
 10
493.7632301671554842
 20
-8.2612425262795881
 30
0.0
 40
0.0085339901043492
 50
144.8635661233319922
 51
219.0217763409766007
  0
ARC
  5
1DD7
  8
0
 10
493.7666388434594751
 20
-8.2574897043344464
 30
0.0
 40
0.0135668858997472
 50
222.2730108373422979
 51
302.6513264396904219
  0
ARC
  5
1DD8
  8
0
 10
493.7690416305944723
 20
-8.2612394329865282
 30
0.0
 40
0.0091133647106656
 50
302.6513264396904219
 51
40.1830516352996909
  0
ARC
  5
1DD9
  8
0
 10
493.7959254849504873
 20
-8.2999351402190555
 30
0.0
 40
0.0131430672641373
 50
44.0207641258941607
 51
141.6123316269554948
  0
ARC
  5
1DDA
  8
0
 10
493.7926025520999929
 20
-8.2966850982054225
 30
0.0
 40
0.0085339901043492
 50
144.8635661233319922
 51
219.0217763409766007
  0
ARC
  5
1DDB
  8
0
 10
493.7960112284039269
 20
-8.2929322762603093
 30
0.0
 40
0.0135668858997472
 50
222.2730108373422979
 51
302.6513264396904219
  0
ARC
  5
1DDC
  8
0
 10
493.7984140155393789
 20
-8.2966820049123626
 30
0.0
 40
0.0091133647106656
 50
302.6513264396904219
 51
40.1830516352996909
  0
ARC
  5
1DDD
  8
0
 10
493.8383543437096819
 20
-8.3240553228114322
 30
0.0
 40
0.0131430672641373
 50
44.0207641258941607
 51
141.6123316269554948
  0
ARC
  5
1DDE
  8
0
 10
493.8350314108595853
 20
-8.3208052807977992
 30
0.0
 40
0.0085339901043492
 50
144.8635661233319922
 51
219.0217763409766007
  0
ARC
  5
1DDF
  8
0
 10
493.8384400871635194
 20
-8.3170524588526575
 30
0.0
 40
0.0135668858997472
 50
222.2730108373422979
 51
302.6513264396904219
  0
ARC
  5
1DE0
  8
0
 10
493.8408428742985166
 20
-8.3208021875047091
 30
0.0
 40
0.0091133647106656
 50
302.6513264396904219
 51
40.1830516352996909
  0
ARC
  5
1E8B
  8
0
 10
493.8840167682656102
 20
-7.9980870677349483
 30
0.0
 40
0.4313909548914257
 50
243.2857604332590995
 51
253.1455878075175008
  0
ARC
  5
1E8C
  8
0
 10
493.9052968666961192
 20
-7.9980870677349483
 30
0.0
 40
0.4313909548914257
 50
287.1810393699021233
 51
296.7982401356624109
  0
ENDSEC
  0
EOF
