  0
SECTION
  2
HEADER
  9
$ACADVER
  1
AC1009
  9
$INSBASE
 10
3710.4911913007149451
 20
134.0183290325738881
 30
0.0
  9
$EXTMIN
 10
3707.2736884439659661
 20
130.7506124997989048
 30
0.0
  9
$EXTMAX
 10
3710.5021903384881625
 20
137.2860455653488998
 30
0.0
  9
$LIMMIN
 10
0.0
 20
0.0
  9
$LIMMAX
 10
11.6929133858000007
 20
8.2677165353999982
  9
$ORTHOMODE
 70
     1
  9
$REGENMODE
 70
     1
  9
$FILLMODE
 70
     1
  9
$QTEXTMODE
 70
     0
  9
$MIRRTEXT
 70
     0
  9
$DRAGMODE
 70
     2
  9
$LTSCALE
 40
0.6431102362
  9
$OSMODE
 70
  4095
  9
$ATTMODE
 70
     1
  9
$TEXTSIZE
 40
0.2
  9
$TRACEWID
 40
0.05
  9
$TEXTSTYLE
  7
STANDARD
  9
$CLAYER
  8
0
  9
$CELTYPE
  6
BYLAYER
  9
$CECOLOR
 62
   256
  9
$DIMSCALE
 40
1.0
  9
$DIMASZ
 40
0.1875
  9
$DIMEXO
 40
0.0625
  9
$DIMDLI
 40
0.4443307087
  9
$DIMRND
 40
0.0
  9
$DIMDLE
 40
0.0
  9
$DIMEXE
 40
0.125
  9
$DIMTP
 40
0.01
  9
$DIMTM
 40
0.01
  9
$DIMTXT
 40
2.0
  9
$DIMCEN
 40
0.1052362205
  9
$DIMTSZ
 40
0.0
  9
$DIMTOL
 70
     1
  9
$DIMLIM
 70
     0
  9
$DIMTIH
 70
     1
  9
$DIMTOH
 70
     1
  9
$DIMSE1
 70
     0
  9
$DIMSE2
 70
     0
  9
$DIMTAD
 70
     0
  9
$DIMZIN
 70
     0
  9
$DIMBLK
  1

  9
$DIMASO
 70
     1
  9
$DIMSHO
 70
     1
  9
$DIMPOST
  1
\X
  9
$DIMAPOST
  1

  9
$DIMALT
 70
     1
  9
$DIMALTD
 70
     2
  9
$DIMALTF
 40
25.3999999999999986
  9
$DIMLFAC
 40
1.0
  9
$DIMTOFL
 70
     0
  9
$DIMTVP
 40
0.0
  9
$DIMTIX
 70
     0
  9
$DIMSOXD
 70
     0
  9
$DIMSAH
 70
     0
  9
$DIMBLK1
  1

  9
$DIMBLK2
  1

  9
$DIMSTYLE
  2
STANDARD
  9
$DIMCLRD
 70
     0
  9
$DIMCLRE
 70
     0
  9
$DIMCLRT
 70
     0
  9
$DIMTFAC
 40
1.0
  9
$DIMGAP
 40
0.09
  9
$LUNITS
 70
     2
  9
$LUPREC
 70
     4
  9
$SKETCHINC
 40
0.1
  9
$FILLETRAD
 40
0.0
  9
$AUNITS
 70
     0
  9
$AUPREC
 70
     0
  9
$MENU
  1
.
  9
$ELEVATION
 40
0.0
  9
$PELEVATION
 40
0.0
  9
$THICKNESS
 40
0.0
  9
$LIMCHECK
 70
     0
  9
$BLIPMODE
 70
     0
  9
$CHAMFERA
 40
0.0
  9
$CHAMFERB
 40
0.0
  9
$SKPOLY
 70
     0
  9
$TDCREATE
 40
2458060.468368056230247
  9
$TDUPDATE
 40
2459402.7640393520705402
  9
$TDINDWG
 40
0.3272755787
  9
$TDUSRTIMER
 40
0.3272755787
  9
$USRTIMER
 70
     1
  9
$ANGBASE
 50
0.0
  9
$ANGDIR
 70
     0
  9
$PDMODE
 70
     0
  9
$PDSIZE
 40
0.3125
  9
$PLINEWID
 40
0.0
  9
$COORDS
 70
     1
  9
$SPLFRAME
 70
     0
  9
$SPLINETYPE
 70
     6
  9
$SPLINESEGS
 70
     8
  9
$ATTDIA
 70
     1
  9
$ATTREQ
 70
     1
  9
$HANDLING
 70
     1
  9
$HANDSEED
  5
127F9
  9
$SURFTAB1
 70
     6
  9
$SURFTAB2
 70
     6
  9
$SURFTYPE
 70
     6
  9
$SURFU
 70
     6
  9
$SURFV
 70
     6
  9
$UCSNAME
  2

  9
$UCSORG
 10
0.0
 20
0.0
 30
0.0
  9
$UCSXDIR
 10
1.0
 20
0.0
 30
0.0
  9
$UCSYDIR
 10
0.0
 20
1.0
 30
0.0
  9
$PUCSNAME
  2

  9
$PUCSORG
 10
0.0
 20
0.0
 30
0.0
  9
$PUCSXDIR
 10
1.0
 20
0.0
 30
0.0
  9
$PUCSYDIR
 10
0.0
 20
1.0
 30
0.0
  9
$USERI1
 70
     0
  9
$USERI2
 70
     0
  9
$USERI3
 70
     0
  9
$USERI4
 70
     0
  9
$USERI5
 70
     0
  9
$USERR1
 40
0.0
  9
$USERR2
 40
0.0
  9
$USERR3
 40
0.0
  9
$USERR4
 40
0.0
  9
$USERR5
 40
0.0
  9
$WORLDVIEW
 70
     1
  9
$SHADEDGE
 70
     3
  9
$SHADEDIF
 70
    70
  9
$TILEMODE
 70
     1
  9
$MAXACTVP
 70
    64
  9
$PLIMCHECK
 70
     0
  9
$PEXTMIN
 10
1.0000000000000000E+20
 20
1.0000000000000000E+20
 30
1.0000000000000000E+20
  9
$PEXTMAX
 10
-1.0000000000000000E+20
 20
-1.0000000000000000E+20
 30
-1.0000000000000000E+20
  9
$PLIMMIN
 10
0.0
 20
0.0
  9
$PLIMMAX
 10
12.0
 20
9.0
  9
$UNITMODE
 70
     0
  9
$VISRETAIN
 70
     1
  9
$PLINEGEN
 70
     0
  9
$PSLTSCALE
 70
     1
  0
ENDSEC
  0
SECTION
  2
TABLES
  0
TABLE
  2
VPORT
 70
     1
  0
VPORT
  2
*ACTIVE
 70
     0
 10
0.0
 20
0.0
 11
1.0
 21
1.0
 12
-94.6561279915854357
 22
8.0230668358240393
 13
0.0
 23
0.0
 14
1.0
 24
1.0
 15
0.0
 25
0.0
 16
0.0
 26
0.0
 36
17.1152628219792007
 17
3803.5440673828129547
 27
125.9952621967499056
 37
0.0
 40
6.5891489537599952
 41
2.6159122085047999
 42
50.0
 43
0.0
 44
0.0
 50
0.0
 51
0.0
 71
     0
 72
   100
 73
     1
 74
     1
 75
     0
 76
     0
 77
     0
 78
     0
  0
ENDTAB
  0
TABLE
  2
LTYPE
 70
     2
  0
LTYPE
  2
CONTINUOUS
 70
     0
  3
Solid line
 72
    65
 73
     0
 40
0.0
  0
LTYPE
  2
PHANTOM2
 70
     0
  3
___ _ _ ___ _ _ ___ _ _ ___ _ _
 72
    65
 73
     6
 40
1.25
 49
0.625
 49
-0.125
 49
0.125
 49
-0.125
 49
0.125
 49
-0.125
  0
ENDTAB
  0
TABLE
  2
LAYER
 70
     2
  0
LAYER
  2
0
 70
     0
 62
   255
  6
CONTINUOUS
  0
LAYER
  2
DEFPOINTS
 70
     0
 62
     7
  6
CONTINUOUS
  0
ENDTAB
  0
TABLE
  2
STYLE
 70
     1
  0
STYLE
  2
STANDARD
 70
     0
 40
0.0
 41
0.8
 50
0.0
 71
     0
 42
0.2
  3
txt
  4

  0
ENDTAB
  0
TABLE
  2
VIEW
 70
     0
  0
ENDTAB
  0
TABLE
  2
UCS
 70
     0
  0
ENDTAB
  0
TABLE
  2
APPID
 70
     9
  0
APPID
  2
ACAD
 70
     0
  0
APPID
  2
ACAD_MLEADERVER
 70
     0
  0
APPID
  2
ACAD_EXEMPT_FROM_CAD_STANDARDS
 70
     0
  0
APPID
  2
ACAD_NAV_VCDISPLAY
 70
     0
  0
APPID
  2
ACAECLAYERSTANDARD
 70
     0
  0
APPID
  2
ACCMTRANSPARENCY
 70
     0
  0
APPID
  2
ACAD_DSTYLE_DIMJAG
 70
     0
  0
APPID
  2
ACAD_DSTYLE_DIMTALN
 70
     0
  0
APPID
  2
ACDBATTR
 70
     0
  0
ENDTAB
  0
TABLE
  2
DIMSTYLE
 70
     1
  0
DIMSTYLE
  2
STANDARD
 70
     0
  3

  4

  5

  6

  7

 40
1.0
 41
0.1875
 42
0.0625
 43
0.38
 44
0.125
 45
0.0
 46
0.0
 47
0.01
 48
0.01
140
0.15625
141
0.09
142
0.0
143
25.3999999999999986
144
1.0
145
0.0
146
1.0
147
0.09
 71
     1
 72
     0
 73
     1
 74
     1
 75
     0
 76
     0
 77
     0
 78
     4
170
     0
171
     2
172
     0
173
     0
174
     0
175
     0
176
     0
177
     0
178
     0
  0
ENDTAB
  0
ENDSEC
  0
SECTION
  2
BLOCKS
  0
BLOCK
  8
0
  2
$MODEL_SPACE
 70
     0
 10
0.0
 20
0.0
 30
0.0
  3
$MODEL_SPACE
  1

  0
ENDBLK
  5
21
  8
0
  0
BLOCK
 67
     1
  8
0
  2
$PAPER_SPACE
 70
     0
 10
0.0
 20
0.0
 30
0.0
  3
$PAPER_SPACE
  1

  0
ENDBLK
  5
1D
 67
     1
  8
0
  0
BLOCK
  8
0
  2
_FILLED
 70
     0
 10
0.0
 20
0.0
 30
0.0
  3
_FILLED
  1

  0
SOLID
  5
D1BB
  8
0
  6
BYBLOCK
 62
     0
 10
0.0
 20
0.0
 30
0.0
 11
-1.0
 21
0.1666666667
 31
0.0
 12
-1.0
 22
-0.1666666667
 32
0.0
 13
-1.0
 23
-0.1666666667
 33
0.0
  0
ENDBLK
  5
D1BC
  8
0
  6
BYBLOCK
 62
     0
  0
ENDSEC
  0
SECTION
  2
ENTITIES
  0
ATTDEF
  5
1163F
  8
DEFPOINTS
 10
3710.491523671818868
 20
134.0229148995890114
 30
0.0
 40
0.001
  1
K-12738A
  3

  2
MODELNUMBER
 70
     0
1001
ACDBATTR
1070
     0
1070
     1
  0
ATTDEF
  5
11640
  8
DEFPOINTS
 10
3710.491523671818868
 20
134.0212482329224031
 30
0.0
 40
0.001
  1
JULY
  3

  2
TRADENAME
 70
     0
1001
ACDBATTR
1070
     0
1070
     1
  0
ATTDEF
  5
11641
  8
DEFPOINTS
 10
3710.491523671818868
 20
134.0195815662557095
 30
0.0
 40
0.001
  1
VALVE TRIM
  3

  2
PRODUCT
 70
     0
1001
ACDBATTR
1070
     0
1070
     1
  0
LINE
  5
1266F
  8
0
 10
3710.4911913007149451
 20
130.7506124997989048
 30
0.0
 11
3710.4911913007149451
 21
137.2860455653488998
 31
0.0
  0
LINE
  5
12670
  8
0
 10
3707.2736884439659661
 20
135.2723369487997047
 30
0.0
 11
3707.2736884439659661
 21
131.8275796918900085
 31
0.0
  0
LINE
  5
12671
  8
0
 10
3710.4911913007149451
 20
137.2860455653488998
 30
0.0
 11
3710.1129960725811543
 21
137.2529577756066885
 31
0.0
  0
ARC
  5
12672
  8
0
 10
3710.1172803646099965
 20
137.228311143264591
 30
0.0
 40
0.0250162276130066
 50
99.8611161512470886
 51
164.9046559631412094
  0
ARC
  5
12673
  8
0
 10
3745.8757732254071016
 20
134.2262804536609906
 30
0.0
 40
35.9088999013911732
 50
175.1939694163831973
 51
177.1317069970029934
  0
ARC
  5
12674
  8
0
 10
3669.8489282417290269
 20
136.1420943541627082
 30
0.0
 40
40.163107749370262
 50
357.0633506790488241
 51
359.8303460560313738
  0
ARC
  5
12675
  8
0
 10
3754.2399836949389282
 20
134.2457389824942027
 30
0.0
 40
44.2809839334685833
 50
180.208671762381897
 51
184.4606329228500954
  0
ARC
  5
12676
  8
0
 10
3710.1169094582951402
 20
130.8082850218939939
 30
0.0
 40
0.0246446603005913
 50
195.1966284003987084
 51
260.8358987271827232
  0
ARC
  5
12677
  8
0
 10
3722.8284327053388552
 20
272.8550196385863842
 30
0.0
 40
142.6389499882210998
 50
264.8856192356441852
 51
265.0381281164579264
  0
LINE
  5
12678
  8
0
 10
3710.0931273520300238
 20
137.2348260206491091
 30
0.0
 11
3710.0931265744120537
 21
130.8018248581568059
 31
0.0
  0
LINE
  5
12679
  8
0
 10
3708.880998828824886
 20
136.0262057428888909
 30
0.0
 11
3710.0120121136478701
 21
136.0262057428888909
 31
0.0
  0
LINE
  5
1267A
  8
0
 10
3708.2733657036210388
 20
135.9980437039708079
 30
0.0
 11
3707.36354738412183
 21
135.9980437039708079
 31
0.0
  0
ARC
  5
1267B
  8
0
 10
3708.8818367005651453
 20
136.0135599373977868
 30
0.0
 40
0.0126735324820692
 50
93.790699598651841
 51
176.2354964364116938
  0
LINE
  5
1267C
  8
0
 10
3708.8691905133141518
 20
136.0143920272988964
 30
0.0
 11
3708.8691905133141518
 21
134.1076689949848912
 31
0.0
  0
ARC
  5
1267D
  8
0
 10
3708.2731449147349849
 20
135.958318857849207
 30
0.0
 40
0.0397254596842026
 50
25.4291711139596508
 51
89.6815559452516169
  0
ARC
  5
1267E
  8
0
 10
3637.4078669681571228
 20
102.2971907132498046
 30
0.0
 40
78.4932732824531172
 50
24.85111137193039
 51
25.4078088259264199
  0
ARC
  5
1267F
  8
0
 10
3707.8356260443028987
 20
134.9317160615551927
 30
0.0
 40
0.8719980236251089
 50
1.2360758780894801
 51
23.8934717831265004
  0
LINE
  5
12680
  8
0
 10
3708.7074211531589754
 20
134.9505267335555914
 30
0.0
 11
3708.7074211531589754
 21
134.1642973719447127
 31
0.0
  0
ARC
  5
12681
  8
0
 10
3707.3645299516560954
 20
135.9586742974991864
 30
0.0
 40
0.0393816658470421
 50
91.4296707368670951
 51
173.0593873913057905
  0
ARC
  5
12682
  8
0
 10
3714.7418165053150005
 20
135.0606183010920915
 30
0.0
 40
7.4711285309836546
 50
173.0593873913057905
 51
178.3761209455433914
  0
ARC
  5
12683
  8
0
 10
3708.656108132756799
 20
134.1766213647815107
 30
0.0
 40
0.0527722167634726
 50
283.0812673925157128
 51
346.4949044883446732
  0
LINE
  5
12684
  8
0
 10
3708.6680522194060359
 20
134.1252185860990096
 30
0.0
 11
3707.9483385842818279
 21
134.125216798707811
 31
0.0
  0
ARC
  5
12685
  8
0
 10
3707.9165489767910913
 20
133.3964612104655032
 30
0.0
 40
0.7294486181622474
 50
87.5022402672307749
 51
102.1809548595424957
  0
ARC
  5
12686
  8
0
 10
3707.8355622696708451
 20
133.8352057067488943
 30
0.0
 40
0.28381085728154
 50
104.8895119193022936
 51
143.2330051354034879
  0
ARC
  5
12687
  8
0
 10
3708.0490250311368072
 20
133.7326168438661114
 30
0.0
 40
0.5182258148025574
 50
148.2799402403219915
 51
174.2023174087416066
  0
ARC
  5
12688
  8
0
 10
3709.926779165833068
 20
133.5990039082142005
 30
0.0
 40
2.4005428882827489
 50
175.5570353912513042
 51
180.9869594110417097
  0
ARC
  5
12689
  8
0
 10
3510.3391676104029102
 20
144.7057994283044025
 30
0.0
 40
197.5023079054352024
 50
356.6609863742637003
 51
356.7641831327738942
  0
ARC
  5
1268A
  8
0
 10
3747.6267561651920914
 20
132.8253401734338865
 30
0.0
 40
40.1223356316990092
 50
179.4613771233252919
 51
180.8608936779222063
  0
ARC
  5
1268B
  8
0
 10
3712.519293172199923
 20
132.013800700204996
 30
0.0
 40
5.2489091465558984
 50
182.0331686278119889
 51
186.2909896438690112
  0
ARC
  5
1268C
  8
0
 10
3710.0654490644269572
 20
131.743284377695602
 30
0.0
 40
2.7801989598394412
 50
186.2909896438690112
 51
189.5022656393950058
  0
ARC
  5
1268D
  8
0
 10
3707.3624924810310404
 20
131.2908941673383936
 30
0.0
 40
0.0396458974337882
 50
189.558528858231
 51
269.8578513897567746
  0
ARC
  5
1268E
  8
0
 10
3707.3098696564597958
 20
131.415556042209289
 30
0.0
 40
0.1744170558754851
 50
291.5841463839448124
 51
344.5935987595411234
  0
LINE
  5
1268F
  8
0
 10
3708.8810015370140718
 20
134.0970691926989105
 30
0.0
 11
3709.9599379046189824
 21
134.0970691926989105
 31
0.0
  0
ARC
  5
12690
  8
0
 10
3708.8810547717230293
 20
134.109008736255106
 30
0.0
 40
0.0119396622340687
 50
186.4426883814329869
 51
269.7445376436709807
  0
ARC
  5
12691
  8
0
 10
3708.9113417977691824
 20
135.1322204940877043
 30
0.0
 40
0.8661417288093144
 50
256.3803811492333011
 51
266.5727619060770053
  0
ARC
  5
12692
  8
0
 10
3708.8548558851070993
 20
134.1890285097628066
 30
0.0
 40
0.0787401567318827
 50
79.5108234893602912
 51
86.5727619060770053
  0
ARC
  5
12693
  8
0
 10
3708.8548558850138761
 20
135.9342437346992938
 30
0.0
 40
0.0787401575003723
 50
273.4272381282992228
 51
280.4979221222715182
  0
ARC
  5
12694
  8
0
 10
3708.9113374674038823
 20
134.9911240659984912
 30
0.0
 40
0.8660692828841167
 50
93.4272381282991375
 51
122.2507303131920935
  0
LINE
  5
12695
  8
0
 10
3708.44918099011511
 20
135.7235770632989045
 30
0.0
 11
3708.44918099011511
 21
135.6787073448757894
 31
0.0
  0
ARC
  5
12696
  8
0
 10
3706.2058347781039629
 20
131.7374961532850079
 30
0.0
 40
1.3244170888454361
 50
343.8551412462746839
 51
4.2733450561644846
  0
ARC
  5
12697
  8
0
 10
3714.1754520977269749
 20
132.3330062608426942
 30
0.0
 40
6.6674182766655603
 50
180.949602935965089
 51
184.2733450561644872
  0
LINE
  5
12698
  8
0
 10
3709.2825766512141854
 20
132.0202975391989071
 30
0.0
 11
3710.0149574258848588
 21
132.0202975391989071
 31
0.0
  0
LINE
  5
12699
  8
0
 10
3709.2825766512141854
 20
132.9848644682988947
 30
0.0
 11
3709.9769547252049051
 21
132.9848644682988947
 31
0.0
  0
LINE
  5
1269A
  8
0
 10
3709.2825766512141854
 20
132.9848644682988947
 30
0.0
 11
3709.2628913007138181
 21
132.965179130399008
 31
0.0
  0
LINE
  5
1269B
  8
0
 10
3709.2628913007138181
 20
132.965179130399008
 30
0.0
 11
3709.2628913524149539
 21
132.0399828252988925
 31
0.0
  0
LINE
  5
1269C
  8
0
 10
3709.2628913524149539
 20
132.0399828252988925
 30
0.0
 11
3709.2825766512141854
 21
132.0202975391989071
 31
0.0
  0
LINE
  5
1269D
  8
0
 10
3709.262891304977984
 20
132.8888802162136926
 30
0.0
 11
3708.91210397791383
 21
132.8958959627989032
 31
0.0
  0
ARC
  5
1269E
  8
0
 10
3708.9124975999880007
 20
132.9155770663450937
 30
0.0
 40
0.0196850393733934
 50
180.0011001250090885
 51
268.8542371546313916
  0
LINE
  5
1269F
  8
0
 10
3708.8928125606139474
 20
132.0487578609728985
 30
0.0
 11
3708.8928125606139474
 21
132.9532626601989023
 31
0.0
  0
ARC
  5
126A0
  8
0
 10
3708.8731275212139735
 20
132.9532626601989023
 30
0.0
 40
0.0196850394000023
 50
0.0000000000048853
 51
87.9999999999963336
  0
ARC
  5
126A1
  8
0
 10
3708.5094144750278247
 20
123.3938465563151965
 30
0.0
 40
9.5860177533842226
 50
87.821450283253597
 51
88.1785498509950543
  0
LINE
  5
126A2
  8
0
 10
3708.8141055495198088
 20
132.9750207911008886
 30
0.0
 11
3708.7773984010141248
 21
132.9737412641989067
 31
0.0
  0
ARC
  5
126A3
  8
0
 10
3708.7787698324300436
 20
132.9343975531953106
 30
0.0
 40
0.0393676062222039
 50
91.9963909827955888
 51
180.123738265059302
  0
LINE
  5
126A4
  8
0
 10
3708.7394023180140721
 20
132.9343125333988951
 30
0.0
 11
3708.7394023180140721
 21
132.0708494752988997
 31
0.0
  0
ARC
  5
126A5
  8
0
 10
3708.7787724643499132
 20
132.0707669904934107
 30
0.0
 40
0.0393702327425977
 50
179.8799591884612994
 51
267.99990929322081
  0
LINE
  5
126A6
  8
0
 10
3708.7773984007508261
 20
132.0314207432080877
 30
0.0
 11
3708.814072403110913
 21
132.0301400587001979
 31
0.0
  0
LINE
  5
126A7
  8
0
 10
3708.814072403110913
 20
132.0301400587001979
 30
0.0
 11
3708.8738145192241973
 21
132.0322262994945106
 31
0.0
  0
ARC
  5
126A8
  8
0
 10
3708.8728553867322262
 20
132.0525105714934
 30
0.0
 40
0.0203069354079454
 50
272.707188241353208
 51
349.3505598018659271
  0
LINE
  5
126A9
  8
0
 10
3709.262891348150788
 20
132.1162817920476868
 30
0.0
 11
3708.912103985514932
 21
132.1092660447989999
 31
0.0
  0
ARC
  5
126AA
  8
0
 10
3708.9124976077400788
 20
132.0895849335018113
 30
0.0
 40
0.0196850471258699
 50
91.1457628375244582
 51
179.9988649002623049
  0
ARC
  5
126AC
  8
0
 10
3707.5916663104021609
 20
135.0584495442242883
 30
0.0
 40
0.2910775775249444
 50
168.1835745962023054
 51
191.975114641546611
  0
ARC
  5
126AD
  8
0
 10
3707.0025568668629603
 20
135.057633722707692
 30
0.0
 40
0.3101427542312658
 50
348.9245375891476897
 51
11.2341531273801092
  0
LINE
  5
126AE
  8
0
 10
3707.325430930190123
 20
135.9633843436346012
 30
0.0
 11
3707.325430930190123
 21
131.2766995723685
 31
0.0
  0
ARC
  5
126AF
  8
0
 10
3707.3620824705558334
 20
131.2859470008536107
 30
0.0
 40
0.0347000084751225
 50
270.514596600416894
 51
290.1431150981294991
  0
ENDSEC
  0
EOF
