  0
SECTION
  2
HEADER
  9
$ACADVER
  1
AC1009
  9
$INSBASE
 10
600.8196145590145534
 20
112.375144564173894
 30
0.0
  9
$EXTMIN
 10
598.0375133343859488
 20
109.516733220728895
 30
-0.0000000000112498
  9
$EXTMAX
 10
603.6096053229035761
 20
112.3891400815241042
 30
0.0000000000002956
  9
$LIMMIN
 10
0.0
 20
0.0
  9
$LIMMAX
 10
11.6929133858000007
 20
8.2677165353999982
  9
$ORTHOMODE
 70
     0
  9
$REGENMODE
 70
     1
  9
$FILLMODE
 70
     1
  9
$QTEXTMODE
 70
     0
  9
$MIRRTEXT
 70
     0
  9
$DRAGMODE
 70
     2
  9
$LTSCALE
 40
0.6431102362
  9
$OSMODE
 70
  4095
  9
$ATTMODE
 70
     1
  9
$TEXTSIZE
 40
0.2
  9
$TRACEWID
 40
0.05
  9
$TEXTSTYLE
  7
STANDARD
  9
$CLAYER
  8
0
  9
$CELTYPE
  6
BYLAYER
  9
$CECOLOR
 62
   256
  9
$DIMSCALE
 40
1.0
  9
$DIMASZ
 40
0.1875
  9
$DIMEXO
 40
0.0625
  9
$DIMDLI
 40
0.4443307087
  9
$DIMRND
 40
0.0
  9
$DIMDLE
 40
0.0
  9
$DIMEXE
 40
0.125
  9
$DIMTP
 40
0.01
  9
$DIMTM
 40
0.01
  9
$DIMTXT
 40
1.0
  9
$DIMCEN
 40
0.1052362205
  9
$DIMTSZ
 40
0.0
  9
$DIMTOL
 70
     1
  9
$DIMLIM
 70
     0
  9
$DIMTIH
 70
     0
  9
$DIMTOH
 70
     1
  9
$DIMSE1
 70
     0
  9
$DIMSE2
 70
     0
  9
$DIMTAD
 70
     0
  9
$DIMZIN
 70
     0
  9
$DIMBLK
  1

  9
$DIMASO
 70
     1
  9
$DIMSHO
 70
     1
  9
$DIMPOST
  1
\X
  9
$DIMAPOST
  1

  9
$DIMALT
 70
     1
  9
$DIMALTD
 70
     2
  9
$DIMALTF
 40
25.3999999999999986
  9
$DIMLFAC
 40
1.0
  9
$DIMTOFL
 70
     0
  9
$DIMTVP
 40
0.0
  9
$DIMTIX
 70
     0
  9
$DIMSOXD
 70
     0
  9
$DIMSAH
 70
     0
  9
$DIMBLK1
  1

  9
$DIMBLK2
  1

  9
$DIMSTYLE
  2
STANDARD
  9
$DIMCLRD
 70
     0
  9
$DIMCLRE
 70
     0
  9
$DIMCLRT
 70
     0
  9
$DIMTFAC
 40
1.0
  9
$DIMGAP
 40
0.09
  9
$LUNITS
 70
     2
  9
$LUPREC
 70
     4
  9
$SKETCHINC
 40
0.1
  9
$FILLETRAD
 40
0.0
  9
$AUNITS
 70
     0
  9
$AUPREC
 70
     0
  9
$MENU
  1
.
  9
$ELEVATION
 40
0.0
  9
$PELEVATION
 40
0.0
  9
$THICKNESS
 40
0.0
  9
$LIMCHECK
 70
     0
  9
$BLIPMODE
 70
     0
  9
$CHAMFERA
 40
0.0
  9
$CHAMFERB
 40
0.0
  9
$SKPOLY
 70
     0
  9
$TDCREATE
 40
2458172.5207638889551163
  9
$TDUPDATE
 40
2459093.528773149009794
  9
$TDINDWG
 40
0.3568294213
  9
$TDUSRTIMER
 40
0.3568294213
  9
$USRTIMER
 70
     1
  9
$ANGBASE
 50
0.0
  9
$ANGDIR
 70
     0
  9
$PDMODE
 70
     0
  9
$PDSIZE
 40
0.3125
  9
$PLINEWID
 40
0.0
  9
$COORDS
 70
     1
  9
$SPLFRAME
 70
     0
  9
$SPLINETYPE
 70
     6
  9
$SPLINESEGS
 70
     8
  9
$ATTDIA
 70
     1
  9
$ATTREQ
 70
     1
  9
$HANDLING
 70
     1
  9
$HANDSEED
  5
9BFE
  9
$SURFTAB1
 70
     6
  9
$SURFTAB2
 70
     6
  9
$SURFTYPE
 70
     6
  9
$SURFU
 70
     6
  9
$SURFV
 70
     6
  9
$UCSNAME
  2

  9
$UCSORG
 10
0.0
 20
0.0
 30
0.0
  9
$UCSXDIR
 10
1.0
 20
0.0
 30
0.0
  9
$UCSYDIR
 10
0.0
 20
1.0
 30
0.0
  9
$PUCSNAME
  2

  9
$PUCSORG
 10
0.0
 20
0.0
 30
0.0
  9
$PUCSXDIR
 10
1.0
 20
0.0
 30
0.0
  9
$PUCSYDIR
 10
0.0
 20
1.0
 30
0.0
  9
$USERI1
 70
     0
  9
$USERI2
 70
     0
  9
$USERI3
 70
     0
  9
$USERI4
 70
     0
  9
$USERI5
 70
     0
  9
$USERR1
 40
0.0
  9
$USERR2
 40
0.0
  9
$USERR3
 40
0.0
  9
$USERR4
 40
0.0
  9
$USERR5
 40
0.0
  9
$WORLDVIEW
 70
     1
  9
$SHADEDGE
 70
     3
  9
$SHADEDIF
 70
    70
  9
$TILEMODE
 70
     1
  9
$MAXACTVP
 70
    64
  9
$PLIMCHECK
 70
     0
  9
$PEXTMIN
 10
1.0000000000000000E+20
 20
1.0000000000000000E+20
 30
1.0000000000000000E+20
  9
$PEXTMAX
 10
-1.0000000000000000E+20
 20
-1.0000000000000000E+20
 30
-1.0000000000000000E+20
  9
$PLIMMIN
 10
0.0
 20
0.0
  9
$PLIMMAX
 10
12.0
 20
9.0
  9
$UNITMODE
 70
     0
  9
$VISRETAIN
 70
     1
  9
$PLINEGEN
 70
     0
  9
$PSLTSCALE
 70
     1
  0
ENDSEC
  0
SECTION
  2
TABLES
  0
TABLE
  2
VPORT
 70
     1
  0
VPORT
  2
*ACTIVE
 70
     0
 10
0.0
 20
0.0
 11
1.0
 21
1.0
 12
134.081357620814714
 22
21.8197895311967116
 13
0.0
 23
0.0
 14
1.0
 24
1.0
 15
0.0
 25
0.0
 16
0.0
 26
0.0
 36
24.1179433675886514
 17
466.74220170783002
 27
89.133147119929788
 37
0.0
 40
2.9063329260801751
 41
2.6528599605522678
 42
50.0
 43
0.0
 44
0.0
 50
0.0
 51
0.0
 71
     0
 72
   100
 73
     1
 74
     1
 75
     0
 76
     0
 77
     0
 78
     0
  0
ENDTAB
  0
TABLE
  2
LTYPE
 70
     2
  0
LTYPE
  2
CONTINUOUS
 70
     0
  3
Solid line
 72
    65
 73
     0
 40
0.0
  0
LTYPE
  2
PHANTOM2
 70
     0
  3
___ _ _ ___ _ _ ___ _ _ ___ _ _
 72
    65
 73
     6
 40
1.25
 49
0.625
 49
-0.125
 49
0.125
 49
-0.125
 49
0.125
 49
-0.125
  0
ENDTAB
  0
TABLE
  2
LAYER
 70
     2
  0
LAYER
  2
0
 70
     0
 62
   255
  6
CONTINUOUS
  0
LAYER
  2
DEFPOINTS
 70
     0
 62
     7
  6
CONTINUOUS
  0
ENDTAB
  0
TABLE
  2
STYLE
 70
     1
  0
STYLE
  2
STANDARD
 70
     0
 40
0.0
 41
0.8
 50
0.0
 71
     0
 42
0.2
  3
txt
  4

  0
ENDTAB
  0
TABLE
  2
VIEW
 70
     0
  0
ENDTAB
  0
TABLE
  2
UCS
 70
     0
  0
ENDTAB
  0
TABLE
  2
APPID
 70
    11
  0
APPID
  2
ACAD
 70
     0
  0
APPID
  2
ACAD_MLEADERVER
 70
     0
  0
APPID
  2
ACAD_EXEMPT_FROM_CAD_STANDARDS
 70
     0
  0
APPID
  2
ACAD_DSTYLE_DIMJAG
 70
     0
  0
APPID
  2
ACAD_DSTYLE_DIMTALN
 70
     0
  0
APPID
  2
ACAD_NAV_VCDISPLAY
 70
     0
  0
APPID
  2
ACAECLAYERSTANDARD
 70
     0
  0
APPID
  2
ACCMTRANSPARENCY
 70
     0
  0
APPID
  2
DCO15
 70
     0
  0
APPID
  2
ACDBATTR
 70
     0
  0
APPID
  2
ACADANNOTATIVE
 70
     0
  0
ENDTAB
  0
TABLE
  2
DIMSTYLE
 70
     1
  0
DIMSTYLE
  2
STANDARD
 70
     0
  3

  4

  5

  6

  7

 40
1.0
 41
0.1875
 42
0.0625
 43
0.38
 44
0.125
 45
0.0
 46
0.0
 47
0.01
 48
0.01
140
0.15625
141
0.09
142
0.0
143
25.3999999999999986
144
1.0
145
0.0
146
1.0
147
0.09
 71
     1
 72
     0
 73
     1
 74
     1
 75
     0
 76
     0
 77
     0
 78
     4
170
     0
171
     2
172
     0
173
     0
174
     0
175
     0
176
     0
177
     0
178
     0
  0
ENDTAB
  0
ENDSEC
  0
SECTION
  2
BLOCKS
  0
BLOCK
  8
0
  2
$MODEL_SPACE
 70
     0
 10
0.0
 20
0.0
 30
0.0
  3
$MODEL_SPACE
  1

  0
ENDBLK
  5
21
  8
0
  0
BLOCK
 67
     1
  8
0
  2
$PAPER_SPACE
 70
     0
 10
0.0
 20
0.0
 30
0.0
  3
$PAPER_SPACE
  1

  0
ENDBLK
  5
1D
 67
     1
  8
0
  0
ENDSEC
  0
SECTION
  2
ENTITIES
  0
ATTDEF
  5
829
  8
DEFPOINTS
 10
600.8166403460984384
 20
112.379761335155905
 30
0.0
 40
0.001
  1
K-12824IN-4FP
  3

  2
MODELNUMBER
 70
     0
1001
ACDBATTR
1070
     0
1070
     1
  0
ATTDEF
  5
82A
  8
DEFPOINTS
 10
600.8166403460984384
 20
112.3780946684891973
 30
0.0
 40
0.001
  1
CANDIDE
  3

  2
TRADENAME
 70
     0
1001
ACDBATTR
1070
     0
1070
     1
  0
ATTDEF
  5
82B
  8
DEFPOINTS
 10
600.8166403460984384
 20
112.3764280018226032
 30
0.0
 40
0.001
  1
VALVE TRIM
  3

  2
PRODUCT
 70
     0
1001
ACDBATTR
1070
     0
1070
     1
  0
LINE
  5
9ACE
  8
0
 10
599.8550476285645345
 20
110.7716756482738987
 30
0.0
 11
599.8550476285645345
 21
111.8883565046635056
 31
0.0
  0
LINE
  5
9ACF
  8
0
 10
599.874732667864464
 20
110.6786696605739024
 30
0.0
 11
599.874732667864464
 21
110.7598646246738952
 31
0.0
  0
LINE
  5
9AD0
  8
0
 10
599.9043488026645718
 20
110.640526985273894
 30
0.0
 11
601.7348675123645307
 21
110.640526985273894
 31
0.0
  0
LINE
  5
9AD1
  8
0
 10
599.8668586529645381
 20
110.7598646246738952
 30
0.0
 11
601.7723704624645507
 21
110.7598646246738952
 31
0.0
  0
ARC
  5
9AD2
  8
0
 10
599.9141027466645255
 20
110.6786696605739024
 30
0.0
 40
0.0393700787
 50
180.0
 51
255.6555808182023952
  0
ARC
  5
9AD3
  8
0
 10
599.8945948597950064
 20
110.6023843095665029
 30
0.0
 40
0.0393700788212798
 50
1.324680001068584
 51
75.6555826861605567
  0
ARC
  5
9AD4
  8
0
 10
599.8668586521645238
 20
110.7716756482738987
 30
0.0
 40
0.0118110236
 50
180.0
 51
270.0000037241993027
  0
ARC
  5
9AD5
  8
0
 10
600.9573028948643696
 20
110.6269585273739011
 30
0.0
 40
1.0236220471999991
 50
181.3246800010701918
 51
191.3688608258009936
  0
LINE
  5
9AD6
  8
0
 10
598.0637090458644707
 20
112.375144564173894
 30
0.0
 11
603.5755200721645224
 21
112.375144564173894
 31
0.0
  0
LINE
  5
9AD7
  8
0
 10
598.0637090458644707
 20
112.375144564173894
 30
0.0
 11
598.0762920778369107
 21
112.0151640244252036
 31
0.0
  0
ARC
  5
9AD8
  8
0
 10
598.1156291729264467
 20
112.0165279607822981
 30
0.0
 40
0.0393607338913245
 50
181.9858228538076048
 51
265.1729133036288886
  0
ARC
  5
9AD9
  8
0
 10
600.8198085774249648
 20
144.0792129009001883
 30
0.0
 40
32.2158793741423182
 50
265.1790533350848023
 51
268.2839209383470234
  0
ARC
  5
9ADA
  8
0
 10
599.8696190181532302
 20
112.2383484739348063
 30
0.0
 40
0.3568172030299614
 50
259.6016784723029218
 51
267.6595541276818722
  0
ARC
  5
9ADB
  8
0
 10
600.5638760440459691
 20
74.004263534647464
 30
0.0
 40
37.8907236389517195
 50
89.6132866461709057
 51
91.1472694136587052
  0
LINE
  5
9ADC
  8
0
 10
599.846389742320639
 20
110.425218955373893
 30
0.0
 11
601.7928393757083541
 21
110.425218955373893
 31
0.0
  0
LINE
  5
9ADD
  8
0
 10
599.846389742320639
 20
110.425218955373893
 30
0.0
 11
599.8535783182027217
 21
110.1889957725387035
 31
0.0
  0
ARC
  5
9ADE
  8
0
 10
611.070349472262933
 20
110.512699821121501
 30
0.0
 40
11.2214410586887698
 50
181.6530362672085062
 51
184.4965466169541912
  0
ARC
  5
9ADF
  8
0
 10
599.8989768798230671
 20
109.6341752343410008
 30
0.0
 40
0.0155778149574088
 50
184.5112331838548982
 51
257.9337916232606744
  0
ARC
  5
9AE0
  8
0
 10
600.8271590268190039
 20
113.976154514058706
 30
0.0
 40
4.4556573371617967
 50
257.9335327006141938
 51
269.9029848263177769
  0
LINE
  5
9AE1
  8
0
 10
601.7841814894644585
 20
110.7716756482738987
 30
0.0
 11
601.7841814894644585
 21
111.8883565046635056
 31
0.0
  0
LINE
  5
9AE2
  8
0
 10
601.7644964501645291
 20
110.6786696605739024
 30
0.0
 11
601.7644964501645291
 21
110.7598646246738952
 31
0.0
  0
LINE
  5
9AE3
  8
0
 10
601.7723704650644549
 20
110.7598646246738952
 30
0.0
 11
599.8668586555645561
 21
110.7598646246738952
 31
0.0
  0
ARC
  5
9AE4
  8
0
 10
601.7251263713645812
 20
110.6786696605739024
 30
0.0
 40
0.0393700787
 50
284.3444191817973774
 51
0.0
  0
ARC
  5
9AE5
  8
0
 10
601.744634258164524
 20
110.6023843096738943
 30
0.0
 40
0.0393700787
 50
104.3444172544990067
 51
178.6753202955999882
  0
ARC
  5
9AE6
  8
0
 10
601.7723704658645829
 20
110.7716756482738987
 30
0.0
 40
0.0118110236
 50
269.9999962758006973
 51
0.0
  0
ARC
  5
9AE7
  8
0
 10
600.6819262231645098
 20
110.6269585273739011
 30
0.0
 40
1.0236220471999991
 50
348.6311391741990064
 51
358.6753093652999951
  0
LINE
  5
9AE8
  8
0
 10
603.5755200721645224
 20
112.375144564173894
 30
0.0
 11
603.5629370401919687
 21
112.0151640244252036
 31
0.0
  0
ARC
  5
9AE9
  8
0
 10
603.5235999451025464
 20
112.0165279607822981
 30
0.0
 40
0.0393607338913245
 50
274.8270866963711114
 51
358.0141771461923099
  0
ARC
  5
9AEA
  8
0
 10
600.8194205406040282
 20
144.0792129009001883
 30
0.0
 40
32.2158793741423182
 50
271.7160790616529766
 51
274.8209466649150841
  0
ARC
  5
9AEB
  8
0
 10
601.7696100998757629
 20
112.2383484739348063
 30
0.0
 40
0.3568172030299614
 50
272.3404458723181278
 51
280.3983215276969077
  0
ARC
  5
9AEC
  8
0
 10
601.0753530739830239
 20
74.004263534647464
 30
0.0
 40
37.8907236389517195
 50
88.852730586341309
 51
90.3867133538290801
  0
LINE
  5
9AED
  8
0
 10
601.7928393757083541
 20
110.425218955373893
 30
0.0
 11
601.7856507998262714
 21
110.1889957725387035
 31
0.0
  0
ARC
  5
9AEE
  8
0
 10
590.5688796457661738
 20
110.512699821121501
 30
0.0
 40
11.2214410586887698
 50
355.5034533830457804
 51
358.3469637327916075
  0
ARC
  5
9AEF
  8
0
 10
601.7402522382060397
 20
109.6341752343410008
 30
0.0
 40
0.0155778149574088
 50
282.0662083767393256
 51
355.4887668161442207
  0
ARC
  5
9AF0
  8
0
 10
600.8120700912101029
 20
113.976154514058706
 30
0.0
 40
4.4556573371618082
 50
270.0970151736822231
 51
282.0664672993856925
  0
LINE
  5
9AF1
  8
0
 10
598.1053723783145415
 20
111.978527098466401
 30
0.0
 11
603.5338567397144516
 21
111.978527098466401
 31
0.0
  0
ARC
  5
9AF2
  8
0
 10
600.8198104443920329
 20
83.4340231141195972
 30
0.0
 40
26.2012193916153393
 50
90.000428353601734
 51
92.0211822121502081
  0
ARC
  5
9AF3
  8
0
 10
600.8194186736368465
 20
83.4340231141193982
 30
0.0
 40
26.2012193916155205
 50
87.9788177878497919
 51
89.9995716449717662
  0
ENDSEC
  0
EOF
