  0
SECTION
  2
HEADER
  9
$ACADVER
  1
AC1009
  9
$INSBASE
 10
109.1812923431526059
 20
-7.6373489329756579
 30
0.0
  9
$EXTMIN
 10
104.6339535599309016
 20
-8.0231779532949172
 30
0.0
  9
$EXTMAX
 10
109.728219238792704
 20
0.0701744302606887
 30
0.0
  9
$LIMMIN
 10
0.0
 20
0.0
  9
$LIMMAX
 10
11.6929133858000007
 20
8.2677165353999982
  9
$ORTHOMODE
 70
     0
  9
$REGENMODE
 70
     1
  9
$FILLMODE
 70
     1
  9
$QTEXTMODE
 70
     0
  9
$MIRRTEXT
 70
     0
  9
$DRAGMODE
 70
     2
  9
$LTSCALE
 40
0.6431102362
  9
$OSMODE
 70
  4095
  9
$ATTMODE
 70
     1
  9
$TEXTSIZE
 40
0.2
  9
$TRACEWID
 40
0.05
  9
$TEXTSTYLE
  7
STANDARD
  9
$CLAYER
  8
0
  9
$CELTYPE
  6
BYLAYER
  9
$CECOLOR
 62
   256
  9
$DIMSCALE
 40
1.0
  9
$DIMASZ
 40
0.1875
  9
$DIMEXO
 40
0.0625
  9
$DIMDLI
 40
0.4443307087
  9
$DIMRND
 40
0.0
  9
$DIMDLE
 40
0.0
  9
$DIMEXE
 40
0.125
  9
$DIMTP
 40
0.01
  9
$DIMTM
 40
0.01
  9
$DIMTXT
 40
1.0
  9
$DIMCEN
 40
0.1052362205
  9
$DIMTSZ
 40
0.0
  9
$DIMTOL
 70
     1
  9
$DIMLIM
 70
     0
  9
$DIMTIH
 70
     1
  9
$DIMTOH
 70
     1
  9
$DIMSE1
 70
     0
  9
$DIMSE2
 70
     0
  9
$DIMTAD
 70
     0
  9
$DIMZIN
 70
     0
  9
$DIMBLK
  1

  9
$DIMASO
 70
     1
  9
$DIMSHO
 70
     1
  9
$DIMPOST
  1
\X
  9
$DIMAPOST
  1

  9
$DIMALT
 70
     1
  9
$DIMALTD
 70
     2
  9
$DIMALTF
 40
25.3999999999999986
  9
$DIMLFAC
 40
1.0
  9
$DIMTOFL
 70
     0
  9
$DIMTVP
 40
0.0
  9
$DIMTIX
 70
     0
  9
$DIMSOXD
 70
     0
  9
$DIMSAH
 70
     0
  9
$DIMBLK1
  1

  9
$DIMBLK2
  1

  9
$DIMSTYLE
  2
STANDARD
  9
$DIMCLRD
 70
     0
  9
$DIMCLRE
 70
     0
  9
$DIMCLRT
 70
     0
  9
$DIMTFAC
 40
1.0
  9
$DIMGAP
 40
0.09
  9
$LUNITS
 70
     2
  9
$LUPREC
 70
     4
  9
$SKETCHINC
 40
0.1
  9
$FILLETRAD
 40
0.0
  9
$AUNITS
 70
     0
  9
$AUPREC
 70
     0
  9
$MENU
  1
.
  9
$ELEVATION
 40
0.0
  9
$PELEVATION
 40
0.0
  9
$THICKNESS
 40
0.0
  9
$LIMCHECK
 70
     0
  9
$BLIPMODE
 70
     0
  9
$CHAMFERA
 40
0.0
  9
$CHAMFERB
 40
0.0
  9
$SKPOLY
 70
     0
  9
$TDCREATE
 40
2458172.4620254631154239
  9
$TDUPDATE
 40
2459089.4972800929099321
  9
$TDINDWG
 40
0.0842767708
  9
$TDUSRTIMER
 40
0.0842767708
  9
$USRTIMER
 70
     1
  9
$ANGBASE
 50
0.0
  9
$ANGDIR
 70
     0
  9
$PDMODE
 70
     0
  9
$PDSIZE
 40
0.3125
  9
$PLINEWID
 40
0.0
  9
$COORDS
 70
     1
  9
$SPLFRAME
 70
     0
  9
$SPLINETYPE
 70
     6
  9
$SPLINESEGS
 70
     8
  9
$ATTDIA
 70
     1
  9
$ATTREQ
 70
     1
  9
$HANDLING
 70
     1
  9
$HANDSEED
  5
8727
  9
$SURFTAB1
 70
     6
  9
$SURFTAB2
 70
     6
  9
$SURFTYPE
 70
     6
  9
$SURFU
 70
     6
  9
$SURFV
 70
     6
  9
$UCSNAME
  2

  9
$UCSORG
 10
0.0
 20
0.0
 30
0.0
  9
$UCSXDIR
 10
1.0
 20
0.0
 30
0.0
  9
$UCSYDIR
 10
0.0
 20
1.0
 30
0.0
  9
$PUCSNAME
  2

  9
$PUCSORG
 10
0.0
 20
0.0
 30
0.0
  9
$PUCSXDIR
 10
1.0
 20
0.0
 30
0.0
  9
$PUCSYDIR
 10
0.0
 20
1.0
 30
0.0
  9
$USERI1
 70
     0
  9
$USERI2
 70
     0
  9
$USERI3
 70
     0
  9
$USERI4
 70
     0
  9
$USERI5
 70
     0
  9
$USERR1
 40
0.0
  9
$USERR2
 40
0.0
  9
$USERR3
 40
0.0
  9
$USERR4
 40
0.0
  9
$USERR5
 40
0.0
  9
$WORLDVIEW
 70
     1
  9
$SHADEDGE
 70
     3
  9
$SHADEDIF
 70
    70
  9
$TILEMODE
 70
     1
  9
$MAXACTVP
 70
    64
  9
$PLIMCHECK
 70
     0
  9
$PEXTMIN
 10
1.0000000000000000E+20
 20
1.0000000000000000E+20
 30
1.0000000000000000E+20
  9
$PEXTMAX
 10
-1.0000000000000000E+20
 20
-1.0000000000000000E+20
 30
-1.0000000000000000E+20
  9
$PLIMMIN
 10
0.0
 20
0.0
  9
$PLIMMAX
 10
12.0
 20
9.0
  9
$UNITMODE
 70
     0
  9
$VISRETAIN
 70
     1
  9
$PLINEGEN
 70
     0
  9
$PSLTSCALE
 70
     1
  0
ENDSEC
  0
SECTION
  2
TABLES
  0
TABLE
  2
VPORT
 70
     1
  0
VPORT
  2
*ACTIVE
 70
     0
 10
0.0
 20
0.0
 11
1.0
 21
1.0
 12
0.0
 22
0.0
 13
0.0
 23
0.0
 14
1.0
 24
1.0
 15
0.0
 25
0.0
 16
-0.0000000000000142
 26
0.0
 36
34.6083166435503173
 17
107.1810913085936932
 27
-3.976502649486064
 37
0.0
 40
9.5631452962055281
 41
2.8398203592814371
 42
50.0
 43
0.0
 44
0.0
 50
0.0
 51
0.0
 71
     0
 72
   100
 73
     1
 74
     1
 75
     0
 76
     0
 77
     0
 78
     0
  0
ENDTAB
  0
TABLE
  2
LTYPE
 70
     2
  0
LTYPE
  2
CONTINUOUS
 70
     0
  3
Solid line
 72
    65
 73
     0
 40
0.0
  0
LTYPE
  2
PHANTOM2
 70
     0
  3
___ _ _ ___ _ _ ___ _ _ ___ _ _
 72
    65
 73
     6
 40
1.25
 49
0.625
 49
-0.125
 49
0.125
 49
-0.125
 49
0.125
 49
-0.125
  0
ENDTAB
  0
TABLE
  2
LAYER
 70
     2
  0
LAYER
  2
0
 70
     0
 62
   255
  6
CONTINUOUS
  0
LAYER
  2
DEFPOINTS
 70
     0
 62
     7
  6
CONTINUOUS
  0
ENDTAB
  0
TABLE
  2
STYLE
 70
     1
  0
STYLE
  2
STANDARD
 70
     0
 40
0.0
 41
0.8
 50
0.0
 71
     0
 42
0.2
  3
txt
  4

  0
ENDTAB
  0
TABLE
  2
VIEW
 70
     0
  0
ENDTAB
  0
TABLE
  2
UCS
 70
     0
  0
ENDTAB
  0
TABLE
  2
APPID
 70
     9
  0
APPID
  2
ACAD
 70
     0
  0
APPID
  2
ACAD_MLEADERVER
 70
     0
  0
APPID
  2
ACAD_EXEMPT_FROM_CAD_STANDARDS
 70
     0
  0
APPID
  2
ACAD_DSTYLE_DIMJAG
 70
     0
  0
APPID
  2
ACAD_DSTYLE_DIMTALN
 70
     0
  0
APPID
  2
ACAD_NAV_VCDISPLAY
 70
     0
  0
APPID
  2
ACAECLAYERSTANDARD
 70
     0
  0
APPID
  2
ACCMTRANSPARENCY
 70
     0
  0
APPID
  2
ACDBATTR
 70
     0
  0
ENDTAB
  0
TABLE
  2
DIMSTYLE
 70
     1
  0
DIMSTYLE
  2
STANDARD
 70
     0
  3

  4

  5

  6

  7

 40
1.0
 41
0.1875
 42
0.0625
 43
0.38
 44
0.125
 45
0.0
 46
0.0
 47
0.01
 48
0.01
140
0.15625
141
0.09
142
0.0
143
25.3999999999999986
144
1.0
145
0.0
146
1.0
147
0.09
 71
     1
 72
     0
 73
     1
 74
     1
 75
     0
 76
     0
 77
     0
 78
     4
170
     0
171
     2
172
     0
173
     0
174
     0
175
     0
176
     0
177
     0
178
     0
  0
ENDTAB
  0
ENDSEC
  0
SECTION
  2
BLOCKS
  0
BLOCK
  8
0
  2
$MODEL_SPACE
 70
     0
 10
0.0
 20
0.0
 30
0.0
  3
$MODEL_SPACE
  1

  0
ENDBLK
  5
21
  8
0
  0
BLOCK
 67
     1
  8
0
  2
$PAPER_SPACE
 70
     0
 10
0.0
 20
0.0
 30
0.0
  3
$PAPER_SPACE
  1

  0
ENDBLK
  5
1D
 67
     1
  8
0
  0
BLOCK
  8
0
  2
_FILLED
 70
     0
 10
0.0
 20
0.0
 30
0.0
  3
_FILLED
  1

  0
SOLID
  5
25E6
  8
0
  6
BYBLOCK
 62
     0
 10
0.0
 20
0.0
 30
0.0
 11
-1.0
 21
0.1666666667
 31
0.0
 12
-1.0
 22
-0.1666666667
 32
0.0
 13
-1.0
 23
-0.1666666667
 33
0.0
  0
ENDBLK
  5
25E7
  8
0
  6
BYBLOCK
 62
     0
  0
ENDSEC
  0
SECTION
  2
ENTITIES
  0
ATTDEF
  5
3773
  8
DEFPOINTS
 10
109.1814496046597043
 20
-7.6337174664579068
 30
0.0
 40
0.001
  1
K-12861M
  3

  2
MODELNUMBER
 70
     0
1001
ACDBATTR
1070
     0
1070
     1
  0
ATTDEF
  5
3774
  8
DEFPOINTS
 10
109.1814496046597043
 20
-7.635384133124572
 30
0.0
 40
0.001
  1
CITRUS
  3

  2
TRADENAME
 70
     0
1001
ACDBATTR
1070
     0
1070
     1
  0
ATTDEF
  5
3775
  8
DEFPOINTS
 10
109.1814496046597043
 20
-7.637050799791238
 30
0.0
 40
0.001
  1
HANDSHOWER
  3

  2
PRODUCT
 70
     0
1001
ACDBATTR
1070
     0
1070
     1
  0
ARC
  5
802F
  8
0
 10
100.0367341289938992
 20
-7.672795307230281
 30
0.0
 40
9.6978703240604975
 50
2.079380426485995
 51
13.7596047968598594
  0
ARC
  5
8030
  8
0
 10
102.5085089389822031
 20
-7.067516673832781
 30
0.0
 40
7.1530652361725711
 50
13.7596047968600494
 51
35.2184713313687183
  0
ARC
  5
8031
  8
0
 10
98.8386724232681502
 20
-9.6580738017355863
 30
0.0
 40
11.6451345015553507
 50
35.2184713313687183
 51
43.452378982809293
  0
ARC
  5
8032
  8
0
 10
100.2770078229233945
 20
-8.2962628933731004
 30
0.0
 40
9.6643929194219726
 50
43.4560294390929087
 51
59.8686720019962877
  0
ARC
  5
8033
  8
0
 10
105.0987962552062953
 20
0.0110135423345845
 30
0.0
 40
0.0591608879261042
 50
60.0046497908756322
 51
133.0128523366745128
  0
LINE
  5
8034
  8
0
 10
104.6529864898515001
 20
-0.3262966238756597
 30
0.0
 11
105.0584389220934014
 21
0.0542720250197739
 31
0.0
  0
ARC
  5
8035
  8
0
 10
104.6924423883781969
 20
-0.3694727182404325
 30
0.0
 40
0.0584888284473569
 50
132.4222129382497997
 51
225.6077501803758878
  0
LINE
  5
8036
  8
0
 10
104.6515255522514991
 20
-0.4112669232756581
 30
0.0
 11
106.9339139741749989
 21
-2.7017057915852152
 31
0.0
  0
LINE
  5
8037
  8
0
 10
106.9339139741749989
 20
-2.7017057915852152
 30
0.0
 11
107.0328469524357047
 21
-2.8016534351080331
 31
0.0
  0
ARC
  5
8038
  8
0
 10
105.8790131637621954
 20
-3.943773540273134
 30
0.0
 40
1.623505696481238
 50
32.8994056581562901
 51
44.7076862883179587
  0
ARC
  5
8039
  8
0
 10
101.2789468765507053
 20
-7.3328334824815222
 30
0.0
 40
7.3348697713193118
 50
13.5910013272417505
 51
35.6105341341641335
  0
ARC
  5
803A
  8
0
 10
101.2151416470034064
 20
-7.3362209445558966
 30
0.0
 40
7.397693593263706
 50
0.7171067943691686
 51
13.5003764138120204
  0
ARC
  5
803B
  8
0
 10
110.5110828011405033
 20
-7.0114068636704401
 30
0.0
 40
1.9129750768475311
 50
186.9726877136234862
 51
190.7430195499624119
  0
ARC
  5
803C
  8
0
 10
108.6899516856166059
 20
-7.3469984551273937
 30
0.0
 40
0.0619797946072072
 50
199.8003538586528975
 51
251.0876040257882948
  0
ARC
  5
803D
  8
0
 10
108.8538077229023031
 20
-6.8687517919436116
 30
0.0
 40
0.5675177969387538
 50
251.0876040257882948
 51
255.688796141751908
  0
LINE
  5
803E
  8
0
 10
108.7135238536879029
 20
-7.4186580438452054
 30
0.0
 11
108.7138619323535949
 21
-7.4724727404053786
 31
0.0
  0
LINE
  5
803F
  8
0
 10
108.7138619323535949
 20
-7.4724727404053786
 30
0.0
 11
109.6487227539515033
 21
-7.4724727404053786
 31
0.0
  0
LINE
  5
8040
  8
0
 10
109.6487227539515033
 20
-7.4724727404053786
 30
0.0
 11
109.6487223485852951
 21
-7.3930513452990851
 31
0.0
  0
LINE
  5
8041
  8
0
 10
109.6487223485852951
 20
-7.3930513452990851
 30
0.0
 11
109.6898931682626994
 21
-7.3782973193689863
 31
0.0
  0
ARC
  5
8042
  8
0
 10
109.6665333582404998
 20
-7.3212055762248438
 30
0.0
 40
0.0616858805522837
 50
292.2525456833204203
 51
0.267932609135787
  0
ARC
  5
8043
  8
0
 10
107.0429460271338939
 20
-2.815744955562951
 30
0.0
 40
0.0173367314917616
 50
125.6283146575463974
 51
210.4180553775564988
  0
ARC
  5
8044
  8
0
 10
105.0570167819804936
 20
-4.3671967472874718
 30
0.0
 40
2.5029184970959251
 50
36.7496242895658227
 51
38.0500878262140105
  0
ARC
  5
8045
  8
0
 10
99.7526292228101568
 20
-8.5590615360445916
 30
0.0
 40
9.2630223752801601
 50
35.9288230225371521
 51
37.8942920050422316
  0
ARC
  5
8046
  8
0
 10
107.223971293237696
 20
-3.1400747077950468
 30
0.0
 40
0.0336126314346539
 50
310.433028379211521
 51
29.139776273915281
  0
ARC
  5
8047
  8
0
 10
106.9735807802406953
 20
-2.755658417945078
 30
0.0
 40
0.4921264864846668
 50
257.3225002642295181
 51
303.579177258407924
  0
ARC
  5
8048
  8
0
 10
106.8828570333602954
 20
-3.1589698551150169
 30
0.0
 40
0.0787369442849353
 50
211.1474622392559013
 51
257.3225002642303139
  0
ARC
  5
8049
  8
0
 10
101.3591594295421032
 20
-6.497321155215082
 30
0.0
 40
6.3753954235323356
 50
31.147462239255951
 51
39.6905580107613432
  0
ARC
  5
804A
  8
0
 10
103.5145284673810977
 20
-4.7084992319828984
 30
0.0
 40
3.574413530996964
 50
39.6905580107613432
 51
41.2571578913656083
  0
ARC
  5
804B
  8
0
 10
104.6987507223832949
 20
-0.4475776110331751
 30
0.0
 40
0.0250982502620263
 50
153.0573772541241908
 51
202.4629702340077131
  0
ARC
  5
804C
  8
0
 10
108.8911426469571069
 20
1.444791215333026
 30
0.0
 40
4.6247822210703644
 50
204.283610868378986
 51
206.9239800733240884
  0
LINE
  5
804D
  8
0
 10
108.7420583755373968
 20
-7.4729199256926426
 30
0.0
 11
108.7422066789794002
 21
-7.618586892905916
 31
0.0
  0
ARC
  5
804E
  8
0
 10
108.7618917081774015
 20
-7.6185668515908453
 30
0.0
 40
0.0196850393999998
 50
180.0583327746550992
 51
252.5788225293210871
  0
LINE
  5
804F
  8
0
 10
109.6205292859515055
 20
-7.6176638935756591
 30
0.0
 11
109.6206771484424962
 21
-7.4724727404053786
 31
0.0
  0
LINE
  5
8050
  8
0
 10
105.4861175062656997
 20
-1.367032693366212
 30
0.0
 11
105.4564097069296054
 21
-1.399398805048651
 31
0.0
  0
ARC
  5
8051
  8
0
 10
105.4717024813995039
 20
-1.4134355444538
 30
0.0
 40
0.020758106949226
 50
137.4521907328945929
 51
196.4063200594574141
  0
ARC
  5
8052
  8
0
 10
105.5017404801150036
 20
-1.4021547349956009
 30
0.0
 40
0.0528110259039795
 50
198.9429729904902047
 51
212.8460099480311953
  0
ARC
  5
8053
  8
0
 10
105.6904810514306945
 20
-1.2653249910329121
 30
0.0
 40
0.2858691889384243
 50
215.3692481326905011
 51
222.6596095301142952
  0
ARC
  5
8054
  8
0
 10
105.763932916443693
 20
-1.197641369073178
 30
0.0
 40
0.385750364119128
 50
222.6596095301142952
 51
227.3654090167603101
  0
ARC
  5
8055
  8
0
 10
105.5897895991486024
 20
-1.3867914828814421
 30
0.0
 40
0.1286440427028296
 50
227.3654090167603101
 51
235.594901558838302
  0
ARC
  5
8056
  8
0
 10
105.5319685643897003
 20
-1.471220856830147
 30
0.0
 40
0.0263132494587549
 50
235.5949015588373072
 51
276.6736388946786747
  0
ARC
  5
8057
  8
0
 10
105.5329882951312044
 20
-1.479936013364763
 30
0.0
 40
0.0175386381164779
 50
276.6736388946770262
 51
311.1007095607797055
  0
LINE
  5
8058
  8
0
 10
105.5445179253481029
 20
-1.493152346216259
 30
0.0
 11
105.5733977868443958
 21
-1.469771230291534
 31
0.0
  0
ARC
  5
8059
  8
0
 10
105.5699991633723016
 20
-1.4648362116051561
 30
0.0
 40
0.0059931558050165
 50
304.5489261872929774
 51
357.9999529021283138
  0
ARC
  5
805A
  8
0
 10
105.4582922573573995
 20
-1.485736147478139
 30
0.0
 40
0.1195012685730805
 50
9.9705930709675918
 51
45.755758344076753
  0
ARC
  5
805B
  8
0
 10
105.4382722155358039
 20
-1.486178509392047
 30
0.0
 40
0.1345204876885663
 50
39.7677777331348921
 51
62.7505790842002611
  0
ARC
  5
805C
  8
0
 10
105.4933429663508946
 20
-1.37768966437644
 30
0.0
 40
0.0128763961347044
 50
59.5712518826434874
 51
124.1381849109396001
  0
ARC
  5
805D
  8
0
 10
105.4569224572363026
 20
-1.43157933367302
 30
0.0
 40
0.0056888454666326
 50
51.8358587377563396
 51
89.0138854234596693
  0
ARC
  5
805E
  8
0
 10
105.4130025453094959
 20
-1.49955580477496
 30
0.0
 40
0.0865967232740074
 50
47.5259355710286187
 51
56.7857959745609691
  0
ARC
  5
805F
  8
0
 10
105.2674610834074969
 20
-1.6633827192570361
 30
0.0
 40
0.3057280414835309
 50
43.3328812437394788
 51
48.1399424103405522
  0
ARC
  5
8060
  8
0
 10
105.251838554132604
 20
-1.680636841061879
 30
0.0
 40
0.3289370278691489
 50
38.9654177673901998
 51
43.6515617812609591
  0
ARC
  5
8061
  8
0
 10
105.4143655275318991
 20
-1.5499997950451201
 30
0.0
 40
0.1204185273074795
 50
32.4545280805961767
 51
39.2659513847606334
  0
ARC
  5
8062
  8
0
 10
105.4983942821823035
 20
-1.49652846633867
 30
0.0
 40
0.0208192794838546
 50
19.6633876902581584
 51
32.3783245136989706
  0
ARC
  5
8063
  8
0
 10
105.516020493182495
 20
-1.490401593565746
 30
0.0
 40
0.0021653067431418
 50
347.4769310250258059
 51
23.9412614409851514
  0
ARC
  5
8064
  8
0
 10
105.517349471598294
 20
-1.490581551532979
 30
0.0
 40
0.000836523443335
 50
266.5419130010350273
 51
339.7488122826688937
  0
ARC
  5
8065
  8
0
 10
105.5191832386929036
 20
-1.4818884822557761
 30
0.0
 40
0.0097125904327579
 50
232.5522923765975065
 51
258.8137942587342195
  0
ARC
  5
8066
  8
0
 10
105.7117714548556933
 20
-1.2111314400576341
 30
0.0
 40
0.3419710529983752
 50
232.7448675999688987
 51
234.5184725681546922
  0
ARC
  5
8067
  8
0
 10
105.4572245627931011
 20
-1.426624822524974
 30
0.0
 40
0.0007613854564311
 50
105.5569030364606959
 51
178.5641614818676999
  0
ARC
  5
8068
  8
0
 10
105.466670854499597
 20
-1.425232283478866
 30
0.0
 40
0.0102994265196141
 50
187.6633994534809915
 51
213.4674174120519865
  0
ARC
  5
8069
  8
0
 10
105.387478381631297
 20
-1.474366067247785
 30
0.0
 40
0.0829018175250213
 50
28.2511551800694214
 51
31.6118887118177092
  0
LINE
  5
806A
  8
0
 10
104.7449534739498063
 20
-0.6040440474359237
 30
0.0
 11
104.7044735707212055
 21
-0.6406366515664069
 31
0.0
  0
ARC
  5
806B
  8
0
 10
104.7176508906760972
 20
-0.6552138222614055
 30
0.0
 40
0.0196503350267582
 50
132.1126246613528963
 51
211.7910779499846967
  0
LINE
  5
806C
  8
0
 10
104.7009486022749059
 20
-0.6655660794466023
 30
0.0
 11
104.7580099203600952
 21
-0.738738967338346
 31
0.0
  0
ARC
  5
806D
  8
0
 10
104.7727314575471951
 20
-0.7256707953533237
 30
0.0
 40
0.0196850394000055
 50
217.9968499812760001
 51
258.4405188926762094
  0
LINE
  5
806E
  8
0
 10
104.7788281705960998
 20
-0.6391669580736909
 30
0.0
 11
104.7390348476474031
 21
-0.6755096142761126
 31
0.0
  0
ARC
  5
806F
  8
0
 10
104.7524514097985957
 20
-0.6901831145541486
 30
0.0
 40
0.0198825488901337
 50
132.437910946271387
 51
210.7870725198011996
  0
ARC
  5
8070
  8
0
 10
105.3673585546759028
 20
-0.261631339801955
 30
0.0
 40
0.7693447464861444
 50
214.7685490206229986
 51
221.6362935168623949
  0
ARC
  5
8071
  8
0
 10
104.8075947682729065
 20
-0.7602030866797413
 30
0.0
 40
0.0197519220896108
 50
219.5637680558600096
 51
284.4173385685921858
  0
ARC
  5
8072
  8
0
 10
104.8075612829033929
 20
-0.7600728334264418
 30
0.0
 40
0.0198864106763928
 50
284.4173385685912763
 51
303.9365134451853123
  0
ARC
  5
8073
  8
0
 10
101.5860489176074992
 20
4.0274499654597689
 30
0.0
 40
5.7903730859585849
 50
303.9365134451853123
 51
304.2193832600895007
  0
ARC
  5
8074
  8
0
 10
104.8412551515168047
 20
-0.759838262025987
 30
0.0
 40
0.0013007043295046
 50
326.6252308895718102
 51
4.1546307706898471
  0
ARC
  5
8075
  8
0
 10
104.5003784968716047
 20
-0.872399806316725
 30
0.0
 40
0.360242043962513
 50
18.2233754270240595
 51
29.1003803164804893
  0
ARC
  5
8076
  8
0
 10
104.3507357546893957
 20
-0.9332231599670954
 30
0.0
 40
0.5209461790728823
 50
26.9406763149727411
 51
33.4154590789779107
  0
ARC
  5
8077
  8
0
 10
104.7557625483315036
 20
-0.6652857011049385
 30
0.0
 40
0.0353208743972384
 50
32.4477399998585625
 51
46.8666011981231918
  0
ARC
  5
8078
  8
0
 10
104.7789740601503041
 20
-0.6405886983466971
 30
0.0
 40
0.0014292057815113
 50
49.0158632282843385
 51
95.8588067442198764
  0
LINE
  5
8079
  8
0
 10
104.8298049579176023
 20
-0.7690557653348158
 30
0.0
 11
104.8368984753930988
 21
-0.7820907173461081
 31
0.0
  0
ARC
  5
807A
  8
0
 10
-3532.5280338029788254
 20
3880.3557979346669526
 30
0.0
 40
5319.1772445261303801
 50
313.1430046048868121
 51
313.1435681508215225
  0
ARC
  5
807B
  8
0
 10
104.8543214471540068
 20
-0.7926427469267417
 30
0.0
 40
0.0204033236057827
 50
133.1430046048878069
 51
214.298356079794587
  0
ARC
  5
807C
  8
0
 10
105.2321277696584048
 20
-0.5430635576886687
 30
0.0
 40
0.4732006793940307
 50
213.4854162647127964
 51
224.4034186797960899
  0
ARC
  5
807D
  8
0
 10
104.9100312947396958
 20
-0.8600984683970231
 30
0.0
 40
0.0212836194302763
 50
221.368854866537788
 51
269.7300213519341128
  0
ARC
  5
807E
  8
0
 10
104.910022768970407
 20
-0.8619078225450351
 30
0.0
 40
0.0194742451954428
 50
269.730021351933317
 51
305.1112868420520954
  0
ARC
  5
807F
  8
0
 10
106.2057331358357004
 20
-2.704745414587403
 30
0.0
 40
2.233283119779065
 50
124.343058899162699
 51
125.1112868420519959
  0
ARC
  5
8080
  8
0
 10
104.9446944716770957
 20
-0.8591128689543197
 30
0.0
 40
0.0020195456340504
 50
304.3430588991716945
 51
16.1407597662924083
  0
ARC
  5
8081
  8
0
 10
104.6424461645595017
 20
-0.9465853381572522
 30
0.0
 40
0.3166708955817389
 50
16.140759766292561
 51
30.8807834866677986
  0
ARC
  5
8082
  8
0
 10
104.7243883900727042
 20
-0.8975812470760686
 30
0.0
 40
0.2211935199122115
 50
30.880783486667589
 51
44.6697340942483834
  0
ARC
  5
8083
  8
0
 10
104.8801708013856029
 20
-0.7435844931118823
 30
0.0
 40
0.0021429323622452
 50
44.6697340942702468
 51
106.6299998064131955
  0
ARC
  5
8084
  8
0
 10
104.8808243081857938
 20
-0.7457724530558352
 30
0.0
 40
0.0044264033724072
 50
106.6299998064105949
 51
121.0272690660365953
  0
ARC
  5
8085
  8
0
 10
104.820937828063407
 20
-0.8623606369730509
 30
0.0
 40
0.0510725097941571
 50
40.8775531875247324
 51
48.4088150471571126
  0
ARC
  5
8086
  8
0
 10
104.5356344475326011
 20
-1.1093026013253919
 30
0.0
 40
0.4284030713717979
 50
38.8411523692212484
 51
40.8775531875245619
  0
ARC
  5
8087
  8
0
 10
104.7215951028974956
 20
-0.959566360300819
 30
0.0
 40
0.1896515117540605
 50
36.1309572208375869
 51
38.841152369221291
  0
ARC
  5
8088
  8
0
 10
104.7723579758738026
 20
-0.9225074080511461
 30
0.0
 40
0.1268006150647382
 50
33.5790327887474476
 51
36.1309572208375869
  0
ARC
  5
8089
  8
0
 10
104.8676923038516975
 20
-0.8592177071923323
 30
0.0
 40
0.0123706350516959
 50
24.0899609266022701
 51
33.5790327887467015
  0
ARC
  5
808A
  8
0
 10
104.8783047707647995
 20
-0.8544727526898583
 30
0.0
 40
0.0007457029137343
 50
359.2260088546224779
 51
24.0899609266047783
  0
ARC
  5
808B
  8
0
 10
104.8789859035114063
 20
-0.8544819544633526
 30
0.0
 40
0.0000645080141621
 50
286.6427955218670149
 51
359.2260088541374898
  0
ARC
  5
808C
  8
0
 10
104.8789345427406943
 20
-0.8543101370350356
 30
0.0
 40
0.00024383775917
 50
240.4014380469666037
 51
286.6427955217013164
  0
ARC
  5
808D
  8
0
 10
104.8816223195104982
 20
-0.8495785177674832
 30
0.0
 40
0.0056855621970292
 50
220.7409053903209042
 51
240.4014380469681953
  0
ARC
  5
808E
  8
0
 10
104.9319151718758008
 20
-0.7978351389291554
 30
0.0
 40
0.0778227115064928
 50
221.5262114899292953
 51
225.4442695818401887
  0
ARC
  5
808F
  8
0
 10
105.106756639796501
 20
-0.6450500971011905
 30
0.0
 40
0.3100127628081102
 50
218.7107858590032095
 51
221.2433562776992915
  0
ARC
  5
8090
  8
0
 10
105.0078706279899023
 20
-0.7224886897293638
 30
0.0
 40
0.1844269010078094
 50
214.2035585269318005
 51
219.1506863585661904
  0
ARC
  5
8091
  8
0
 10
104.8692630873591014
 20
-0.8170289390048601
 30
0.0
 40
0.0166500148396523
 50
207.9128748558742927
 51
213.2641121805000921
  0
ARC
  5
8092
  8
0
 10
104.8613222153913966
 20
-0.8213731768322639
 30
0.0
 40
0.0076002901580572
 50
201.5861237395891123
 51
206.9970161060853115
  0
ARC
  5
8093
  8
0
 10
104.8544908580377069
 20
-0.824048940332581
 30
0.0
 40
0.0002648312273054
 50
171.1650097606760141
 51
207.0358312393844926
  0
ARC
  5
8094
  8
0
 10
104.8543960823163985
 20
-0.8240342090039796
 30
0.0
 40
0.0001689174671303
 50
139.7975246934331892
 51
171.1650097606456029
  0
ARC
  5
8095
  8
0
 10
104.8543264158616068
 20
-0.8239753311258866
 30
0.0
 40
0.0000777033265162
 50
89.3035625068419847
 51
139.7975246930816127
  0
ARC
  5
8096
  8
0
 10
104.8543235529018034
 20
-0.824210854683141
 30
0.0
 40
0.0003132442838038
 50
61.508043164749111
 51
89.3035625069185244
  0
ARC
  5
8097
  8
0
 10
104.8538075872819064
 20
-0.8254178454070384
 30
0.0
 40
0.0016247927027268
 50
50.5343928529013127
 51
65.8249619375811221
  0
ARC
  5
8098
  8
0
 10
-3532.3608189482611124
 20
3880.1939132041111407
 30
0.0
 40
5319.1772445261303801
 50
313.1430046048868121
 51
313.1435681508215225
  0
ARC
  5
8099
  8
0
 10
105.0215363018726009
 20
-0.9545274774825251
 30
0.0
 40
0.0204033236057827
 50
133.1430046048878069
 51
214.298356079794587
  0
ARC
  5
809A
  8
0
 10
105.3993426243769989
 20
-0.7049482882444558
 30
0.0
 40
0.4732006793940307
 50
213.4854162647127964
 51
224.4034186797960899
  0
ARC
  5
809B
  8
0
 10
105.0772461494584036
 20
-1.021983198952803
 30
0.0
 40
0.0212836194302763
 50
221.368854866537788
 51
269.7300213519341128
  0
ARC
  5
809C
  8
0
 10
105.0772376236890011
 20
-1.0237925531008221
 30
0.0
 40
0.0194742451954428
 50
269.730021351933317
 51
305.1112868420520954
  0
ARC
  5
809D
  8
0
 10
106.372947990554394
 20
-2.866630145143187
 30
0.0
 40
2.233283119779065
 50
124.343058899162699
 51
125.1112868420519959
  0
ARC
  5
809E
  8
0
 10
105.1119093263958035
 20
-1.0209975995100991
 30
0.0
 40
0.0020195456340504
 50
304.3430588991716945
 51
16.1407597662924083
  0
ARC
  5
809F
  8
0
 10
104.8096610192781952
 20
-1.108470068713032
 30
0.0
 40
0.3166708955817389
 50
16.140759766292561
 51
30.8807834866677986
  0
ARC
  5
80A0
  8
0
 10
104.8916032447912983
 20
-1.059465977631852
 30
0.0
 40
0.2211935199122115
 50
30.880783486667589
 51
44.6697340942483834
  0
ARC
  5
80A1
  8
0
 10
105.0473856561042965
 20
-0.9054692236676658
 30
0.0
 40
0.0021429323622452
 50
44.6697340942702468
 51
106.6299998064131955
  0
ARC
  5
80A2
  8
0
 10
105.0480391629045016
 20
-0.9076571836116187
 30
0.0
 40
0.0044264033724072
 50
106.6299998064105949
 51
121.0272690660365953
  0
ARC
  5
80A3
  8
0
 10
104.9881526827821006
 20
-1.0242453675288341
 30
0.0
 40
0.0510725097941571
 50
40.8775531875247324
 51
48.4088150471571126
  0
ARC
  5
80A4
  8
0
 10
104.7028493022512947
 20
-1.2711873318811759
 30
0.0
 40
0.4284030713717979
 50
38.8411523692212484
 51
40.8775531875245619
  0
ARC
  5
80A5
  8
0
 10
104.8888099576161039
 20
-1.121451090856602
 30
0.0
 40
0.1896515117540605
 50
36.1309572208375869
 51
38.841152369221291
  0
ARC
  5
80A6
  8
0
 10
104.9395728305923967
 20
-1.0843921386069291
 30
0.0
 40
0.1268006150647382
 50
33.5790327887474476
 51
36.1309572208375869
  0
ARC
  5
80A7
  8
0
 10
105.0349071585703058
 20
-1.021102437748115
 30
0.0
 40
0.0123706350516959
 50
24.0899609266022701
 51
33.5790327887467015
  0
ARC
  5
80A8
  8
0
 10
105.0455196254833936
 20
-1.0163574832456379
 30
0.0
 40
0.0007457029137343
 50
359.2260088546224779
 51
24.0899609266047783
  0
ARC
  5
80A9
  8
0
 10
105.0462007582300004
 20
-1.016366685019132
 30
0.0
 40
0.0000645080141621
 50
286.6427955218670149
 51
359.2260088541374898
  0
ARC
  5
80AA
  8
0
 10
105.0461493974593026
 20
-1.016194867590815
 30
0.0
 40
0.00024383775917
 50
240.40143804696649
 51
286.6427955217013164
  0
ARC
  5
80AB
  8
0
 10
105.0488371742291065
 20
-1.0114632483232631
 30
0.0
 40
0.0056855621970292
 50
220.7409053903209042
 51
240.4014380469681953
  0
ARC
  5
80AC
  8
0
 10
105.0991300265943948
 20
-0.9597198694849389
 30
0.0
 40
0.0778227115064928
 50
221.5262114899292953
 51
225.4442695818401887
  0
ARC
  5
80AD
  8
0
 10
105.2739714945150951
 20
-0.8069348276569706
 30
0.0
 40
0.3100127628081102
 50
218.7107858590032095
 51
221.2433562776992915
  0
ARC
  5
80AE
  8
0
 10
105.1750854827084964
 20
-0.8843734202851472
 30
0.0
 40
0.1844269010078094
 50
214.2035585269318005
 51
219.1506863585661904
  0
ARC
  5
80AF
  8
0
 10
105.0364779420776955
 20
-0.9789136695606437
 30
0.0
 40
0.0166500148396523
 50
207.9128748558742927
 51
213.2641121805000921
  0
ARC
  5
80B0
  8
0
 10
105.0285370701101044
 20
-0.9832579073880474
 30
0.0
 40
0.0076002901580572
 50
201.5861237395891123
 51
206.9970161060853115
  0
ARC
  5
80B1
  8
0
 10
105.021705712756301
 20
-0.9859336708883645
 30
0.0
 40
0.0002648312273054
 50
171.1650097606760141
 51
207.0358312393844926
  0
ARC
  5
80B2
  8
0
 10
105.0216109370350068
 20
-0.9859189395597596
 30
0.0
 40
0.0001689174671303
 50
139.7975246934331892
 51
171.1650097606456029
  0
ARC
  5
80B3
  8
0
 10
105.0215412705803004
 20
-0.9858600616816737
 30
0.0
 40
0.0000777033265162
 50
89.3035625068419847
 51
139.7975246930816127
  0
ARC
  5
80B4
  8
0
 10
105.0215384076203975
 20
-0.9860955852389245
 30
0.0
 40
0.0003132442838038
 50
61.508043164749111
 51
89.3035625069185244
  0
ARC
  5
80B5
  8
0
 10
105.0210224420005005
 20
-0.9873025759628185
 30
0.0
 40
0.0016247927027268
 50
50.5343928529013127
 51
65.8249619375811221
  0
ARC
  5
80B6
  8
0
 10
-3532.2939997066041542
 20
3880.0253128517210826
 30
0.0
 40
5319.1772445261303801
 50
313.1430046048868121
 51
313.1435681508215225
  0
ARC
  5
80B7
  8
0
 10
105.0883555435291044
 20
-1.1231278298721421
 30
0.0
 40
0.0204033236057827
 50
133.1430046048878069
 51
214.298356079794587
  0
ARC
  5
80B8
  8
0
 10
105.4661618660335023
 20
-0.8735486406340662
 30
0.0
 40
0.4732006793940307
 50
213.4854162647127964
 51
224.4034186797960899
  0
ARC
  5
80B9
  8
0
 10
105.1440653911147933
 20
-1.1905835513424241
 30
0.0
 40
0.0212836194302763
 50
221.368854866537788
 51
269.7300213519341128
  0
ARC
  5
80BA
  8
0
 10
105.1440568653454051
 20
-1.1923929054904321
 30
0.0
 40
0.0194742451954428
 50
269.730021351933317
 51
305.1112868420520954
  0
ARC
  5
80BB
  8
0
 10
106.4397672322107979
 20
-3.0352304975328011
 30
0.0
 40
2.233283119779065
 50
124.343058899162699
 51
125.1112868420519959
  0
ARC
  5
80BC
  8
0
 10
105.1787285680521933
 20
-1.18959795189972
 30
0.0
 40
0.0020195456340504
 50
304.3430588991716945
 51
16.1407597662924083
  0
ARC
  5
80BD
  8
0
 10
104.8764802609345992
 20
-1.2770704211026489
 30
0.0
 40
0.3166708955817389
 50
16.140759766292561
 51
30.8807834866677986
  0
ARC
  5
80BE
  8
0
 10
104.9584224864477022
 20
-1.228066330021466
 30
0.0
 40
0.2211935199122115
 50
30.880783486667589
 51
44.6697340942483834
  0
ARC
  5
80BF
  8
0
 10
105.1142048977607004
 20
-1.074069576057276
 30
0.0
 40
0.0021429323622452
 50
44.6697340942702468
 51
106.6299998064131955
  0
ARC
  5
80C0
  8
0
 10
105.1148584045609056
 20
-1.0762575360012321
 30
0.0
 40
0.0044264033724072
 50
106.6299998064105949
 51
121.0272690660365953
  0
ARC
  5
80C1
  8
0
 10
105.0549719244385045
 20
-1.1928457199184519
 30
0.0
 40
0.0510725097941571
 50
40.8775531875247324
 51
48.4088150471571126
  0
ARC
  5
80C2
  8
0
 10
104.7696685439076987
 20
-1.4397876842707931
 30
0.0
 40
0.4284030713717979
 50
38.8411523692212484
 51
40.8775531875245619
  0
ARC
  5
80C3
  8
0
 10
104.9556291992725932
 20
-1.290051443246216
 30
0.0
 40
0.1896515117540605
 50
36.1309572208375869
 51
38.841152369221291
  0
ARC
  5
80C4
  8
0
 10
105.0063920722489001
 20
-1.2529924909965431
 30
0.0
 40
0.1268006150647382
 50
33.5790327887474476
 51
36.1309572208375869
  0
ARC
  5
80C5
  8
0
 10
105.1017264002266955
 20
-1.1897027901377331
 30
0.0
 40
0.0123706350516959
 50
24.0899609266022701
 51
33.5790327887467015
  0
ARC
  5
80C6
  8
0
 10
105.1123388671397976
 20
-1.184957835635255
 30
0.0
 40
0.0007457029137343
 50
359.2260088546224779
 51
24.0899609266047783
  0
ARC
  5
80C7
  8
0
 10
105.1130199998865038
 20
-1.18496703740875
 30
0.0
 40
0.0000645080141621
 50
286.6427955218670149
 51
359.2260088541374898
  0
ARC
  5
80C8
  8
0
 10
105.1129686391157065
 20
-1.184795219980433
 30
0.0
 40
0.00024383775917
 50
240.40143804696649
 51
286.6427955217013164
  0
ARC
  5
80C9
  8
0
 10
105.1156564158855957
 20
-1.18006360071288
 30
0.0
 40
0.0056855621970292
 50
220.7409053903209042
 51
240.4014380469681953
  0
ARC
  5
80CA
  8
0
 10
105.1659492682507988
 20
-1.1283202218745561
 30
0.0
 40
0.0778227115064928
 50
221.5262114899292953
 51
225.4442695818401887
  0
ARC
  5
80CB
  8
0
 10
105.340790736171499
 20
-0.9755351800465881
 30
0.0
 40
0.3100127628081102
 50
218.7107858590032095
 51
221.2433562776992915
  0
ARC
  5
80CC
  8
0
 10
105.2419047243649004
 20
-1.0529737726747641
 30
0.0
 40
0.1844269010078094
 50
214.2035585269318005
 51
219.1506863585661904
  0
ARC
  5
80CD
  8
0
 10
105.1032971837341989
 20
-1.1475140219502611
 30
0.0
 40
0.0166500148396523
 50
207.9128748558742927
 51
213.2641121805000921
  0
ARC
  5
80CE
  8
0
 10
105.0953563117664942
 20
-1.1518582597776641
 30
0.0
 40
0.0076002901580572
 50
201.5861237395891123
 51
206.9970161060853115
  0
ARC
  5
80CF
  8
0
 10
105.0885249544128044
 20
-1.1545340232779779
 30
0.0
 40
0.0002648312273054
 50
171.1650097606760141
 51
207.0358312393844926
  0
ARC
  5
80D0
  8
0
 10
105.0884301786914961
 20
-1.1545192919493801
 30
0.0
 40
0.0001689174671303
 50
139.7975246934331892
 51
171.1650097606456029
  0
ARC
  5
80D1
  8
0
 10
105.0883605122367044
 20
-1.154460414071284
 30
0.0
 40
0.0000777033265162
 50
89.3035625068419847
 51
139.7975246930816127
  0
ARC
  5
80D2
  8
0
 10
105.0883576492769009
 20
-1.1546959376285351
 30
0.0
 40
0.0003132442838038
 50
61.508043164749111
 51
89.3035625069185244
  0
ARC
  5
80D3
  8
0
 10
105.0878416836569045
 20
-1.155902928352436
 30
0.0
 40
0.0016247927027268
 50
50.5343928529013127
 51
65.8249619375811221
  0
ARC
  5
80D4
  8
0
 10
-3532.3973897484838744
 20
3880.0429206924140999
 30
0.0
 40
5319.1772445261303801
 50
313.1430046048868121
 51
313.1435681508215225
  0
ARC
  5
80D5
  8
0
 10
104.9849655016488015
 20
-1.1055199891800129
 30
0.0
 40
0.0204033236057827
 50
133.1430046048878069
 51
214.298356079794587
  0
ARC
  5
80D6
  8
0
 10
105.3627718241531994
 20
-0.8559407999419406
 30
0.0
 40
0.4732006793940307
 50
213.4854162647127964
 51
224.4034186797960899
  0
ARC
  5
80D7
  8
0
 10
105.0406753492346041
 20
-1.1729757106502949
 30
0.0
 40
0.0212836194302763
 50
221.368854866537788
 51
269.7300213519341128
  0
ARC
  5
80D8
  8
0
 10
105.0406668234652017
 20
-1.1747850647983069
 30
0.0
 40
0.0194742451954428
 50
269.730021351933317
 51
305.1112868420520954
  0
ARC
  5
80D9
  8
0
 10
106.3363771903304951
 20
-3.0176226568406781
 30
0.0
 40
2.233283119779065
 50
124.343058899162699
 51
125.1112868420519959
  0
ARC
  5
80DA
  8
0
 10
105.0753385261719046
 20
-1.1719901112075879
 30
0.0
 40
0.0020195456340504
 50
304.3430588991716945
 51
16.1407597662924083
  0
ARC
  5
80DB
  8
0
 10
104.7730902190543958
 20
-1.2594625804105239
 30
0.0
 40
0.3166708955817389
 50
16.140759766292561
 51
30.8807834866677986
  0
ARC
  5
80DC
  8
0
 10
104.8550324445674988
 20
-1.21045848932934
 30
0.0
 40
0.2211935199122115
 50
30.880783486667589
 51
44.6697340942483834
  0
ARC
  5
80DD
  8
0
 10
105.010814855880497
 20
-1.056461735365154
 30
0.0
 40
0.0021429323622452
 50
44.6697340942702468
 51
106.6299998064131955
  0
ARC
  5
80DE
  8
0
 10
105.0114683626806027
 20
-1.0586496953091069
 30
0.0
 40
0.0044264033724072
 50
106.6299998064105949
 51
121.0272690660365953
  0
ARC
  5
80DF
  8
0
 10
104.9515818825583011
 20
-1.1752378792263221
 30
0.0
 40
0.0510725097941571
 50
40.8775531875247324
 51
48.4088150471571126
  0
ARC
  5
80E0
  8
0
 10
104.6662785020273958
 20
-1.4221798435786639
 30
0.0
 40
0.4284030713717979
 50
38.8411523692212484
 51
40.8775531875245619
  0
ARC
  5
80E1
  8
0
 10
104.8522391573923045
 20
-1.2724436025540911
 30
0.0
 40
0.1896515117540605
 50
36.1309572208375869
 51
38.841152369221291
  0
ARC
  5
80E2
  8
0
 10
104.9030020303685973
 20
-1.235384650304421
 30
0.0
 40
0.1268006150647382
 50
33.5790327887474476
 51
36.1309572208375869
  0
ARC
  5
80E3
  8
0
 10
104.9983363583465064
 20
-1.1720949494456041
 30
0.0
 40
0.0123706350516959
 50
24.0899609266022701
 51
33.5790327887467015
  0
ARC
  5
80E4
  8
0
 10
105.0089488252595942
 20
-1.1673499949431261
 30
0.0
 40
0.0007457029137343
 50
359.2260088546224779
 51
24.0899609266047783
  0
ARC
  5
80E5
  8
0
 10
105.0096299580062009
 20
-1.167359196716621
 30
0.0
 40
0.0000645080141621
 50
286.6427955218670149
 51
359.2260088541374898
  0
ARC
  5
80E6
  8
0
 10
105.0095785972355031
 20
-1.167187379288307
 30
0.0
 40
0.00024383775917
 50
240.40143804696649
 51
286.6427955217013164
  0
ARC
  5
80E7
  8
0
 10
105.0122663740053071
 20
-1.162455760020751
 30
0.0
 40
0.0056855621970292
 50
220.7409053903209042
 51
240.4014380469681953
  0
ARC
  5
80E8
  8
0
 10
105.0625592263705954
 20
-1.1107123811824271
 30
0.0
 40
0.0778227115064928
 50
221.5262114899292953
 51
225.4442695818401887
  0
ARC
  5
80E9
  8
0
 10
105.2374006942912956
 20
-0.957927339354459
 30
0.0
 40
0.3100127628081102
 50
218.7107858590032095
 51
221.2433562776992915
  0
ARC
  5
80EA
  8
0
 10
105.138514682484697
 20
-1.035365931982632
 30
0.0
 40
0.1844269010078094
 50
214.2035585269318005
 51
219.1506863585661904
  0
ARC
  5
80EB
  8
0
 10
104.9999071418538961
 20
-1.1299061812581319
 30
0.0
 40
0.0166500148396523
 50
207.9128748558742927
 51
213.2641121805000921
  0
ARC
  5
80EC
  8
0
 10
104.9919662698862055
 20
-1.1342504190855349
 30
0.0
 40
0.0076002901580572
 50
201.5861237395891123
 51
206.9970161060853115
  0
ARC
  5
80ED
  8
0
 10
104.9851349125325015
 20
-1.136926182585849
 30
0.0
 40
0.0002648312273054
 50
171.1650097606760141
 51
207.0358312393844926
  0
ARC
  5
80EE
  8
0
 10
104.9850401368111932
 20
-1.136911451257248
 30
0.0
 40
0.0001689174671303
 50
139.7975246934331892
 51
171.1650097606456029
  0
ARC
  5
80EF
  8
0
 10
104.9849704703564015
 20
-1.1368525733791579
 30
0.0
 40
0.0000777033265162
 50
89.3035625068419847
 51
139.7975246930816127
  0
ARC
  5
80F0
  8
0
 10
104.9849676073965981
 20
-1.1370880969364121
 30
0.0
 40
0.0003132442838038
 50
61.508043164749111
 51
89.3035625069185244
  0
ARC
  5
80F1
  8
0
 10
104.9844516417767011
 20
-1.13829508766031
 30
0.0
 40
0.0016247927027268
 50
50.5343928529013127
 51
65.8249619375811221
  0
ARC
  5
80F2
  8
0
 10
-3532.4603547856318073
 20
3880.1795549062849204
 30
0.0
 40
5319.1772445261303801
 50
313.1430046048868121
 51
313.1435681508215225
  0
ARC
  5
80F3
  8
0
 10
104.9220004645007975
 20
-0.9688857753083759
 30
0.0
 40
0.0204033236057827
 50
133.1430046048878069
 51
214.298356079794587
  0
ARC
  5
80F4
  8
0
 10
105.299806787005295
 20
-0.719306586070303
 30
0.0
 40
0.4732006793940307
 50
213.4854162647127964
 51
224.4034186797960899
  0
ARC
  5
80F5
  8
0
 10
104.9777103120866002
 20
-1.0363414967786531
 30
0.0
 40
0.0212836194302763
 50
221.368854866537788
 51
269.7300213519341128
  0
ARC
  5
80F6
  8
0
 10
104.9777017863171977
 20
-1.038150850926669
 30
0.0
 40
0.0194742451954428
 50
269.730021351933317
 51
305.1112868420520954
  0
ARC
  5
80F7
  8
0
 10
106.2734121531826048
 20
-2.8809884429690369
 30
0.0
 40
2.233283119779065
 50
124.343058899162699
 51
125.1112868420519959
  0
ARC
  5
80F8
  8
0
 10
105.0123734890239007
 20
-1.03535589733595
 30
0.0
 40
0.0020195456340504
 50
304.3430588991716945
 51
16.1407597662924083
  0
ARC
  5
80F9
  8
0
 10
104.7101251819064061
 20
-1.1228283665388861
 30
0.0
 40
0.3166708955817389
 50
16.140759766292561
 51
30.8807834866677986
  0
ARC
  5
80FA
  8
0
 10
104.7920674074194949
 20
-1.073824275457699
 30
0.0
 40
0.2211935199122115
 50
30.880783486667589
 51
44.6697340942483834
  0
ARC
  5
80FB
  8
0
 10
104.9478498187324931
 20
-0.9198275214935129
 30
0.0
 40
0.0021429323622452
 50
44.6697340942702468
 51
106.6299998064131955
  0
ARC
  5
80FC
  8
0
 10
104.9485033255326982
 20
-0.9220154814374659
 30
0.0
 40
0.0044264033724072
 50
106.6299998064105949
 51
121.0272690660365953
  0
ARC
  5
80FD
  8
0
 10
104.8886168454102972
 20
-1.0386036653546811
 30
0.0
 40
0.0510725097941571
 50
40.8775531875247324
 51
48.4088150471571126
  0
ARC
  5
80FE
  8
0
 10
104.6033134648795055
 20
-1.2855456297070229
 30
0.0
 40
0.4284030713717979
 50
38.8411523692212484
 51
40.8775531875245619
  0
ARC
  5
80FF
  8
0
 10
104.7892741202443005
 20
-1.135809388682453
 30
0.0
 40
0.1896515117540605
 50
36.1309572208375869
 51
38.841152369221291
  0
ARC
  5
8100
  8
0
 10
104.8400369932205933
 20
-1.09875043643278
 30
0.0
 40
0.1268006150647382
 50
33.5790327887474476
 51
36.1309572208375869
  0
ARC
  5
8101
  8
0
 10
104.9353713211985024
 20
-1.035460735573966
 30
0.0
 40
0.0123706350516959
 50
24.0899609266022701
 51
33.5790327887467015
  0
ARC
  5
8102
  8
0
 10
104.9459837881116044
 20
-1.0307157810714891
 30
0.0
 40
0.0007457029137343
 50
359.2260088546224779
 51
24.0899609266047783
  0
ARC
  5
8103
  8
0
 10
104.946664920858197
 20
-1.0307249828449789
 30
0.0
 40
0.0000645080141621
 50
286.6427955218670149
 51
359.2260088541374898
  0
ARC
  5
8104
  8
0
 10
104.9466135600874992
 20
-1.030553165416666
 30
0.0
 40
0.00024383775917
 50
240.40143804696649
 51
286.6427955217013164
  0
ARC
  5
8105
  8
0
 10
104.9493013368574026
 20
-1.025821546149114
 30
0.0
 40
0.0056855621970292
 50
220.7409053903209042
 51
240.4014380469681953
  0
ARC
  5
8106
  8
0
 10
104.9995941892226057
 20
-0.9740781673107896
 30
0.0
 40
0.0778227115064928
 50
221.5262114899292953
 51
225.4442695818401887
  0
ARC
  5
8107
  8
0
 10
105.1744356571433059
 20
-0.8212931254828248
 30
0.0
 40
0.3100127628081102
 50
218.7107858590032095
 51
221.2433562776992915
  0
ARC
  5
8108
  8
0
 10
105.0755496453366931
 20
-0.8987317181109979
 30
0.0
 40
0.1844269010078094
 50
214.2035585269318005
 51
219.1506863585661904
  0
ARC
  5
8109
  8
0
 10
104.9369421047059063
 20
-0.9932719673864909
 30
0.0
 40
0.0166500148396523
 50
207.9128748558742927
 51
213.2641121805000921
  0
ARC
  5
810A
  8
0
 10
104.929001232738301
 20
-0.9976162052138982
 30
0.0
 40
0.0076002901580572
 50
201.5861237395891123
 51
206.9970161060853115
  0
ARC
  5
810B
  8
0
 10
104.9221698753844976
 20
-1.0002919687142111
 30
0.0
 40
0.0002648312273054
 50
171.1650097606760141
 51
207.0358312393844926
  0
ARC
  5
810C
  8
0
 10
104.9220750996632034
 20
-1.000277237385613
 30
0.0
 40
0.0001689174671303
 50
139.7975246934331892
 51
171.1650097606456029
  0
ARC
  5
810D
  8
0
 10
104.922005433208497
 20
-1.00021835950752
 30
0.0
 40
0.0000777033265162
 50
89.3035625068419847
 51
139.7975246930816127
  0
ARC
  5
810E
  8
0
 10
104.9220025702486936
 20
-1.0004538830647749
 30
0.0
 40
0.0003132442838038
 50
61.508043164749111
 51
89.3035625069185244
  0
ARC
  5
810F
  8
0
 10
104.9214866046286971
 20
-1.001660873788669
 30
0.0
 40
0.0016247927027268
 50
50.5343928529013127
 51
65.8249619375811221
  0
ARC
  5
8110
  8
0
 10
-3532.2251412012669789
 20
3879.8758980278098534
 30
0.0
 40
5319.1772445261303801
 50
313.1430046048868121
 51
313.1435681508215225
  0
ARC
  5
8111
  8
0
 10
105.157214048865896
 20
-1.2725426537830979
 30
0.0
 40
0.0204033236057827
 50
133.1430046048878069
 51
214.298356079794587
  0
ARC
  5
8112
  8
0
 10
105.5350203713703934
 20
-1.022963464545021
 30
0.0
 40
0.4732006793940307
 50
213.4854162647127964
 51
224.4034186797960899
  0
ARC
  5
8113
  8
0
 10
105.2129238964516986
 20
-1.339998375253376
 30
0.0
 40
0.0212836194302763
 50
221.368854866537788
 51
269.7300213519341128
  0
ARC
  5
8114
  8
0
 10
105.2129153706822962
 20
-1.341807729401391
 30
0.0
 40
0.0194742451954428
 50
269.730021351933317
 51
305.1112868420520954
  0
ARC
  5
8115
  8
0
 10
106.5086257375477032
 20
-3.1846453214437558
 30
0.0
 40
2.233283119779065
 50
124.343058899162699
 51
125.1112868420519959
  0
ARC
  5
8116
  8
0
 10
105.2475870733890986
 20
-1.339012775810672
 30
0.0
 40
0.0020195456340504
 50
304.3430588991716945
 51
16.1407597662924083
  0
ARC
  5
8117
  8
0
 10
104.9453387662715045
 20
-1.426485245013601
 30
0.0
 40
0.3166708955817389
 50
16.140759766292561
 51
30.8807834866677986
  0
ARC
  5
8118
  8
0
 10
105.0272809917845933
 20
-1.3774811539324181
 30
0.0
 40
0.2211935199122115
 50
30.880783486667589
 51
44.6697340942483834
  0
ARC
  5
8119
  8
0
 10
105.1830634030976057
 20
-1.223484399968231
 30
0.0
 40
0.0021429323622452
 50
44.6697340942702468
 51
106.6299998064131955
  0
ARC
  5
811A
  8
0
 10
105.1837169098977967
 20
-1.2256723599121839
 30
0.0
 40
0.0044264033724072
 50
106.6299998064105949
 51
121.0272690660365953
  0
ARC
  5
811B
  8
0
 10
105.1238304297753956
 20
-1.342260543829404
 30
0.0
 40
0.0510725097941571
 50
40.8775531875247324
 51
48.4088150471571126
  0
ARC
  5
811C
  8
0
 10
104.838527049244604
 20
-1.5892025081817449
 30
0.0
 40
0.4284030713717979
 50
38.8411523692212484
 51
40.8775531875245619
  0
ARC
  5
811D
  8
0
 10
105.0244877046094985
 20
-1.4394662671571681
 30
0.0
 40
0.1896515117540605
 50
36.1309572208375869
 51
38.841152369221291
  0
ARC
  5
811E
  8
0
 10
105.0752505775858054
 20
-1.4024073149074949
 30
0.0
 40
0.1268006150647382
 50
33.5790327887474476
 51
36.1309572208375869
  0
ARC
  5
811F
  8
0
 10
105.1705849055636008
 20
-1.3391176140486849
 30
0.0
 40
0.0123706350516959
 50
24.0899609266022701
 51
33.5790327887467015
  0
ARC
  5
8120
  8
0
 10
105.1811973724767029
 20
-1.3343726595462071
 30
0.0
 40
0.0007457029137343
 50
359.2260088546224779
 51
24.0899609266047783
  0
ARC
  5
8121
  8
0
 10
105.1818785052233949
 20
-1.334381861319702
 30
0.0
 40
0.0000645080141621
 50
286.6427955218670149
 51
359.2260088541374898
  0
ARC
  5
8122
  8
0
 10
105.1818271444525976
 20
-1.3342100438913851
 30
0.0
 40
0.00024383775917
 50
240.40143804696649
 51
286.6427955217013164
  0
ARC
  5
8123
  8
0
 10
105.184514921222501
 20
-1.329478424623832
 30
0.0
 40
0.0056855621970292
 50
220.7409053903209042
 51
240.4014380469681953
  0
ARC
  5
8124
  8
0
 10
105.2348077735877041
 20
-1.2777350457855079
 30
0.0
 40
0.0778227115064928
 50
221.5262114899292953
 51
225.4442695818401887
  0
ARC
  5
8125
  8
0
 10
105.4096492415084043
 20
-1.12495000395754
 30
0.0
 40
0.3100127628081102
 50
218.7107858590032095
 51
221.2433562776992915
  0
ARC
  5
8126
  8
0
 10
105.3107632297018057
 20
-1.202388596585716
 30
0.0
 40
0.1844269010078094
 50
214.2035585269318005
 51
219.1506863585661904
  0
ARC
  5
8127
  8
0
 10
105.1721556890711042
 20
-1.2969288458612129
 30
0.0
 40
0.0166500148396523
 50
207.9128748558742927
 51
213.2641121805000921
  0
ARC
  5
8128
  8
0
 10
105.1642148171033995
 20
-1.301273083688617
 30
0.0
 40
0.0076002901580572
 50
201.5861237395891123
 51
206.9970161060853115
  0
ARC
  5
8129
  8
0
 10
105.157383459749596
 20
-1.30394884718893
 30
0.0
 40
0.0002648312273054
 50
171.1650097606760141
 51
207.0358312393844926
  0
ARC
  5
812A
  8
0
 10
105.1572886840284013
 20
-1.303934115860329
 30
0.0
 40
0.0001689174671303
 50
139.7975246934331892
 51
171.1650097606456029
  0
ARC
  5
812B
  8
0
 10
105.1572190175735955
 20
-1.303875237982236
 30
0.0
 40
0.0000777033265162
 50
89.3035625068419847
 51
139.7975246930816127
  0
ARC
  5
812C
  8
0
 10
105.1572161546138062
 20
-1.304110761539494
 30
0.0
 40
0.0003132442838038
 50
61.508043164749111
 51
89.3035625069185244
  0
ARC
  5
812D
  8
0
 10
105.1567001889937956
 20
-1.305317752263391
 30
0.0
 40
0.0016247927027268
 50
50.5343928529013127
 51
65.8249619375811221
  0
ARC
  5
812E
  8
0
 10
-3532.1488298032918465
 20
3879.9883198656921195
 30
0.0
 40
5319.1772445261303801
 50
313.1430046048868121
 51
313.1435681508215225
  0
ARC
  5
812F
  8
0
 10
105.233525446840801
 20
-1.16012081590085
 30
0.0
 40
0.0204033236057827
 50
133.1430046048878069
 51
214.298356079794587
  0
ARC
  5
8130
  8
0
 10
105.6113317693451989
 20
-0.9105416266627806
 30
0.0
 40
0.4732006793940307
 50
213.4854162647127964
 51
224.4034186797960899
  0
ARC
  5
8131
  8
0
 10
105.2892352944265042
 20
-1.227576537371128
 30
0.0
 40
0.0212836194302763
 50
221.368854866537788
 51
269.7300213519341128
  0
ARC
  5
8132
  8
0
 10
105.2892267686572012
 20
-1.2293858915191429
 30
0.0
 40
0.0194742451954428
 50
269.730021351933317
 51
305.1112868420520954
  0
ARC
  5
8133
  8
0
 10
106.5849371355224946
 20
-3.072223483561515
 30
0.0
 40
2.233283119779065
 50
124.343058899162699
 51
125.1112868420519959
  0
ARC
  5
8134
  8
0
 10
105.3238984713639042
 20
-1.2265909379284241
 30
0.0
 40
0.0020195456340504
 50
304.3430588991716945
 51
16.1407597662924083
  0
ARC
  5
8135
  8
0
 10
105.0216501642463953
 20
-1.3140634071313599
 30
0.0
 40
0.3166708955817389
 50
16.140759766292561
 51
30.8807834866677986
  0
ARC
  5
8136
  8
0
 10
105.1035923897594984
 20
-1.2650593160501771
 30
0.0
 40
0.2211935199122115
 50
30.880783486667589
 51
44.6697340942483834
  0
ARC
  5
8137
  8
0
 10
105.2593748010724966
 20
-1.11106256208599
 30
0.0
 40
0.0021429323622452
 50
44.6697340942702468
 51
106.6299998064131955
  0
ARC
  5
8138
  8
0
 10
105.2600283078726022
 20
-1.1132505220299429
 30
0.0
 40
0.0044264033724072
 50
106.6299998064105949
 51
121.0272690660365953
  0
ARC
  5
8139
  8
0
 10
105.2001418277503006
 20
-1.229838705947162
 30
0.0
 40
0.0510725097941571
 50
40.8775531875247324
 51
48.4088150471571126
  0
ARC
  5
813A
  8
0
 10
104.9148384472193953
 20
-1.476780670299497
 30
0.0
 40
0.4284030713717979
 50
38.8411523692212484
 51
40.8775531875245619
  0
ARC
  5
813B
  8
0
 10
105.100799102584304
 20
-1.3270444292749271
 30
0.0
 40
0.1896515117540605
 50
36.1309572208375869
 51
38.841152369221291
  0
ARC
  5
813C
  8
0
 10
105.1515619755605968
 20
-1.2899854770252579
 30
0.0
 40
0.1268006150647382
 50
33.5790327887474476
 51
36.1309572208375869
  0
ARC
  5
813D
  8
0
 10
105.2468963035385059
 20
-1.2266957761664401
 30
0.0
 40
0.0123706350516959
 50
24.0899609266022701
 51
33.5790327887467015
  0
ARC
  5
813E
  8
0
 10
105.2575087704515937
 20
-1.221950821663963
 30
0.0
 40
0.0007457029137343
 50
359.2260088546224779
 51
24.0899609266047783
  0
ARC
  5
813F
  8
0
 10
105.2581899031982005
 20
-1.221960023437457
 30
0.0
 40
0.0000645080141621
 50
286.6427955218670149
 51
359.2260088541374898
  0
ARC
  5
8140
  8
0
 10
105.2581385424275027
 20
-1.2217882060091441
 30
0.0
 40
0.00024383775917
 50
240.40143804696649
 51
286.6427955217013164
  0
ARC
  5
8141
  8
0
 10
105.2608263191973066
 20
-1.2170565867415879
 30
0.0
 40
0.0056855621970292
 50
220.7409053903209042
 51
240.4014380469681953
  0
ARC
  5
8142
  8
0
 10
105.3111191715625949
 20
-1.1653132079032631
 30
0.0
 40
0.0778227115064928
 50
221.5262114899292953
 51
225.4442695818401887
  0
ARC
  5
8143
  8
0
 10
105.4859606394832952
 20
-1.0125281660752981
 30
0.0
 40
0.3100127628081102
 50
218.7107858590032095
 51
221.2433562776992915
  0
ARC
  5
8144
  8
0
 10
105.3870746276766965
 20
-1.089966758703472
 30
0.0
 40
0.1844269010078094
 50
214.2035585269318005
 51
219.1506863585661904
  0
ARC
  5
8145
  8
0
 10
105.2484670870458956
 20
-1.1845070079789679
 30
0.0
 40
0.0166500148396523
 50
207.9128748558742927
 51
213.2641121805000921
  0
ARC
  5
8146
  8
0
 10
105.240526215078205
 20
-1.188851245806372
 30
0.0
 40
0.0076002901580572
 50
201.5861237395891123
 51
206.9970161060853115
  0
ARC
  5
8147
  8
0
 10
105.233694857724501
 20
-1.1915270093066921
 30
0.0
 40
0.0002648312273054
 50
171.1650097606760141
 51
207.0358312393844926
  0
ARC
  5
8148
  8
0
 10
105.2336000820032069
 20
-1.191512277978088
 30
0.0
 40
0.0001689174671303
 50
139.7975246934331892
 51
171.1650097606456029
  0
ARC
  5
8149
  8
0
 10
105.2335304155485005
 20
-1.191453400099995
 30
0.0
 40
0.0000777033265162
 50
89.3035625068419847
 51
139.7975246930816127
  0
ARC
  5
814A
  8
0
 10
105.2335275525885976
 20
-1.191688923657249
 30
0.0
 40
0.0003132442838038
 50
61.508043164749111
 51
89.3035625069185244
  0
ARC
  5
814B
  8
0
 10
105.2330115869687006
 20
-1.1928959143811459
 30
0.0
 40
0.0016247927027268
 50
50.5343928529013127
 51
65.8249619375811221
  0
ARC
  5
814C
  8
0
 10
-3532.1027636201479254
 20
3879.8327091748201383
 30
0.0
 40
5319.1772445261303801
 50
313.1430046048868121
 51
313.1435681508215225
  0
ARC
  5
814D
  8
0
 10
105.2795916299841963
 20
-1.3157315067724149
 30
0.0
 40
0.0204033236057827
 50
133.1430046048878069
 51
214.298356079794587
  0
ARC
  5
814E
  8
0
 10
105.6573979524885942
 20
-1.066152317534339
 30
0.0
 40
0.4732006793940307
 50
213.4854162647127964
 51
224.4034186797960899
  0
ARC
  5
814F
  8
0
 10
105.3353014775698995
 20
-1.3831872282426969
 30
0.0
 40
0.0212836194302763
 50
221.368854866537788
 51
269.7300213519341128
  0
ARC
  5
8150
  8
0
 10
105.335292951800497
 20
-1.3849965823907091
 30
0.0
 40
0.0194742451954428
 50
269.730021351933317
 51
305.1112868420520954
  0
ARC
  5
8151
  8
0
 10
106.6310033186659041
 20
-3.227834174433073
 30
0.0
 40
2.233283119779065
 50
124.343058899162699
 51
125.1112868420519959
  0
ARC
  5
8152
  8
0
 10
105.3699646545072994
 20
-1.382201628799993
 30
0.0
 40
0.0020195456340504
 50
304.3430588991716945
 51
16.1407597662924083
  0
ARC
  5
8153
  8
0
 10
105.0677163473897053
 20
-1.4696740980029219
 30
0.0
 40
0.3166708955817389
 50
16.140759766292561
 51
30.8807834866677986
  0
ARC
  5
8154
  8
0
 10
105.1496585729028936
 20
-1.4206700069217351
 30
0.0
 40
0.2211935199122115
 50
30.880783486667589
 51
44.6697340942483834
  0
ARC
  5
8155
  8
0
 10
105.3054409842158066
 20
-1.2666732529575491
 30
0.0
 40
0.0021429323622452
 50
44.6697340942702468
 51
106.6299998064131955
  0
ARC
  5
8156
  8
0
 10
105.3060944910159975
 20
-1.2688612129015091
 30
0.0
 40
0.0044264033724072
 50
106.6299998064105949
 51
121.0272690660365953
  0
ARC
  5
8157
  8
0
 10
105.2462080108935965
 20
-1.385449396818724
 30
0.0
 40
0.0510725097941571
 50
40.8775531875247324
 51
48.4088150471571126
  0
ARC
  5
8158
  8
0
 10
104.9609046303628048
 20
-1.6323913611710661
 30
0.0
 40
0.4284030713717979
 50
38.8411523692212484
 51
40.8775531875245619
  0
ARC
  5
8159
  8
0
 10
105.1468652857276993
 20
-1.482655120146493
 30
0.0
 40
0.1896515117540605
 50
36.1309572208375869
 51
38.841152369221291
  0
ARC
  5
815A
  8
0
 10
105.1976281587040063
 20
-1.4455961678968201
 30
0.0
 40
0.1268006150647382
 50
33.5790327887474476
 51
36.1309572208375869
  0
ARC
  5
815B
  8
0
 10
105.2929624866818017
 20
-1.3823064670380061
 30
0.0
 40
0.0123706350516959
 50
24.0899609266022701
 51
33.5790327887467015
  0
ARC
  5
815C
  8
0
 10
105.3035749535949037
 20
-1.3775615125355321
 30
0.0
 40
0.0007457029137343
 50
359.2260088546224779
 51
24.0899609266047783
  0
ARC
  5
815D
  8
0
 10
105.3042560863415957
 20
-1.377570714309023
 30
0.0
 40
0.0000645080141621
 50
286.6427955218670149
 51
359.2260088541374898
  0
ARC
  5
815E
  8
0
 10
105.3042047255707985
 20
-1.3773988968807021
 30
0.0
 40
0.00024383775917
 50
240.40143804696649
 51
286.6427955217013164
  0
ARC
  5
815F
  8
0
 10
105.3068925023407019
 20
-1.3726672776131501
 30
0.0
 40
0.0056855621970292
 50
220.7409053903209042
 51
240.4014380469681953
  0
ARC
  5
8160
  8
0
 10
105.357185354705905
 20
-1.3209238987748291
 30
0.0
 40
0.0778227115064928
 50
221.5262114899292953
 51
225.4442695818401887
  0
ARC
  5
8161
  8
0
 10
105.5320268226266052
 20
-1.16813885694686
 30
0.0
 40
0.3100127628081102
 50
218.7107858590032095
 51
221.2433562776992915
  0
ARC
  5
8162
  8
0
 10
105.4331408108200065
 20
-1.2455774495750369
 30
0.0
 40
0.1844269010078094
 50
214.2035585269318005
 51
219.1506863585661904
  0
ARC
  5
8163
  8
0
 10
105.2945332701893051
 20
-1.3401176988505299
 30
0.0
 40
0.0166500148396523
 50
207.9128748558742927
 51
213.2641121805000921
  0
ARC
  5
8164
  8
0
 10
105.2865923982216003
 20
-1.3444619366779369
 30
0.0
 40
0.0076002901580572
 50
201.5861237395891123
 51
206.9970161060853115
  0
ARC
  5
8165
  8
0
 10
105.2797610408678963
 20
-1.3471377001782541
 30
0.0
 40
0.0002648312273054
 50
171.1650097606760141
 51
207.0358312393844926
  0
ARC
  5
8166
  8
0
 10
105.2796662651466022
 20
-1.3471229688496491
 30
0.0
 40
0.0001689174671303
 50
139.7975246934331892
 51
171.1650097606456029
  0
ARC
  5
8167
  8
0
 10
105.2795965986917963
 20
-1.3470640909715601
 30
0.0
 40
0.0000777033265162
 50
89.3035625068419847
 51
139.7975246930816127
  0
ARC
  5
8168
  8
0
 10
105.2795937357320071
 20
-1.347299614528811
 30
0.0
 40
0.0003132442838038
 50
61.508043164749111
 51
89.3035625069185244
  0
ARC
  5
8169
  8
0
 10
105.2790777701119964
 20
-1.3485066052527079
 30
0.0
 40
0.0016247927027268
 50
50.5343928529013127
 51
65.8249619375811221
  0
ARC
  5
816A
  8
0
 10
-3532.1266618279541945
 20
3879.7071271229360718
 30
0.0
 40
5319.1772445261303801
 50
313.1430046048868121
 51
313.1435681508215225
  0
ARC
  5
816B
  8
0
 10
105.2556934221792062
 20
-1.4413135586567409
 30
0.0
 40
0.0204033236057827
 50
133.1430046048878069
 51
214.298356079794587
  0
ARC
  5
816C
  8
0
 10
105.6334997446836041
 20
-1.1917343694186679
 30
0.0
 40
0.4732006793940307
 50
213.4854162647127964
 51
224.4034186797960899
  0
ARC
  5
816D
  8
0
 10
105.3114032697648952
 20
-1.508769280127022
 30
0.0
 40
0.0212836194302763
 50
221.368854866537788
 51
269.7300213519341128
  0
ARC
  5
816E
  8
0
 10
105.3113947439956064
 20
-1.510578634275038
 30
0.0
 40
0.0194742451954428
 50
269.730021351933317
 51
305.1112868420520954
  0
ARC
  5
816F
  8
0
 10
106.6071051108608998
 20
-3.3534162263174059
 30
0.0
 40
2.233283119779065
 50
124.343058899162699
 51
125.1112868420519959
  0
ARC
  5
8170
  8
0
 10
105.3460664467022951
 20
-1.507783680684319
 30
0.0
 40
0.0020195456340504
 50
304.3430588991716945
 51
16.1407597662924083
  0
ARC
  5
8171
  8
0
 10
105.043818139584701
 20
-1.595256149887248
 30
0.0
 40
0.3166708955817389
 50
16.140759766292561
 51
30.8807834866677986
  0
ARC
  5
8172
  8
0
 10
105.1257603650979036
 20
-1.5462520588060711
 30
0.0
 40
0.2211935199122115
 50
30.880783486667589
 51
44.6697340942483834
  0
ARC
  5
8173
  8
0
 10
105.2815427764109018
 20
-1.392255304841878
 30
0.0
 40
0.0021429323622452
 50
44.6697340942702468
 51
106.6299998064131955
  0
ARC
  5
8174
  8
0
 10
105.2821962832109932
 20
-1.3944432647858309
 30
0.0
 40
0.0044264033724072
 50
106.6299998064105949
 51
121.0272690660365953
  0
ARC
  5
8175
  8
0
 10
105.2223098030887058
 20
-1.5110314487030501
 30
0.0
 40
0.0510725097941571
 50
40.8775531875247324
 51
48.4088150471571126
  0
ARC
  5
8176
  8
0
 10
104.9370064225578005
 20
-1.7579734130553919
 30
0.0
 40
0.4284030713717979
 50
38.8411523692212484
 51
40.8775531875245619
  0
ARC
  5
8177
  8
0
 10
105.122967077922695
 20
-1.6082371720308151
 30
0.0
 40
0.1896515117540605
 50
36.1309572208375869
 51
38.841152369221291
  0
ARC
  5
8178
  8
0
 10
105.173729950899002
 20
-1.571178219781149
 30
0.0
 40
0.1268006150647382
 50
33.5790327887474476
 51
36.1309572208375869
  0
ARC
  5
8179
  8
0
 10
105.2690642788768969
 20
-1.507888518922335
 30
0.0
 40
0.0123706350516959
 50
24.0899609266022701
 51
33.5790327887467015
  0
ARC
  5
817A
  8
0
 10
105.2796767457899989
 20
-1.5031435644198581
 30
0.0
 40
0.0007457029137343
 50
359.2260088546224779
 51
24.0899609266047783
  0
ARC
  5
817B
  8
0
 10
105.2803578785366057
 20
-1.5031527661933519
 30
0.0
 40
0.0000645080141621
 50
286.6427955218670149
 51
359.2260088541374898
  0
ARC
  5
817C
  8
0
 10
105.2803065177658937
 20
-1.502980948765035
 30
0.0
 40
0.00024383775917
 50
240.4014380469666037
 51
286.6427955217013164
  0
ARC
  5
817D
  8
0
 10
105.2829942945356976
 20
-1.498249329497479
 30
0.0
 40
0.0056855621970292
 50
220.7409053903209042
 51
240.4014380469681953
  0
ARC
  5
817E
  8
0
 10
105.3332871469010001
 20
-1.446505950659158
 30
0.0
 40
0.0778227115064928
 50
221.5262114899292953
 51
225.4442695818401887
  0
ARC
  5
817F
  8
0
 10
105.5081286148217004
 20
-1.2937209088311861
 30
0.0
 40
0.3100127628081102
 50
218.7107858590032095
 51
221.2433562776992915
  0
ARC
  5
8180
  8
0
 10
105.4092426030151017
 20
-1.3711595014593629
 30
0.0
 40
0.1844269010078094
 50
214.2035585269318005
 51
219.1506863585661904
  0
ARC
  5
8181
  8
0
 10
105.2706350623843008
 20
-1.465699750734859
 30
0.0
 40
0.0166500148396523
 50
207.9128748558742927
 51
213.2641121805000921
  0
ARC
  5
8182
  8
0
 10
105.262694190416596
 20
-1.4700439885622629
 30
0.0
 40
0.0076002901580572
 50
201.5861237395891123
 51
206.9970161060853115
  0
ARC
  5
8183
  8
0
 10
105.2558628330629062
 20
-1.4727197520625801
 30
0.0
 40
0.0002648312273054
 50
171.1650097606760141
 51
207.0358312393844926
  0
ARC
  5
8184
  8
0
 10
105.2557680573415979
 20
-1.4727050207339749
 30
0.0
 40
0.0001689174671303
 50
139.7975246934331892
 51
171.1650097606456029
  0
ARC
  5
8185
  8
0
 10
105.2556983908868062
 20
-1.472646142855889
 30
0.0
 40
0.0000777033265162
 50
89.3035625068419847
 51
139.7975246930816127
  0
ARC
  5
8186
  8
0
 10
105.2556955279270028
 20
-1.4728816664131399
 30
0.0
 40
0.0003132442838038
 50
61.508043164749111
 51
89.3035625069185244
  0
ARC
  5
8187
  8
0
 10
105.2551795623071058
 20
-1.474088657137034
 30
0.0
 40
0.0016247927027268
 50
50.5343928529013127
 51
65.8249619375811221
  0
ARC
  5
8188
  8
0
 10
105.4744270790396001
 20
-1.4446872790042731
 30
0.0
 40
0.000720140486554
 50
149.4110361107514109
 51
205.4171520123481969
  0
ARC
  5
8189
  8
0
 10
105.4851763943590015
 20
-1.4405932946448941
 30
0.0
 40
0.0122205308678812
 50
201.1186984455150935
 51
214.7289695430050074
  0
ARC
  5
818A
  8
0
 10
105.5379691305406027
 20
-1.404775140010436
 30
0.0
 40
0.076016672409683
 50
214.2477877294506925
 51
220.9581385228144939
  0
ARC
  5
818B
  8
0
 10
105.6002257193088951
 20
-1.3524169823876979
 30
0.0
 40
0.1573584274793689
 50
220.4959438575536126
 51
226.7574939305993098
  0
ARC
  5
818C
  8
0
 10
105.5363349008465974
 20
-1.420803696067295
 30
0.0
 40
0.0637713356569585
 50
226.4799102974257892
 51
232.8591042365609098
  0
ARC
  5
818D
  8
0
 10
105.5044687556520984
 20
-1.4630153791205021
 30
0.0
 40
0.0108824351139596
 50
232.4155272751038126
 51
246.473488653069893
  0
ARC
  5
818E
  8
0
 10
105.5004505351756023
 20
-1.4722574662572501
 30
0.0
 40
0.0008046410073431
 50
246.1183662077328904
 51
292.6103355762788283
  0
ARC
  5
818F
  8
0
 10
105.5005540190931015
 20
-1.472730232595427
 30
0.0
 40
0.0003395570050733
 50
307.3216924832402128
 51
356.5940241305748941
  0
ARC
  5
8190
  8
0
 10
105.4983622542446966
 20
-1.4728087718446219
 30
0.0
 40
0.0025313950301717
 50
1.3211774128655811
 51
22.8628013852793188
  0
ARC
  5
8191
  8
0
 10
105.4922750110029028
 20
-1.475527089686135
 30
0.0
 40
0.0091976090848065
 50
23.7331465798228791
 51
33.6370081227725919
  0
ARC
  5
8192
  8
0
 10
105.4320787331547962
 20
-1.515402408478703
 30
0.0
 40
0.0814030833603009
 50
33.5344216119021183
 51
42.4096885587818093
  0
ARC
  5
8193
  8
0
 10
105.376930895945506
 20
-1.5624107844829671
 30
0.0
 40
0.1538448098956391
 50
41.4841782204057807
 51
46.8384450893654005
  0
ARC
  5
8194
  8
0
 10
105.4461304765778067
 20
-1.487461492844804
 30
0.0
 40
0.0518442731456717
 50
45.9614158362857026
 51
54.70329602610785
  0
ARC
  5
8195
  8
0
 10
105.4708668968793006
 20
-1.4526663495242109
 30
0.0
 40
0.0091529111685973
 50
55.2300034369784569
 51
66.6233142842392994
  0
ARC
  5
8196
  8
0
 10
105.4741560360945982
 20
-1.4452939844709889
 30
0.0
 40
0.0010847314601206
 50
71.594026766117139
 51
101.0843246068047989
  0
ARC
  5
8197
  8
0
 10
105.4740248842136054
 20
-1.4445019013166771
 30
0.0
 40
0.0002831929940663
 50
105.8596545745075019
 51
140.250105624801904
  0
LINE
  5
8198
  8
0
 10
105.4809954708665032
 20
-1.4627444375511049
 30
0.0
 11
105.4512876715303946
 21
-1.4951105492335399
 31
0.0
  0
ARC
  5
8199
  8
0
 10
105.4665804460002931
 20
-1.509147288638697
 30
0.0
 40
0.020758106949226
 50
137.4521907328945929
 51
196.4063200594574141
  0
ARC
  5
819A
  8
0
 10
105.4966184447158071
 20
-1.4978664791804941
 30
0.0
 40
0.0528110259039795
 50
198.9429729904902047
 51
212.8460099480311953
  0
ARC
  5
819B
  8
0
 10
105.685359016031498
 20
-1.361036735217801
 30
0.0
 40
0.2858691889384243
 50
215.3692481326905011
 51
222.6596095301142952
  0
ARC
  5
819C
  8
0
 10
105.7588108810444965
 20
-1.2933531132580669
 30
0.0
 40
0.385750364119128
 50
222.6596095301142952
 51
227.3654090167603101
  0
ARC
  5
819D
  8
0
 10
105.5846675637494059
 20
-1.482503227066331
 30
0.0
 40
0.1286440427028296
 50
227.3654090167603101
 51
235.594901558838302
  0
ARC
  5
819E
  8
0
 10
105.5268465289905038
 20
-1.566932601015032
 30
0.0
 40
0.0263132494587549
 50
235.5949015588373072
 51
276.6736388946786747
  0
ARC
  5
819F
  8
0
 10
105.5278662597319936
 20
-1.575647757549653
 30
0.0
 40
0.0175386381164779
 50
276.6736388946770262
 51
311.1007095607797055
  0
LINE
  5
81A0
  8
0
 10
105.5393958899489064
 20
-1.588864090401148
 30
0.0
 11
105.5682757514451993
 21
-1.5654829744764269
 31
0.0
  0
ARC
  5
81A1
  8
0
 10
105.5648771279731051
 20
-1.560547955790045
 30
0.0
 40
0.0059931558050165
 50
304.5489261872929774
 51
357.9999529021283138
  0
ARC
  5
81A2
  8
0
 10
105.453170221958203
 20
-1.581447891663025
 30
0.0
 40
0.1195012685730805
 50
9.9705930709675918
 51
45.0583328011692927
  0
ARC
  5
81A3
  8
0
 10
105.4882209309516981
 20
-1.4734014085613261
 30
0.0
 40
0.0128763961347044
 50
115.0748579170210064
 51
124.1381849109396001
  0
ARC
  5
81A4
  8
0
 10
105.4518004218371061
 20
-1.5272910778579101
 30
0.0
 40
0.0056888454666326
 50
51.8358587377563396
 51
89.0138854234596693
  0
ARC
  5
81A5
  8
0
 10
105.4078805099102993
 20
-1.5952675489598489
 30
0.0
 40
0.0865967232740074
 50
47.5259355710286187
 51
56.7857959745609691
  0
ARC
  5
81A6
  8
0
 10
105.2623390480083003
 20
-1.759094463441925
 30
0.0
 40
0.3057280414835309
 50
43.3328812437394788
 51
48.1399424103405522
  0
ARC
  5
81A7
  8
0
 10
105.2467165187333933
 20
-1.7763485852467651
 30
0.0
 40
0.3289370278691489
 50
38.9654177673901998
 51
43.6515617812609591
  0
ARC
  5
81A8
  8
0
 10
105.4092434921327026
 20
-1.6457115392300059
 30
0.0
 40
0.1204185273074795
 50
32.4545280805961767
 51
39.2659513847606334
  0
ARC
  5
81A9
  8
0
 10
105.493272246783107
 20
-1.5922402105235589
 30
0.0
 40
0.0208192794838546
 50
19.6633876902581584
 51
32.3783245136989706
  0
ARC
  5
81AA
  8
0
 10
105.5108984577832985
 20
-1.5861133377506349
 30
0.0
 40
0.0021653067431418
 50
347.4769310250258059
 51
23.9412614409851514
  0
ARC
  5
81AB
  8
0
 10
105.5122274361990975
 20
-1.586293295717869
 30
0.0
 40
0.000836523443335
 50
266.5419130010350273
 51
339.7488122826688937
  0
ARC
  5
81AC
  8
0
 10
105.5140612032937071
 20
-1.577600226440669
 30
0.0
 40
0.0097125904327579
 50
232.5522923765975065
 51
258.8137942587342195
  0
ARC
  5
81AD
  8
0
 10
105.7066494194564967
 20
-1.3068431842425241
 30
0.0
 40
0.3419710529983752
 50
232.7448675999688987
 51
234.5184725681546922
  0
ARC
  5
81AE
  8
0
 10
105.4521025273939046
 20
-1.5223365667098641
 30
0.0
 40
0.0007613854564311
 50
105.5569030364606959
 51
178.5641614818676999
  0
ARC
  5
81AF
  8
0
 10
105.4615488191004005
 20
-1.520944027663752
 30
0.0
 40
0.0102994265196141
 50
187.6633994534809915
 51
213.4674174120519865
  0
ARC
  5
81B0
  8
0
 10
105.3823563462321005
 20
-1.5700778114326781
 30
0.0
 40
0.0829018175250213
 50
28.2511551800694214
 51
31.6118887118177092
  0
ARC
  5
81B1
  8
0
 10
105.4693050436404036
 20
-1.5403990231891631
 30
0.0
 40
0.000720140486554
 50
149.4110361107514109
 51
205.4171520123481969
  0
ARC
  5
81B2
  8
0
 10
105.480054358959805
 20
-1.5363050388297841
 30
0.0
 40
0.0122205308678812
 50
201.1186984455150935
 51
214.7289695430050074
  0
ARC
  5
81B3
  8
0
 10
105.5328470951414062
 20
-1.5004868841953281
 30
0.0
 40
0.076016672409683
 50
214.2477877294506925
 51
220.9581385228144939
  0
ARC
  5
81B4
  8
0
 10
105.5951036839097981
 20
-1.4481287265725871
 30
0.0
 40
0.1573584274793689
 50
220.4959438575536126
 51
226.7574939305993098
  0
ARC
  5
81B5
  8
0
 10
105.5312128654474009
 20
-1.516515440252181
 30
0.0
 40
0.0637713356569585
 50
226.4799102974257039
 51
232.8591042365609098
  0
ARC
  5
81B6
  8
0
 10
105.4993467202529018
 20
-1.5587271233053881
 30
0.0
 40
0.0108824351139596
 50
232.4155272751038126
 51
246.473488653069893
  0
ARC
  5
81B7
  8
0
 10
105.4953284997764058
 20
-1.567969210442143
 30
0.0
 40
0.0008046410073431
 50
246.1183662077328904
 51
292.6103355762788283
  0
ARC
  5
81B8
  8
0
 10
105.4954319836940044
 20
-1.568441976780317
 30
0.0
 40
0.0003395570050733
 50
307.3216924832402128
 51
356.5940241305748941
  0
ARC
  5
81B9
  8
0
 10
105.4932402188455001
 20
-1.568520516029515
 30
0.0
 40
0.0025313950301717
 50
1.3211774128655811
 51
22.8628013852793188
  0
ARC
  5
81BA
  8
0
 10
105.4871529756037063
 20
-1.5712388338710239
 30
0.0
 40
0.0091976090848065
 50
23.7331465798228791
 51
33.6370081227725919
  0
ARC
  5
81BB
  8
0
 10
105.4269566977555996
 20
-1.6111141526635919
 30
0.0
 40
0.0814030833603009
 50
33.5344216119021183
 51
42.4096885587818093
  0
ARC
  5
81BC
  8
0
 10
105.3718088605463947
 20
-1.658122528667856
 30
0.0
 40
0.1538448098956391
 50
41.4841782204057807
 51
46.8384450893654005
  0
ARC
  5
81BD
  8
0
 10
105.4410084411785959
 20
-1.583173237029694
 30
0.0
 40
0.0518442731456717
 50
45.9614158362857026
 51
54.70329602610785
  0
ARC
  5
81BE
  8
0
 10
105.4657448614801041
 20
-1.5483780937091041
 30
0.0
 40
0.0091529111685973
 50
55.2300034369784569
 51
66.6233142842392994
  0
ARC
  5
81BF
  8
0
 10
105.4690340006954017
 20
-1.541005728655878
 30
0.0
 40
0.0010847314601206
 50
71.594026766117139
 51
101.0843246068047989
  0
ARC
  5
81C0
  8
0
 10
105.4689028488143947
 20
-1.54021364550157
 30
0.0
 40
0.0002831929940663
 50
105.8596545745075019
 51
140.250105624801904
  0
LINE
  5
81C1
  8
0
 10
105.4739945064492019
 20
-1.5535107263785759
 30
0.0
 11
105.4482875270320932
 21
-1.581518016902538
 31
0.0
  0
ARC
  5
81C2
  8
0
 10
105.4635803015020059
 20
-1.5955547563076911
 30
0.0
 40
0.020758106949226
 50
137.4521907328945929
 51
196.4063200594574141
  0
ARC
  5
81C3
  8
0
 10
105.4936183002175056
 20
-1.584273946849492
 30
0.0
 40
0.0528110259039795
 50
198.9429729904902047
 51
212.8460099480311953
  0
ARC
  5
81C4
  8
0
 10
105.6823588715331965
 20
-1.447444202886796
 30
0.0
 40
0.2858691889384243
 50
215.3692481326905011
 51
222.6596095301142952
  0
ARC
  5
81C5
  8
0
 10
105.755810736546195
 20
-1.379760580927065
 30
0.0
 40
0.385750364119128
 50
222.6596095301142952
 51
227.3654090167603101
  0
ARC
  5
81C6
  8
0
 10
105.5816674192511044
 20
-1.5689106947353251
 30
0.0
 40
0.1286440427028296
 50
227.3654090167603101
 51
235.594901558838302
  0
ARC
  5
81C7
  8
0
 10
105.5238463844922023
 20
-1.6533400686840301
 30
0.0
 40
0.0263132494587549
 50
235.5949015588373072
 51
276.6736388946786747
  0
ARC
  5
81C8
  8
0
 10
105.5248661152337064
 20
-1.6620552252186509
 30
0.0
 40
0.0175386381164779
 50
276.6736388946770262
 51
311.1007095607797055
  0
LINE
  5
81C9
  8
0
 10
105.536395745450605
 20
-1.675271558070146
 30
0.0
 11
105.5652756069468978
 21
-1.651890442145425
 31
0.0
  0
ARC
  5
81CA
  8
0
 10
105.5618769834747042
 20
-1.6469554234590431
 30
0.0
 40
0.0059931558050165
 50
304.5489261872929774
 51
357.9999529021283138
  0
ARC
  5
81CB
  8
0
 10
105.4501700774599016
 20
-1.6678553593320229
 30
0.0
 40
0.1195012685730805
 50
9.9705930709675918
 51
41.5112842820765522
  0
ARC
  5
81CC
  8
0
 10
105.4488002773388047
 20
-1.6136985455269039
 30
0.0
 40
0.0056888454666326
 50
51.8358587377563396
 51
89.0138854234596693
  0
ARC
  5
81CD
  8
0
 10
105.4048803654119979
 20
-1.6816750166288441
 30
0.0
 40
0.0865967232740074
 50
47.5259355710286187
 51
56.7857959745609691
  0
ARC
  5
81CE
  8
0
 10
105.2593389035099989
 20
-1.84550193111092
 30
0.0
 40
0.3057280414835309
 50
43.3328812437394788
 51
48.1399424103405522
  0
ARC
  5
81CF
  8
0
 10
105.2437163742351061
 20
-1.862756052915763
 30
0.0
 40
0.3289370278691489
 50
38.9654177673901998
 51
43.6515617812609591
  0
ARC
  5
81D0
  8
0
 10
105.4062433476343017
 20
-1.732119006899004
 30
0.0
 40
0.1204185273074795
 50
32.4545280805961767
 51
39.2659513847606334
  0
ARC
  5
81D1
  8
0
 10
105.4902721022848056
 20
-1.678647678192557
 30
0.0
 40
0.0208192794838546
 50
19.6633876902581584
 51
32.3783245136989706
  0
ARC
  5
81D2
  8
0
 10
105.507898313284997
 20
-1.672520805419633
 30
0.0
 40
0.0021653067431418
 50
347.4769310250258059
 51
23.9412614409851514
  0
ARC
  5
81D3
  8
0
 10
105.5092272917007961
 20
-1.6727007633868669
 30
0.0
 40
0.000836523443335
 50
266.5419130010350273
 51
339.7488122826688937
  0
ARC
  5
81D4
  8
0
 10
105.5110610587954056
 20
-1.6640076941096671
 30
0.0
 40
0.0097125904327579
 50
232.5522923765975065
 51
258.8137942587342195
  0
ARC
  5
81D5
  8
0
 10
105.7036492749581953
 20
-1.393250651911518
 30
0.0
 40
0.3419710529983752
 50
232.7448675999688987
 51
234.5184725681546922
  0
ARC
  5
81D6
  8
0
 10
105.4491023828956031
 20
-1.6087440343788579
 30
0.0
 40
0.0007613854564311
 50
105.5569030364606959
 51
178.5641614818676999
  0
ARC
  5
81D7
  8
0
 10
105.458548674602099
 20
-1.6073514953327459
 30
0.0
 40
0.0102994265196141
 50
187.6633994534809915
 51
213.4674174120519865
  0
ARC
  5
81D8
  8
0
 10
105.3793562017336995
 20
-1.6564852791016731
 30
0.0
 40
0.0829018175250213
 50
28.2511551800694214
 51
31.6118887118177092
  0
ARC
  5
81D9
  8
0
 10
105.4663048991421022
 20
-1.626806490858157
 30
0.0
 40
0.000720140486554
 50
149.4110361107514109
 51
205.4171520123481969
  0
ARC
  5
81DA
  8
0
 10
105.4770542144614041
 20
-1.622712506498782
 30
0.0
 40
0.0122205308678812
 50
201.1186984455150935
 51
214.7289695430050074
  0
ARC
  5
81DB
  8
0
 10
105.5298469506431047
 20
-1.586894351864327
 30
0.0
 40
0.076016672409683
 50
214.2477877294506925
 51
220.9581385228144939
  0
ARC
  5
81DC
  8
0
 10
105.5921035394113972
 20
-1.5345361942415821
 30
0.0
 40
0.1573584274793689
 50
220.4959438575536126
 51
226.7574939305993098
  0
ARC
  5
81DD
  8
0
 10
105.5282127209490994
 20
-1.6029229079211751
 30
0.0
 40
0.0637713356569585
 50
226.4799102974257039
 51
232.8591042365609098
  0
ARC
  5
81DE
  8
0
 10
105.4963465757546004
 20
-1.645134590974386
 30
0.0
 40
0.0108824351139596
 50
232.4155272751038126
 51
246.473488653069893
  0
ARC
  5
81DF
  8
0
 10
105.4923283552781044
 20
-1.6543766781111371
 30
0.0
 40
0.0008046410073431
 50
246.1183662077328904
 51
292.6103355762788283
  0
ARC
  5
81E0
  8
0
 10
105.4924318391956035
 20
-1.6548494444493149
 30
0.0
 40
0.0003395570050733
 50
307.3216924832402128
 51
356.5940241305748941
  0
ARC
  5
81E1
  8
0
 10
105.4902400743471986
 20
-1.6549279836985129
 30
0.0
 40
0.0025313950301717
 50
1.3211774128655811
 51
22.8628013852793188
  0
ARC
  5
81E2
  8
0
 10
105.4841528311054049
 20
-1.657646301540022
 30
0.0
 40
0.0091976090848065
 50
23.7331465798228791
 51
33.6370081227725919
  0
ARC
  5
81E3
  8
0
 10
105.4239565532572982
 20
-1.69752162033259
 30
0.0
 40
0.0814030833603009
 50
33.5344216119021183
 51
42.4096885587818093
  0
ARC
  5
81E4
  8
0
 10
105.3688087160479938
 20
-1.7445299963368539
 30
0.0
 40
0.1538448098956391
 50
41.4841782204057807
 51
46.8384450893654005
  0
ARC
  5
81E5
  8
0
 10
105.4380082966802945
 20
-1.6695807046986919
 30
0.0
 40
0.0518442731456717
 50
45.9614158362857026
 51
54.70329602610785
  0
ARC
  5
81E6
  8
0
 10
105.4627447169818026
 20
-1.6347855613781019
 30
0.0
 40
0.0091529111685973
 50
55.2300034369784569
 51
66.6233142842392994
  0
ARC
  5
81E7
  8
0
 10
105.4660338561971002
 20
-1.627413196324877
 30
0.0
 40
0.0010847314601206
 50
71.594026766117139
 51
101.0843246068047989
  0
ARC
  5
81E8
  8
0
 10
105.4659027043160933
 20
-1.6266211131705679
 30
0.0
 40
0.0002831929940663
 50
105.8596545745075019
 51
140.250105624801904
  0
ARC
  5
81E9
  8
0
 10
-3532.0302864454051814
 20
3879.5712856125928738
 30
0.0
 40
5319.1772445261303801
 50
313.1430046048868121
 51
313.1435681508215225
  0
ARC
  5
81EA
  8
0
 10
105.3520688047281055
 20
-1.5771550690005851
 30
0.0
 40
0.0204033236057827
 50
133.1430046048878069
 51
214.298356079794587
  0
ARC
  5
81EB
  8
0
 10
105.7298751272325035
 20
-1.327575879762509
 30
0.0
 40
0.4732006793940307
 50
213.4854162647127964
 51
224.4034186797960899
  0
ARC
  5
81EC
  8
0
 10
105.4077786523137945
 20
-1.6446107904708669
 30
0.0
 40
0.0212836194302763
 50
221.368854866537788
 51
269.7300213519341128
  0
ARC
  5
81ED
  8
0
 10
105.4077701265445057
 20
-1.6464201446188791
 30
0.0
 40
0.0194742451954428
 50
269.730021351933317
 51
305.1112868420520954
  0
ARC
  5
81EE
  8
0
 10
106.7034804934097991
 20
-3.4892577366612469
 30
0.0
 40
2.233283119779065
 50
124.343058899162699
 51
125.1112868420519959
  0
ARC
  5
81EF
  8
0
 10
105.4424418292511945
 20
-1.643625191028167
 30
0.0
 40
0.0020195456340504
 50
304.3430588991716945
 51
16.1407597662924083
  0
ARC
  5
81F0
  8
0
 10
105.1401935221336004
 20
-1.7310976602310959
 30
0.0
 40
0.3166708955817389
 50
16.140759766292561
 51
30.8807834866677986
  0
ARC
  5
81F1
  8
0
 10
105.2221357476468029
 20
-1.682093569149913
 30
0.0
 40
0.2211935199122115
 50
30.880783486667589
 51
44.6697340942483834
  0
ARC
  5
81F2
  8
0
 10
105.3779181589598011
 20
-1.528096815185723
 30
0.0
 40
0.0021429323622452
 50
44.6697340942702468
 51
106.6299998064131955
  0
ARC
  5
81F3
  8
0
 10
105.3785716657599068
 20
-1.5302847751296791
 30
0.0
 40
0.0044264033724072
 50
106.6299998064105949
 51
121.0272690660365953
  0
ARC
  5
81F4
  8
0
 10
105.3186851856375057
 20
-1.646872959046898
 30
0.0
 40
0.0510725097941571
 50
40.8775531875247324
 51
48.4088150471571126
  0
ARC
  5
81F5
  8
0
 10
105.0333818051066999
 20
-1.8938149233992361
 30
0.0
 40
0.4284030713717979
 50
38.8411523692212484
 51
40.8775531875245619
  0
ARC
  5
81F6
  8
0
 10
105.2193424604715943
 20
-1.744078682374663
 30
0.0
 40
0.1896515117540605
 50
36.1309572208375869
 51
38.841152369221291
  0
ARC
  5
81F7
  8
0
 10
105.2701053334479013
 20
-1.7070197301249901
 30
0.0
 40
0.1268006150647382
 50
33.5790327887474476
 51
36.1309572208375869
  0
ARC
  5
81F8
  8
0
 10
105.3654396614256967
 20
-1.6437300292661761
 30
0.0
 40
0.0123706350516959
 50
24.0899609266022701
 51
33.5790327887467015
  0
ARC
  5
81F9
  8
0
 10
105.3760521283388982
 20
-1.638985074763702
 30
0.0
 40
0.0007457029137343
 50
359.2260088546224779
 51
24.0899609266047783
  0
ARC
  5
81FA
  8
0
 10
105.376733261085505
 20
-1.638994276537193
 30
0.0
 40
0.0000645080141621
 50
286.6427955218670149
 51
359.2260088541374898
  0
ARC
  5
81FB
  8
0
 10
105.376681900314793
 20
-1.638822459108876
 30
0.0
 40
0.00024383775917
 50
240.40143804696649
 51
286.6427955217013164
  0
ARC
  5
81FC
  8
0
 10
105.3793696770845969
 20
-1.634090839841327
 30
0.0
 40
0.0056855621970292
 50
220.7409053903209042
 51
240.4014380469681953
  0
ARC
  5
81FD
  8
0
 10
105.4296625294498995
 20
-1.5823474610029991
 30
0.0
 40
0.0778227115064928
 50
221.5262114899292953
 51
225.4442695818401887
  0
ARC
  5
81FE
  8
0
 10
105.6045039973705997
 20
-1.429562419175034
 30
0.0
 40
0.3100127628081102
 50
218.7107858590032095
 51
221.2433562776992915
  0
ARC
  5
81FF
  8
0
 10
105.5056179855640011
 20
-1.5070010118032111
 30
0.0
 40
0.1844269010078094
 50
214.2035585269318005
 51
219.1506863585661904
  0
ARC
  5
8200
  8
0
 10
105.3670104449332001
 20
-1.6015412610787041
 30
0.0
 40
0.0166500148396523
 50
207.9128748558742927
 51
213.2641121805000921
  0
ARC
  5
8201
  8
0
 10
105.3590695729654954
 20
-1.605885498906108
 30
0.0
 40
0.0076002901580572
 50
201.5861237395891123
 51
206.9970161060853115
  0
ARC
  5
8202
  8
0
 10
105.3522382156118056
 20
-1.6085612624064249
 30
0.0
 40
0.0002648312273054
 50
171.1650097606760141
 51
207.0358312393844926
  0
ARC
  5
8203
  8
0
 10
105.3521434398904972
 20
-1.6085465310778231
 30
0.0
 40
0.0001689174671303
 50
139.7975246934331892
 51
171.1650097606456029
  0
ARC
  5
8204
  8
0
 10
105.3520737734357056
 20
-1.6084876531997301
 30
0.0
 40
0.0000777033265162
 50
89.3035625068419847
 51
139.7975246930816127
  0
ARC
  5
8205
  8
0
 10
105.3520709104759021
 20
-1.608723176756981
 30
0.0
 40
0.0003132442838038
 50
61.508043164749111
 51
89.3035625069185244
  0
ARC
  5
8206
  8
0
 10
105.3515549448560051
 20
-1.6099301674808819
 30
0.0
 40
0.0016247927027268
 50
50.5343928529013127
 51
65.8249619375811221
  0
LINE
  5
8207
  8
0
 10
105.4745586609118959
 20
-1.643769318224588
 30
0.0
 11
105.466971531866804
 21
-1.6524186157323371
 31
0.0
  0
ARC
  5
8208
  8
0
 10
105.4842441511743942
 20
-1.6675700880358979
 30
0.0
 40
0.0229763028077073
 50
138.7428910793524892
 51
214.5101123126665925
  0
ARC
  5
8209
  8
0
 10
106.2187401144337997
 20
-0.9942156114932423
 30
0.0
 40
1.0191964881957489
 50
222.3334325866937036
 51
227.4258040794570093
  0
ARC
  5
820A
  8
0
 10
105.5494109322216048
 20
-1.7156329883354531
 30
0.0
 40
0.0354423713519983
 50
235.2491243534842056
 51
257.3389367998109947
  0
ARC
  5
820B
  8
0
 10
105.5448091204088001
 20
-1.736117737081958
 30
0.0
 40
0.0144470956174918
 50
257.3389367998136095
 51
320.3597174795132219
  0
LINE
  5
820C
  8
0
 10
105.5559343216999935
 20
-1.745334486401098
 30
0.0
 11
105.5856149833845024
 21
-1.720380658969727
 31
0.0
  0
ARC
  5
820D
  8
0
 10
105.5841380242441971
 20
-1.71878598823201
 30
0.0
 40
0.0021743938355625
 50
313.2847246395382967
 51
10.7437243065856602
  0
ARC
  5
820E
  8
0
 10
105.4149329488256939
 20
-1.7997063915018989
 30
0.0
 40
0.1896621641873977
 50
25.3909643952003705
 51
45.1331072905953903
  0
LINE
  5
820F
  8
0
 10
105.5519918967974036
 20
-1.7486527398794001
 30
0.0
 11
105.5894451855638039
 21
-1.7860298438383131
 31
0.0
  0
LINE
  5
8210
  8
0
 10
105.5988498190521057
 20
-1.775119538357987
 30
0.0
 11
105.5721036137128976
 21
-1.8061477830711461
 31
0.0
  0
ARC
  5
8211
  8
0
 10
105.5873717901953057
 20
-1.819308881519599
 30
0.0
 40
0.0201576716281076
 50
139.2388117085286865
 51
223.9324591927897075
  0
ARC
  5
8212
  8
0
 10
107.468919503629607
 20
0.0091174518210018
 30
0.0
 40
2.643774197990266
 50
224.1777798052384867
 51
226.285978245894313
  0
ARC
  5
8213
  8
0
 10
105.6557625629849042
 20
-1.8871888066946481
 30
0.0
 40
0.0201289205367165
 50
226.5312988583416995
 51
310.1779109014431128
  0
LINE
  5
8214
  8
0
 10
105.6687490012756001
 20
-1.9025682040331731
 30
0.0
 11
105.699684430363007
 21
-1.8758039289268811
 31
0.0
  0
ARC
  5
8215
  8
0
 10
105.6991586374471979
 20
-1.8751581946746321
 30
0.0
 40
0.0008327249934561
 50
309.1544065812465192
 51
343.5558468019510201
  0
ARC
  5
8216
  8
0
 10
105.6559877082709988
 20
-1.8911172898480679
 30
0.0
 40
0.0466963524054156
 50
19.6768659300773905
 51
42.7544487569107119
  0
ARC
  5
8217
  8
0
 10
105.2916776561575034
 20
-2.1880582374722151
 30
0.0
 40
0.5166093075200666
 50
39.5053470362475565
 51
45.3877847577344582
  0
ARC
  5
8218
  8
0
 10
105.2915744585982054
 20
-2.1791358048078422
 30
0.0
 40
0.510369492119976
 50
44.6760470704220793
 51
51.1063474717073589
  0
ARC
  5
8219
  8
0
 10
105.5829254264061063
 20
-1.817902359358907
 30
0.0
 40
0.0462844102659344
 50
51.0469884973101671
 51
68.5333057565840704
  0
ARC
  5
821A
  8
0
 10
105.5996512359564008
 20
-1.7760006038673981
 30
0.0
 40
0.0011910270720349
 50
79.7249519275608094
 51
132.2896451117464949
  0
ARC
  5
821B
  8
0
 10
105.7018816088069997
 20
-1.766735248247755
 30
0.0
 40
0.1467558834411644
 50
43.4014538347359604
 51
65.2661163516522578
  0
ARC
  5
821C
  8
0
 10
105.7529625775842987
 20
-1.6558500365012561
 30
0.0
 40
0.0246706855042531
 50
65.2661163516521725
 51
99.6730115170818465
  0
ARC
  5
821D
  8
0
 10
105.7495511625227067
 20
-1.635835676202265
 30
0.0
 40
0.0043676716663858
 50
99.6730115170917372
 51
140.8044925278009032
  0
LINE
  5
821E
  8
0
 10
105.7461662429979015
 20
-1.6330754451257219
 30
0.0
 11
105.7191392393804961
 21
-1.6643707039231641
 31
0.0
  0
ARC
  5
821F
  8
0
 10
105.7374195979893017
 20
-1.678746564429946
 30
0.0
 40
0.0232558998144081
 50
141.8181283666164063
 51
218.8041906102563985
  0
ARC
  5
8220
  8
0
 10
105.9621814320832982
 20
-1.513920964012037
 30
0.0
 40
0.3019555756344503
 50
216.4502344568836918
 51
224.7890085273564011
  0
ARC
  5
8221
  8
0
 10
105.8704264194955016
 20
-1.6134290648919141
 30
0.0
 40
0.1668404495659927
 50
222.7348491837774986
 51
240.7245879989868058
  0
ARC
  5
8222
  8
0
 10
105.7964031642523963
 20
-1.7390379692287961
 30
0.0
 40
0.0213098171532036
 50
249.2120146597511052
 51
310.1386686311918197
  0
LINE
  5
8223
  8
0
 10
105.810140318913497
 20
-1.755329036993746
 30
0.0
 11
105.8403370036512996
 21
-1.7292413281404779
 31
0.0
  0
ARC
  5
8224
  8
0
 10
105.8328600121453036
 20
-1.721561695931388
 30
0.0
 40
0.010718297887876
 50
314.2329954908074114
 51
14.73757717381784
  0
ARC
  5
8225
  8
0
 10
105.7238341173034968
 20
-1.759283090865597
 30
0.0
 40
0.1260570987543176
 50
18.7155977075190201
 51
47.8006798466577223
  0
ARC
  5
8226
  8
0
 10
105.6990670418237954
 20
-1.712580016249404
 30
0.0
 40
0.0314281436295297
 50
59.1164670358247619
 51
89.514704303195856
  0
ARC
  5
8227
  8
0
 10
105.6992985765719055
 20
-1.68524483334146
 30
0.0
 40
0.0040919801651678
 50
89.5147043031755061
 51
145.8089778965155006
  0
LINE
  5
8228
  8
0
 10
105.6959138189073002
 20
-1.6829453296506101
 30
0.0
 11
105.669243620151093
 21
-1.714252003293836
 31
0.0
  0
ARC
  5
8229
  8
0
 10
105.6857018973747984
 20
-1.7276337704477489
 30
0.0
 40
0.0212108422833268
 50
140.8867022911178992
 51
216.4403698183963911
  0
ARC
  5
822A
  8
0
 10
105.9803015535791957
 20
-1.493993654602064
 30
0.0
 40
0.3971997729865912
 50
218.3115745619136021
 51
225.0339996478645901
  0
ARC
  5
822B
  8
0
 10
105.964581152437006
 20
-1.509732723978739
 30
0.0
 40
0.3749545641335319
 50
225.0339996478645901
 51
231.5364624223859948
  0
ARC
  5
822C
  8
0
 10
105.7470511160389037
 20
-1.7835629719340771
 30
0.0
 40
0.0252370761083398
 50
231.5364624223898886
 51
302.4590989948853803
  0
LINE
  5
822D
  8
0
 10
105.7605957894331965
 20
-1.8048573804288059
 30
0.0
 11
105.7915576806068003
 21
-1.7786403631521741
 31
0.0
  0
ARC
  5
822E
  8
0
 10
105.7881427168209996
 20
-1.774523438280819
 30
0.0
 40
0.0053489296176725
 50
309.6754971603592139
 51
354.1709474372361228
  0
ARC
  5
822F
  8
0
 10
105.7623749978442049
 20
-1.7752751884723601
 30
0.0
 40
0.0310896903029192
 50
0.3842678498843527
 51
31.6521805287279498
  0
ARC
  5
8230
  8
0
 10
105.7394997903967067
 20
-1.7092207983668819
 30
0.0
 40
0.000720140486554
 50
149.4110361107514109
 51
205.4171520123481969
  0
ARC
  5
8231
  8
0
 10
105.7502491057159943
 20
-1.705126814007506
 30
0.0
 40
0.0122205308678812
 50
201.1186984455150935
 51
214.7289695430050074
  0
ARC
  5
8232
  8
0
 10
105.803041841897695
 20
-1.6693086593730471
 30
0.0
 40
0.076016672409683
 50
214.2477877294506925
 51
220.9581385228144939
  0
ARC
  5
8233
  8
0
 10
105.8652984306660017
 20
-1.616950501750309
 30
0.0
 40
0.1573584274793689
 50
220.4959438575536126
 51
226.7574939305993098
  0
ARC
  5
8234
  8
0
 10
105.8014076122037039
 20
-1.6853372154299071
 30
0.0
 40
0.0637713356569585
 50
226.4799102974257039
 51
232.8591042365609098
  0
ARC
  5
8235
  8
0
 10
105.7695414670092049
 20
-1.72754889848311
 30
0.0
 40
0.0108824351139596
 50
232.4155272751038126
 51
246.4734886530698077
  0
ARC
  5
8236
  8
0
 10
105.7655232465326947
 20
-1.736790985619862
 30
0.0
 40
0.0008046410073431
 50
246.1183662077328904
 51
292.6103355762788283
  0
ARC
  5
8237
  8
0
 10
105.7656267304501938
 20
-1.7372637519580389
 30
0.0
 40
0.0003395570050733
 50
307.3216924832402128
 51
356.5940241305748941
  0
ARC
  5
8238
  8
0
 10
105.7634349656017037
 20
-1.737342291207234
 30
0.0
 40
0.0025313950301717
 50
1.3211774128655811
 51
22.8628013852793188
  0
ARC
  5
8239
  8
0
 10
105.7573477223598957
 20
-1.7400606090487469
 30
0.0
 40
0.0091976090848065
 50
23.7331465798228791
 51
33.6370081227725919
  0
ARC
  5
823A
  8
0
 10
105.6971514445119027
 20
-1.779935927841314
 30
0.0
 40
0.0814030833603009
 50
33.5344216119021183
 51
42.4096885587818093
  0
ARC
  5
823B
  8
0
 10
105.6420036073025983
 20
-1.826944303845575
 30
0.0
 40
0.1538448098956391
 50
41.4841782204057807
 51
46.8384450893654005
  0
ARC
  5
823C
  8
0
 10
105.711203187934899
 20
-1.7519950122074159
 30
0.0
 40
0.0518442731456717
 50
45.9614158362857026
 51
54.70329602610785
  0
ARC
  5
823D
  8
0
 10
105.7359396082362935
 20
-1.717199868886822
 30
0.0
 40
0.0091529111685973
 50
55.2300034369784569
 51
66.6233142842392994
  0
ARC
  5
823E
  8
0
 10
105.7392287474516053
 20
-1.709827503833601
 30
0.0
 40
0.0010847314601206
 50
71.594026766117139
 51
101.0843246068047989
  0
ARC
  5
823F
  8
0
 10
105.7390975955705983
 20
-1.7090354206792879
 30
0.0
 40
0.0002831929940663
 50
105.8596545745075019
 51
140.250105624801904
  0
ARC
  5
8240
  8
0
 10
105.6907509250573014
 20
-1.7580687527921759
 30
0.0
 40
0.000720140486554
 50
149.4110361107514109
 51
205.4171520123481969
  0
ARC
  5
8241
  8
0
 10
105.7015002403767028
 20
-1.7539747684328011
 30
0.0
 40
0.0122205308678812
 50
201.1186984455150935
 51
214.7289695430050074
  0
ARC
  5
8242
  8
0
 10
105.754292976558304
 20
-1.7181566137983451
 30
0.0
 40
0.076016672409683
 50
214.2477877294506925
 51
220.9581385228144939
  0
ARC
  5
8243
  8
0
 10
105.8165495653266959
 20
-1.6657984561756001
 30
0.0
 40
0.1573584274793689
 50
220.4959438575536126
 51
226.7574939305993098
  0
ARC
  5
8244
  8
0
 10
105.7526587468642987
 20
-1.734185169855194
 30
0.0
 40
0.0637713356569585
 50
226.4799102974257039
 51
232.8591042365609098
  0
ARC
  5
8245
  8
0
 10
105.7207926016697996
 20
-1.7763968529084051
 30
0.0
 40
0.0108824351139596
 50
232.4155272751038126
 51
246.4734886530698077
  0
ARC
  5
8246
  8
0
 10
105.7167743811934031
 20
-1.785638940045156
 30
0.0
 40
0.0008046410073431
 50
246.1183662077328904
 51
292.6103355762788283
  0
ARC
  5
8247
  8
0
 10
105.7168778651109022
 20
-1.7861117063833341
 30
0.0
 40
0.0003395570050733
 50
307.3216924832402128
 51
356.5940241305748941
  0
ARC
  5
8248
  8
0
 10
105.7146861002623979
 20
-1.786190245632532
 30
0.0
 40
0.0025313950301717
 50
1.3211774128655811
 51
22.8628013852793188
  0
ARC
  5
8249
  8
0
 10
105.7085988570206041
 20
-1.788908563474038
 30
0.0
 40
0.0091976090848065
 50
23.7331465798228791
 51
33.6370081227725919
  0
ARC
  5
824A
  8
0
 10
105.6484025791724974
 20
-1.828783882266606
 30
0.0
 40
0.0814030833603009
 50
33.5344216119021183
 51
42.4096885587818093
  0
ARC
  5
824B
  8
0
 10
105.5932547419633067
 20
-1.875792258270873
 30
0.0
 40
0.1538448098956391
 50
41.4841782204057807
 51
46.8384450893654005
  0
ARC
  5
824C
  8
0
 10
105.6624543225955932
 20
-1.800842966632711
 30
0.0
 40
0.0518442731456717
 50
45.9614158362857026
 51
54.70329602610785
  0
ARC
  5
824D
  8
0
 10
105.6871907428970019
 20
-1.7660478233121171
 30
0.0
 40
0.0091529111685973
 50
55.2300034369784569
 51
66.6233142842392994
  0
ARC
  5
824E
  8
0
 10
105.6904798821122995
 20
-1.758675458258895
 30
0.0
 40
0.0010847314601206
 50
71.594026766117139
 51
101.0843246068047989
  0
ARC
  5
824F
  8
0
 10
105.6903487302313067
 20
-1.757883375104587
 30
0.0
 40
0.0002831929940663
 50
105.8596545745075019
 51
140.250105624801904
  0
LINE
  5
8250
  8
0
 10
104.8537043762162995
 20
-0.8271667401325721
 30
0.0
 11
104.8206901828757935
 21
-0.8602397812204465
 31
0.0
  0
ARC
  5
8251
  8
0
 10
104.8346200734400071
 20
-0.874144885957417
 30
0.0
 40
0.0196823217348874
 50
135.0510193337246108
 51
220.565646268713607
  0
LINE
  5
8252
  8
0
 10
104.8196681740296015
 20
-0.8869446708343389
 30
0.0
 11
104.8789352532228065
 21
-0.9561767255109536
 31
0.0
  0
ARC
  5
8253
  8
0
 10
104.8883878744730964
 20
-0.9480846754505556
 30
0.0
 40
0.0124432038753077
 50
220.5656462687132091
 51
268.5314423260384729
  0
LINE
  5
8254
  8
0
 10
104.8796268529024047
 20
-0.8590842646245455
 30
0.0
 11
104.8495992579299951
 21
-0.8893348943280088
 31
0.0
  0
ARC
  5
8255
  8
0
 10
104.8636801686579929
 20
-0.9033119879729021
 30
0.0
 40
0.0198401409694375
 50
135.2119984542491125
 51
218.6122127861999047
  0
LINE
  5
8256
  8
0
 10
104.8481773310488023
 20
-0.915693151882273
 30
0.0
 11
104.8690303141169977
 21
-0.9418038158344187
 31
0.0
  0
ARC
  5
8257
  8
0
 10
104.9189069850458935
 20
-0.9101194287134681
 30
0.0
 40
0.0590896157558279
 50
212.4259438620605067
 51
253.0899128233660065
  0
ARC
  5
8258
  8
0
 10
105.1315332450534044
 20
-1.2672558195584001
 30
0.0
 40
0.013436025175059
 50
38.4946734807675526
 51
56.1483640790268268
  0
ARC
  5
8259
  8
0
 10
105.138965082853602
 20
-1.2562664924825839
 30
0.0
 40
0.0001770612557147
 50
72.7102723636481443
 51
154.7974057131903862
  0
ARC
  5
825A
  8
0
 10
2202.6249910616361376
 20
-1934.9752135088660907
 30
0.0
 40
2852.8437669942968569
 50
137.3263540301072112
 51
137.3273387164711039
  0
ARC
  5
825B
  8
0
 10
105.1203606023059933
 20
-1.3056937685379739
 30
0.0
 40
0.0199932712740776
 50
137.7029940473080956
 51
226.6073049712393015
  0
ARC
  5
825C
  8
0
 10
101.9345940788021068
 20
-4.3573950440649609
 30
0.0
 40
4.391605809615009
 50
42.6060378594764231
 51
43.7557828258280566
  0
ARC
  5
825D
  8
0
 10
105.1811331350612022
 20
-1.370777915912512
 30
0.0
 40
0.0197371930668323
 50
223.9735296852053921
 51
308.921268509516608
  0
LINE
  5
825E
  8
0
 10
105.193533064156
 20
-1.3861336493238769
 30
0.0
 11
105.2142492637817952
 21
-1.3694076693582209
 31
0.0
  0
LINE
  5
825F
  8
0
 10
105.2689596306920947
 20
-1.336401375143953
 30
0.0
 11
105.2327561238380014
 21
-1.365819884893998
 31
0.0
  0
ARC
  5
8260
  8
0
 10
105.2201466233650962
 20
-1.3503021669444839
 30
0.0
 40
0.0199949761824272
 50
221.9993160869225903
 51
309.0968715509175126
  0
LINE
  5
8261
  8
0
 10
105.2052873006841054
 20
-1.3636812402045739
 30
0.0
 11
105.1997987407828958
 21
-1.356753157995118
 31
0.0
  0
LINE
  5
8262
  8
0
 10
104.9099310063588035
 20
-0.8813818515624163
 30
0.0
 11
104.937034932794603
 21
-0.9268321893047968
 31
0.0
  0
LINE
  5
8263
  8
0
 10
105.0766005150187965
 20
-1.1735668003711579
 30
0.0
 11
105.1362694788952012
 21
-1.2589412409550489
 31
0.0
  0
LINE
  5
8264
  8
0
 10
105.2184811699347051
 20
-1.3702276616035141
 30
0.0
 11
105.2536741015062063
 21
-1.4152428208772001
 31
0.0
  0
LINE
  5
8265
  8
0
 10
105.3358472198157045
 20
-1.517263490964136
 30
0.0
 11
105.3576457557167032
 21
-1.543965106232182
 31
0.0
  0
LINE
  5
8266
  8
0
 10
105.4443424807785021
 20
-1.644307897656172
 30
0.0
 11
105.4614017267006005
 21
-1.665093369466738
 31
0.0
  0
LINE
  5
8267
  8
0
 10
105.0079186695531064
 20
-1.0560449327725181
 30
0.0
 11
105.0007975792151029
 21
-1.045775747062744
 31
0.0
  0
ARC
  5
8268
  8
0
 10
108.5446056685448042
 20
0.671385236872478
 30
0.0
 40
3.787797781358357
 50
243.0372682367701032
 51
246.4772706962380084
  0
LINE
  5
8269
  8
0
 10
106.1080297040145979
 20
-1.987679841700682
 30
0.0
 11
106.0757241503747963
 21
-2.0174534832459541
 31
0.0
  0
ARC
  5
826A
  8
0
 10
106.0616563009597968
 20
-2.0021893220521418
 30
0.0
 40
0.020758106949226
 50
253.7103455428826067
 51
312.6644748694446889
  0
ARC
  5
826B
  8
0
 10
106.0728759237349976
 20
-1.97212841565118
 30
0.0
 40
0.0528110259039795
 50
237.2706556543087117
 51
251.1736926118497024
  0
ARC
  5
826C
  8
0
 10
106.2093210709673059
 20
-1.7831096232250301
 30
0.0
 40
0.2858691889384243
 50
227.4570560722254129
 51
234.747417469649605
  0
ARC
  5
826D
  8
0
 10
106.2768549901130939
 20
-1.7095200932612571
 30
0.0
 40
0.385750364119128
 50
222.7512565855790001
 51
227.4570560722254129
  0
ARC
  5
826E
  8
0
 10
106.0880598586063002
 20
-1.884048196532788
 30
0.0
 40
0.1286440427028296
 50
214.5217640435010082
 51
222.7512565855790001
  0
ARC
  5
826F
  8
0
 10
106.0037483947292003
 20
-1.94204102630395
 30
0.0
 40
0.0263132494587549
 50
173.4430267076612893
 51
214.5217640435020883
  0
ARC
  5
8270
  8
0
 10
105.9950311798884002
 20
-1.9410390434561791
 30
0.0
 40
0.0175386381164779
 50
139.0159560415602016
 51
173.4430267076627104
  0
LINE
  5
8271
  8
0
 10
105.9817913978311026
 20
-1.929536348204383
 30
0.0
 11
106.0051136601844064
 21
-1.9006089380083391
 31
0.0
  0
ARC
  5
8272
  8
0
 10
106.0100555889087985
 20
-1.9039975057623371
 30
0.0
 40
0.0059931558050165
 50
92.1167127002116075
 51
145.5677394150465886
  0
ARC
  5
8273
  8
0
 10
105.9893831536826951
 20
-2.0157467365996551
 30
0.0
 40
0.1195012685730805
 50
44.3609072582628414
 51
80.1460725313719138
  0
ARC
  5
8274
  8
0
 10
105.9889815574445038
 20
-2.035767637654796
 30
0.0
 40
0.1345204876885663
 50
27.3660865181391912
 51
50.3488878692047805
  0
ARC
  5
8275
  8
0
 10
106.0973580426332035
 20
-1.9804760962917241
 30
0.0
 40
0.0128763961347044
 50
325.9784806914001933
 51
30.5454137196967288
  0
ARC
  5
8276
  8
0
 10
106.0435426444014979
 20
-2.0170062599134511
 30
0.0
 40
0.0056888454666326
 50
1.1027801788797851
 51
38.2808068645836528
  0
ARC
  5
8277
  8
0
 10
105.9756557438322062
 20
-2.0610644943109442
 30
0.0
 40
0.0865967232740074
 50
33.330869627779137
 51
42.5907300313115726
  0
ARC
  5
8278
  8
0
 10
105.8121255201294986
 20
-2.2069392384479078
 30
0.0
 40
0.3057280414835309
 50
41.9767231919992483
 51
46.7837843586005633
  0
ARC
  5
8279
  8
0
 10
105.794903244648097
 20
-2.2225968681357631
 30
0.0
 40
0.3289370278691489
 50
46.4651038210788272
 51
51.151247834949551
  0
ARC
  5
827A
  8
0
 10
105.9252090828341011
 20
-2.0598042288398482
 30
0.0
 40
0.1204185273074795
 50
50.8507142175787408
 51
57.662137521743567
  0
ARC
  5
827B
  8
0
 10
105.9785092015533934
 20
-1.9756667702007991
 30
0.0
 40
0.0208192794838546
 50
57.7383410886411781
 51
70.4532779120813757
  0
ARC
  5
827C
  8
0
 10
105.9846001711786982
 20
-1.958028120217761
 30
0.0
 40
0.0021653067431418
 50
66.1754041613547628
 51
102.6397345773139023
  0
ARC
  5
827D
  8
0
 10
105.9844175075219965
 20
-1.9566995109869401
 30
0.0
 40
0.000836523443335
 50
110.3678533196709992
 51
183.5747526013043114
  0
ARC
  5
827E
  8
0
 10
105.9931068248661035
 20
-1.9548480468880589
 30
0.0
 40
0.0097125904327579
 50
191.3028713436056023
 51
217.5643732257422016
  0
ARC
  5
827F
  8
0
 10
106.2634711581307982
 20
-1.761708915164405
 30
0.0
 40
0.3419710529983752
 50
215.5981930341853001
 51
217.3717980023706957
  0
ARC
  5
8280
  8
0
 10
106.0484965301319988
 20
-2.0166940666198161
 30
0.0
 40
0.0007613854564311
 50
271.5525041204720083
 51
344.5597625658792253
  0
ARC
  5
8281
  8
0
 10
106.0498698317759931
 20
-2.0072449590114831
 30
0.0
 40
0.0102994265196141
 50
236.6492481902872953
 51
262.4532661488585177
  0
ARC
  5
8282
  8
0
 10
106.0008974013775003
 20
-2.08653731379622
 30
0.0
 40
0.0829018175250213
 50
58.5047768905224004
 51
61.8655104222699492
  0
LINE
  5
8283
  8
0
 10
106.8725259245625949
 20
-2.7272887419885161
 30
0.0
 11
106.8360158213673969
 21
-2.7678430710683939
 31
0.0
  0
ARC
  5
8284
  8
0
 10
106.8214118492658997
 20
-2.7546954604290148
 30
0.0
 40
0.0196503350267582
 50
238.3255876523546988
 51
318.0040409409867834
  0
LINE
  5
8285
  8
0
 10
106.8110936226990049
 20
-2.7714187934454229
 30
0.0
 11
106.7378046983865971
 21
-2.7145065881010519
 31
0.0
  0
ARC
  5
8286
  8
0
 10
106.7508428673236978
 20
-2.6997584720536798
 30
0.0
 40
0.0196850394000055
 50
191.6761467096631861
 51
232.1198156210635943
  0
LINE
  5
8287
  8
0
 10
106.8373341111645942
 20
-2.6934856327483518
 30
0.0
 11
106.8010725573661972
 21
-2.7333528740282951
 31
0.0
  0
ARC
  5
8288
  8
0
 10
106.7863717687370979
 20
-2.7199662178345032
 30
0.0
 40
0.0198825488901337
 50
239.3295930825387074
 51
317.67875465606852
  0
ARC
  5
8289
  8
0
 10
107.2136705827016954
 20
-2.1041877316491009
 30
0.0
 40
0.7693447464861444
 50
228.4803720854773985
 51
235.3481165817167096
  0
ARC
  5
828A
  8
0
 10
106.7162396589991005
 20
-2.6649655481658772
 30
0.0
 40
0.0197519220896108
 50
165.6993270337476076
 51
230.5528975464793007
  0
ARC
  5
828B
  8
0
 10
106.7163699801652967
 20
-2.6649987682447209
 30
0.0
 40
0.0198864106763928
 50
146.1801521571547084
 51
165.6993270337482045
  0
ARC
  5
828C
  8
0
 10
111.5104424896188959
 20
-5.8767561133301127
 30
0.0
 40
5.7903730859585849
 50
145.8972823422504064
 51
146.1801521571545095
  0
ARC
  5
828D
  8
0
 10
106.7165359437092036
 20
-2.6313044918467341
 30
0.0
 40
0.0013007043295046
 50
85.9620348316498024
 51
123.491434712767699
  0
ARC
  5
828E
  8
0
 10
106.6046687249486951
 20
-2.9724096373693518
 30
0.0
 40
0.360242043962513
 50
61.0162852858598583
 51
71.8932901753152862
  0
ARC
  5
828F
  8
0
 10
106.5441501995624947
 20
-3.1221759176935779
 30
0.0
 40
0.5209461790728823
 50
56.701206523362103
 51
63.1759892873668534
  0
ARC
  5
8290
  8
0
 10
106.8112623884407952
 20
-2.716604390115303
 30
0.0
 40
0.0353208743972384
 50
43.2500644042168716
 51
57.6689256024809822
  0
ARC
  5
8291
  8
0
 10
106.835912076778996
 20
-2.6933426384405399
 30
0.0
 40
0.0014292057815113
 50
354.2578588581199028
 51
41.1008023740551778
  0
LINE
  5
8292
  8
0
 10
106.7073417743639965
 20
-2.642773430366069
 30
0.0
 11
106.6942924055724973
 21
-2.6357064693322272
 31
0.0
  0
ARC
  5
8293
  8
0
 10
3995.230528556247009
 20
-3632.0903351211081826
 30
0.0
 40
5319.1772445261303801
 50
136.973097451518214
 51
136.973660997452896
  0
ARC
  5
8294
  8
0
 10
106.6837049212555968
 20
-2.6183050197060602
 30
0.0
 40
0.0204033236057827
 50
235.8183095225450074
 51
316.973660997451816
  0
ARC
  5
8295
  8
0
 10
106.9325143048221065
 20
-2.2399912878982882
 30
0.0
 40
0.4732006793940307
 50
225.7132469225431066
 51
236.6312493376265991
  0
ARC
  5
8296
  8
0
 10
106.6161359033734044
 20
-2.5627326407796458
 30
0.0
 40
0.0212836194302763
 50
180.386644250405709
 51
228.7478107358016075
  0
ARC
  5
8297
  8
0
 10
106.6143265703364023
 20
-2.5627448507336932
 30
0.0
 40
0.0194742451954428
 50
145.0053787602876127
 51
180.3866442504063912
  0
ARC
  5
8298
  8
0
 10
104.768854476411903
 20
-1.270789551200149
 30
0.0
 40
2.233283119779065
 50
325.0053787602873854
 51
325.7736067031768812
  0
ARC
  5
8299
  8
0
 10
106.6170509196994942
 20
-2.528067528825737
 30
0.0
 40
0.0020195456340504
 50
73.9759058360474882
 51
145.7736067031678999
  0
ARC
  5
829A
  8
0
 10
106.5301940690720954
 20
-2.8304933205879368
 30
0.0
 40
0.3166708955817389
 50
59.2358821156718705
 51
73.9759058360474739
  0
ARC
  5
829B
  8
0
 10
106.5790312080122959
 20
-2.748451482938655
 30
0.0
 40
0.2211935199122115
 50
45.4469315080918719
 51
59.2358821156719202
  0
ARC
  5
829C
  8
0
 10
106.7327104389802059
 20
-2.5923558267687952
 30
0.0
 40
0.0021429323622452
 50
343.4866657959262852
 51
45.4469315080695466
  0
ARC
  5
829D
  8
0
 10
106.7305211529031936
 20
-2.5917067764418742
 30
0.0
 40
0.0044264033724072
 50
329.0893965363026155
 51
343.4866657959294116
  0
ARC
  5
829E
  8
0
 10
106.6140551513791053
 20
-2.6518305289824791
 30
0.0
 40
0.0510725097941571
 50
41.7078505551827305
 51
49.2391124148146702
  0
ARC
  5
829F
  8
0
 10
106.3676946329741071
 20
-2.9376361406694
 30
0.0
 40
0.4284030713717979
 50
49.239112414815402
 51
51.2755132331186587
  0
ARC
  5
82A0
  8
0
 10
106.5170519109702951
 20
-2.7513709782543989
 30
0.0
 40
0.1896515117540605
 50
51.2755132331186587
 51
53.9857083815022705
  0
ARC
  5
82A1
  8
0
 10
106.5540074231608969
 20
-2.700532751167088
 30
0.0
 40
0.1268006150647382
 50
53.9857083815022705
 51
56.5376328135926016
  0
ARC
  5
82A2
  8
0
 10
106.6171028732987054
 20
-2.60506975049304
 30
0.0
 40
0.0123706350516959
 50
56.5376328135927508
 51
66.0267046757370508
  0
ARC
  5
82A3
  8
0
 10
106.6218262088863042
 20
-2.5944476439157489
 30
0.0
 40
0.0007457029137343
 50
66.0267046757351466
 51
90.8906567477175145
  0
ARC
  5
82A4
  8
0
 10
106.6218156202110947
 20
-2.5937665313177471
 30
0.0
 40
0.0000645080141621
 50
90.8906567482020051
 51
163.4738700804730911
  0
ARC
  5
82A5
  8
0
 10
106.621987541863902
 20
-2.5938175421277978
 30
0.0
 40
0.00024383775917
 50
163.4738700806381075
 51
209.7152275553731045
  0
ARC
  5
82A6
  8
0
 10
106.6267136784781968
 20
-2.5911201364186378
 30
0.0
 40
0.0056855621970292
 50
209.7152275553717971
 51
229.3757602120184913
  0
ARC
  5
82A7
  8
0
 10
106.6783545438706966
 20
-2.540722028575618
 30
0.0
 40
0.0778227115064928
 50
224.6723960204990078
 51
228.5904541124102138
  0
ARC
  5
82A8
  8
0
 10
106.8307832572113938
 20
-2.365569822593641
 30
0.0
 40
0.3100127628081102
 50
228.8733093246405019
 51
231.4058797433368113
  0
ARC
  5
82A9
  8
0
 10
106.7535461765651945
 20
-2.4646133096713392
 30
0.0
 40
0.1844269010078094
 50
230.9659792437734041
 51
235.9131070754079076
  0
ARC
  5
82AA
  8
0
 10
106.6592883556012055
 20
-2.6034130655785459
 30
0.0
 40
0.0166500148396523
 50
236.8525534218393886
 51
242.2037907464655007
  0
ARC
  5
82AB
  8
0
 10
106.6549602959630931
 20
-2.6113627668104828
 30
0.0
 40
0.0076002901580572
 50
243.1196494962539987
 51
248.5305418627505105
  0
ARC
  5
82AC
  8
0
 10
106.6522984480023979
 20
-2.618199558385335
 30
0.0
 40
0.0002648312273054
 50
243.0808343629553008
 51
278.9516558416639782
  0
ARC
  5
82AD
  8
0
 10
106.652313372282606
 20
-2.6182943039142681
 30
0.0
 40
0.0001689174671303
 50
278.9516558416937073
 51
310.3191409089068884
  0
ARC
  5
82AE
  8
0
 10
106.6523723918932944
 20
-2.6183638503376221
 30
0.0
 40
0.0000777033265162
 50
310.3191409092581807
 51
0.8131030954973089
  0
ARC
  5
82AF
  8
0
 10
106.6521368746538059
 20
-2.6183671928639809
 30
0.0
 40
0.0003132442838038
 50
0.8131030954215823
 51
28.6086224375907783
  0
ARC
  5
82B0
  8
0
 10
106.6509309370400018
 20
-2.618885615085766
 30
0.0
 40
0.0016247927027268
 50
24.2917036647587317
 51
39.5822727494385305
  0
ARC
  5
82B1
  8
0
 10
3995.0683036788218487
 20
-3631.9234502423141748
 30
0.0
 40
5319.1772445261303801
 50
136.973097451518214
 51
136.973660997452896
  0
ARC
  5
82B2
  8
0
 10
106.5214800438298965
 20
-2.4514201409125849
 30
0.0
 40
0.0204033236057827
 50
235.8183095225450074
 51
316.973660997451816
  0
ARC
  5
82B3
  8
0
 10
106.7702894273964063
 20
-2.0731064091048128
 30
0.0
 40
0.4732006793940307
 50
225.7132469225431066
 51
236.6312493376265991
  0
ARC
  5
82B4
  8
0
 10
106.4539110259477042
 20
-2.3958477619861678
 30
0.0
 40
0.0212836194302763
 50
180.386644250405908
 51
228.7478107358016075
  0
ARC
  5
82B5
  8
0
 10
106.4521016929108015
 20
-2.3958599719402218
 30
0.0
 40
0.0194742451954428
 50
145.0053787602876127
 51
180.3866442504063912
  0
ARC
  5
82B6
  8
0
 10
104.6066295989863022
 20
-1.1039046724066739
 30
0.0
 40
2.233283119779065
 50
325.0053787602873854
 51
325.7736067031768812
  0
ARC
  5
82B7
  8
0
 10
106.454826042273794
 20
-2.3611826500322581
 30
0.0
 40
0.0020195456340504
 50
73.9759058360474882
 51
145.7736067031678999
  0
ARC
  5
82B8
  8
0
 10
106.3679691916463952
 20
-2.6636084417944619
 30
0.0
 40
0.3166708955817389
 50
59.2358821156718705
 51
73.9759058360474739
  0
ARC
  5
82B9
  8
0
 10
106.4168063305866951
 20
-2.5815666041451801
 30
0.0
 40
0.2211935199122115
 50
45.4469315080918719
 51
59.2358821156719202
  0
ARC
  5
82BA
  8
0
 10
106.5704855615546052
 20
-2.4254709479753198
 30
0.0
 40
0.0021429323622452
 50
343.4866657959262852
 51
45.4469315080695466
  0
ARC
  5
82BB
  8
0
 10
106.5682962754774934
 20
-2.4248218976483988
 30
0.0
 40
0.0044264033724072
 50
329.0893965363026155
 51
343.4866657959294116
  0
ARC
  5
82BC
  8
0
 10
106.451830273953405
 20
-2.4849456501890042
 30
0.0
 40
0.0510725097941571
 50
41.7078505551827305
 51
49.2391124148146702
  0
ARC
  5
82BD
  8
0
 10
106.2054697555484069
 20
-2.770751261875926
 30
0.0
 40
0.4284030713717979
 50
49.239112414815402
 51
51.2755132331186587
  0
ARC
  5
82BE
  8
0
 10
106.3548270335445949
 20
-2.584486099460924
 30
0.0
 40
0.1896515117540605
 50
51.2755132331186587
 51
53.9857083815022705
  0
ARC
  5
82BF
  8
0
 10
106.3917825457351967
 20
-2.5336478723736131
 30
0.0
 40
0.1268006150647382
 50
53.9857083815022705
 51
56.5376328135926016
  0
ARC
  5
82C0
  8
0
 10
106.4548779958730051
 20
-2.4381848716995651
 30
0.0
 40
0.0123706350516959
 50
56.5376328135927508
 51
66.0267046757370508
  0
ARC
  5
82C1
  8
0
 10
106.459601331460604
 20
-2.4275627651222709
 30
0.0
 40
0.0007457029137343
 50
66.0267046757351466
 51
90.8906567477175145
  0
ARC
  5
82C2
  8
0
 10
106.4595907427853945
 20
-2.4268816525242691
 30
0.0
 40
0.0000645080141621
 50
90.8906567482020051
 51
163.4738700804730911
  0
ARC
  5
82C3
  8
0
 10
106.4597626644382018
 20
-2.4269326633343229
 30
0.0
 40
0.00024383775917
 50
163.4738700806385054
 51
209.7152275553731045
  0
ARC
  5
82C4
  8
0
 10
106.464488801052596
 20
-2.4242352576251629
 30
0.0
 40
0.0056855621970292
 50
209.7152275553717971
 51
229.3757602120184913
  0
ARC
  5
82C5
  8
0
 10
106.5161296664449964
 20
-2.3738371497821431
 30
0.0
 40
0.0778227115064928
 50
224.6723960204990078
 51
228.5904541124102138
  0
ARC
  5
82C6
  8
0
 10
106.6685583797856935
 20
-2.1986849438001701
 30
0.0
 40
0.3100127628081102
 50
228.8733093246405019
 51
231.4058797433368113
  0
ARC
  5
82C7
  8
0
 10
106.5913212991395937
 20
-2.2977284308778638
 30
0.0
 40
0.1844269010078094
 50
230.9659792437734041
 51
235.9131070754079076
  0
ARC
  5
82C8
  8
0
 10
106.4970634781756047
 20
-2.436528186785071
 30
0.0
 40
0.0166500148396523
 50
236.8525534218393886
 51
242.2037907464655007
  0
ARC
  5
82C9
  8
0
 10
106.4927354185374071
 20
-2.4444778880170079
 30
0.0
 40
0.0076002901580572
 50
243.1196494962539987
 51
248.5305418627505105
  0
ARC
  5
82CA
  8
0
 10
106.4900735705766976
 20
-2.4513146795918601
 30
0.0
 40
0.0002648312273054
 50
243.0808343629553008
 51
278.9516558416639782
  0
ARC
  5
82CB
  8
0
 10
106.4900884948569058
 20
-2.4514094251207901
 30
0.0
 40
0.0001689174671303
 50
278.9516558416937073
 51
310.3191409089068884
  0
ARC
  5
82CC
  8
0
 10
106.4901475144675942
 20
-2.4514789715441512
 30
0.0
 40
0.0000777033265162
 50
310.3191409092581807
 51
0.8131030954973089
  0
ARC
  5
82CD
  8
0
 10
106.4899119972281056
 20
-2.451482314070506
 30
0.0
 40
0.0003132442838038
 50
0.8131030954215823
 51
28.6086224375907783
  0
ARC
  5
82CE
  8
0
 10
106.4887060596143016
 20
-2.4520007362922911
 30
0.0
 40
0.0016247927027268
 50
24.2917036647587317
 51
39.5822727494385305
  0
ARC
  5
82CF
  8
0
 10
3994.8995676187778372
 20
-3631.8569744427900332
 30
0.0
 40
5319.1772445261303801
 50
136.973097451518214
 51
136.973660997452896
  0
ARC
  5
82D0
  8
0
 10
106.3527439837862971
 20
-2.384944341388187
 30
0.0
 40
0.0204033236057827
 50
235.8183095225450074
 51
316.973660997451816
  0
ARC
  5
82D1
  8
0
 10
106.6015533673528068
 20
-2.0066306095804149
 30
0.0
 40
0.4732006793940307
 50
225.7132469225431066
 51
236.6312493376265991
  0
ARC
  5
82D2
  8
0
 10
106.2851749659041047
 20
-2.3293719624617739
 30
0.0
 40
0.0212836194302763
 50
180.386644250405908
 51
228.7478107358016075
  0
ARC
  5
82D3
  8
0
 10
106.2833656328672021
 20
-2.329384172415824
 30
0.0
 40
0.0194742451954428
 50
145.0053787602876127
 51
180.3866442504063912
  0
ARC
  5
82D4
  8
0
 10
104.4378935389427028
 20
-1.0374288728822729
 30
0.0
 40
2.233283119779065
 50
325.0053787602873854
 51
325.7736067031768812
  0
ARC
  5
82D5
  8
0
 10
106.2860899822301946
 20
-2.2947068505078638
 30
0.0
 40
0.0020195456340504
 50
73.9759058360474882
 51
145.7736067031678999
  0
ARC
  5
82D6
  8
0
 10
106.1992331316027958
 20
-2.597132642270068
 30
0.0
 40
0.3166708955817389
 50
59.2358821156718705
 51
73.9759058360474739
  0
ARC
  5
82D7
  8
0
 10
106.2480702705430957
 20
-2.5150908046207858
 30
0.0
 40
0.2211935199122115
 50
45.4469315080918719
 51
59.2358821156719202
  0
ARC
  5
82D8
  8
0
 10
106.4017495015110057
 20
-2.358995148450922
 30
0.0
 40
0.0021429323622452
 50
343.4866657959262852
 51
45.4469315080695466
  0
ARC
  5
82D9
  8
0
 10
106.399560215433894
 20
-2.358346098124005
 30
0.0
 40
0.0044264033724072
 50
329.0893965363026155
 51
343.4866657959294116
  0
ARC
  5
82DA
  8
0
 10
106.2830942139098056
 20
-2.4184698506646072
 30
0.0
 40
0.0510725097941571
 50
41.7078505551827305
 51
49.2391124148146702
  0
ARC
  5
82DB
  8
0
 10
106.0367336955049069
 20
-2.7042754623515282
 30
0.0
 40
0.4284030713717979
 50
49.239112414815402
 51
51.2755132331186587
  0
ARC
  5
82DC
  8
0
 10
106.1860909735009955
 20
-2.518010299936531
 30
0.0
 40
0.1896515117540605
 50
51.2755132331186587
 51
53.9857083815022705
  0
ARC
  5
82DD
  8
0
 10
106.2230464856915972
 20
-2.4671720728492188
 30
0.0
 40
0.1268006150647382
 50
53.9857083815022705
 51
56.5376328135926016
  0
ARC
  5
82DE
  8
0
 10
106.2861419358294057
 20
-2.3717090721751681
 30
0.0
 40
0.0123706350516959
 50
56.5376328135927508
 51
66.0267046757370508
  0
ARC
  5
82DF
  8
0
 10
106.2908652714170046
 20
-2.361086965597881
 30
0.0
 40
0.0007457029137343
 50
66.0267046757351466
 51
90.8906567477175145
  0
ARC
  5
82E0
  8
0
 10
106.290854682741795
 20
-2.3604058529998708
 30
0.0
 40
0.0000645080141621
 50
90.8906567482020051
 51
163.4738700804730911
  0
ARC
  5
82E1
  8
0
 10
106.2910266043946024
 20
-2.360456863809925
 30
0.0
 40
0.00024383775917
 50
163.4738700806385054
 51
209.7152275553731045
  0
ARC
  5
82E2
  8
0
 10
106.2957527410089966
 20
-2.357759458100769
 30
0.0
 40
0.0056855621970292
 50
209.7152275553717971
 51
229.3757602120184913
  0
ARC
  5
82E3
  8
0
 10
106.3473936064013969
 20
-2.3073613502577461
 30
0.0
 40
0.0778227115064928
 50
224.6723960204990078
 51
228.5904541124102138
  0
ARC
  5
82E4
  8
0
 10
106.4998223197420941
 20
-2.1322091442757731
 30
0.0
 40
0.3100127628081102
 50
228.8733093246405019
 51
231.4058797433368113
  0
ARC
  5
82E5
  8
0
 10
106.4225852390959943
 20
-2.2312526313534731
 30
0.0
 40
0.1844269010078094
 50
230.9659792437734041
 51
235.9131070754079076
  0
ARC
  5
82E6
  8
0
 10
106.3283274181320053
 20
-2.370052387260674
 30
0.0
 40
0.0166500148396523
 50
236.8525534218393886
 51
242.2037907464655007
  0
ARC
  5
82E7
  8
0
 10
106.3239993584938929
 20
-2.3780020884926101
 30
0.0
 40
0.0076002901580572
 50
243.1196494962539987
 51
248.5305418627505105
  0
ARC
  5
82E8
  8
0
 10
106.3213375105330982
 20
-2.3848388800674658
 30
0.0
 40
0.0002648312273054
 50
243.0808343629553008
 51
278.9516558416639782
  0
ARC
  5
82E9
  8
0
 10
106.3213524348133063
 20
-2.3849336255963989
 30
0.0
 40
0.0001689174671303
 50
278.9516558416937073
 51
310.3191409089068884
  0
ARC
  5
82EA
  8
0
 10
106.3214114544239948
 20
-2.3850031720197542
 30
0.0
 40
0.0000777033265162
 50
310.3191409092581807
 51
0.8131030954973089
  0
ARC
  5
82EB
  8
0
 10
106.3211759371845062
 20
-2.385006514546105
 30
0.0
 40
0.0003132442838038
 50
0.8131030954215823
 51
28.6086224375907783
  0
ARC
  5
82EC
  8
0
 10
106.3199699995707022
 20
-2.3855249367678968
 30
0.0
 40
0.0016247927027268
 50
24.2917036647587317
 51
39.5822727494385305
  0
ARC
  5
82ED
  8
0
 10
3994.9173859455099773
 20
-3631.9603284172958411
 30
0.0
 40
5319.1772445261303801
 50
136.973097451518214
 51
136.973660997452896
  0
ARC
  5
82EE
  8
0
 10
106.3705623105190057
 20
-2.4882983158946672
 30
0.0
 40
0.0204033236057827
 50
235.8183095225450074
 51
316.973660997451816
  0
ARC
  5
82EF
  8
0
 10
106.6193716940854017
 20
-2.1099845840868952
 30
0.0
 40
0.4732006793940307
 50
225.7132469225431066
 51
236.6312493376265991
  0
ARC
  5
82F0
  8
0
 10
106.3029932926367991
 20
-2.4327259369682501
 30
0.0
 40
0.0212836194302763
 50
180.386644250405908
 51
228.7478107358016075
  0
ARC
  5
82F1
  8
0
 10
106.3011839595997969
 20
-2.4327381469223042
 30
0.0
 40
0.0194742451954428
 50
145.0053787602876127
 51
180.3866442504063912
  0
ARC
  5
82F2
  8
0
 10
104.4557118656752976
 20
-1.140782847388756
 30
0.0
 40
2.233283119779065
 50
325.0053787602873854
 51
325.7736067031768812
  0
ARC
  5
82F3
  8
0
 10
106.3039083089628036
 20
-2.39806082501434
 30
0.0
 40
0.0020195456340504
 50
73.9759058360474882
 51
145.7736067031678999
  0
ARC
  5
82F4
  8
0
 10
106.2170514583355043
 20
-2.7004866167765469
 30
0.0
 40
0.3166708955817389
 50
59.2358821156718705
 51
73.9759058360474739
  0
ARC
  5
82F5
  8
0
 10
106.2658885972757048
 20
-2.618444779127266
 30
0.0
 40
0.2211935199122115
 50
45.4469315080918719
 51
59.2358821156719202
  0
ARC
  5
82F6
  8
0
 10
106.4195678282436006
 20
-2.4623491229574048
 30
0.0
 40
0.0021429323622452
 50
343.4866657959262852
 51
45.4469315080695466
  0
ARC
  5
82F7
  8
0
 10
106.4173785421665031
 20
-2.4617000726304852
 30
0.0
 40
0.0044264033724072
 50
329.0893965363026155
 51
343.4866657959294116
  0
ARC
  5
82F8
  8
0
 10
106.3009125406424999
 20
-2.5218238251710821
 30
0.0
 40
0.0510725097941571
 50
41.7078505551827305
 51
49.2391124148146702
  0
ARC
  5
82F9
  8
0
 10
106.0545520222375018
 20
-2.8076294368580039
 30
0.0
 40
0.4284030713717979
 50
49.239112414815402
 51
51.2755132331186587
  0
ARC
  5
82FA
  8
0
 10
106.2039093002336045
 20
-2.6213642744430099
 30
0.0
 40
0.1896515117540605
 50
51.2755132331186587
 51
53.9857083815022705
  0
ARC
  5
82FB
  8
0
 10
106.2408648124242063
 20
-2.570526047355695
 30
0.0
 40
0.1268006150647382
 50
53.9857083815022705
 51
56.5376328135926016
  0
ARC
  5
82FC
  8
0
 10
106.3039602625621001
 20
-2.475063046681651
 30
0.0
 40
0.0123706350516959
 50
56.5376328135927508
 51
66.0267046757370508
  0
ARC
  5
82FD
  8
0
 10
106.3086835981495994
 20
-2.4644409401043559
 30
0.0
 40
0.0007457029137343
 50
66.0267046757351466
 51
90.8906567477175145
  0
ARC
  5
82FE
  8
0
 10
106.3086730094744041
 20
-2.4637598275063541
 30
0.0
 40
0.0000645080141621
 50
90.8906567482020051
 51
163.4738700804730911
  0
ARC
  5
82FF
  8
0
 10
106.3088449311271972
 20
-2.4638108383164048
 30
0.0
 40
0.00024383775917
 50
163.4738700806385054
 51
209.7152275553731045
  0
ARC
  5
8300
  8
0
 10
106.3135710677416057
 20
-2.4611134326072448
 30
0.0
 40
0.0056855621970292
 50
209.7152275553717971
 51
229.3757602120184913
  0
ARC
  5
8301
  8
0
 10
106.3652119331341055
 20
-2.410715324764229
 30
0.0
 40
0.0778227115064928
 50
224.6723960204990078
 51
228.5904541124102138
  0
ARC
  5
8302
  8
0
 10
106.5176406464747032
 20
-2.235563118782248
 30
0.0
 40
0.3100127628081102
 50
228.8733093246405019
 51
231.4058797433368113
  0
ARC
  5
8303
  8
0
 10
106.4404035658286034
 20
-2.3346066058599422
 30
0.0
 40
0.1844269010078094
 50
230.9659792437734041
 51
235.9131070754079076
  0
ARC
  5
8304
  8
0
 10
106.3461457448646001
 20
-2.4734063617671498
 30
0.0
 40
0.0166500148396523
 50
236.8525534218393886
 51
242.2037907464655007
  0
ARC
  5
8305
  8
0
 10
106.341817685226502
 20
-2.4813560629990898
 30
0.0
 40
0.0076002901580572
 50
243.1196494962539987
 51
248.5305418627505105
  0
ARC
  5
8306
  8
0
 10
106.3391558372658068
 20
-2.488192854573942
 30
0.0
 40
0.0002648312273054
 50
243.0808343629553008
 51
278.9516558416639782
  0
ARC
  5
8307
  8
0
 10
106.3391707615459012
 20
-2.4882876001028711
 30
0.0
 40
0.0001689174671303
 50
278.9516558416937073
 51
310.3191409089068884
  0
ARC
  5
8308
  8
0
 10
106.3392297811566038
 20
-2.4883571465262331
 30
0.0
 40
0.0000777033265162
 50
310.3191409092581807
 51
0.8131030954973089
  0
ARC
  5
8309
  8
0
 10
106.3389942639172006
 20
-2.4883604890525848
 30
0.0
 40
0.0003132442838038
 50
0.8131030954215823
 51
28.6086224375907783
  0
ARC
  5
830A
  8
0
 10
106.337788326303297
 20
-2.4888789112743761
 30
0.0
 40
0.0016247927027268
 50
24.2917036647587317
 51
39.5822727494385305
  0
ARC
  5
830B
  8
0
 10
3995.0541480853821668
 20
-3632.0230151096720874
 30
0.0
 40
5319.1772445261303801
 50
136.973097451518214
 51
136.973660997452896
  0
ARC
  5
830C
  8
0
 10
106.5073244503904988
 20
-2.5509850082712009
 30
0.0
 40
0.0204033236057827
 50
235.8183095225450074
 51
316.973660997451816
  0
ARC
  5
830D
  8
0
 10
106.7561338339569943
 20
-2.1726712764634319
 30
0.0
 40
0.4732006793940307
 50
225.7132469225431066
 51
236.6312493376265991
  0
ARC
  5
830E
  8
0
 10
106.4397554325084059
 20
-2.4954126293447909
 30
0.0
 40
0.0212836194302763
 50
180.386644250405908
 51
228.7478107358016075
  0
ARC
  5
830F
  8
0
 10
106.4379460994714037
 20
-2.495424839298841
 30
0.0
 40
0.0194742451954428
 50
145.0053787602876127
 51
180.3866442504063912
  0
ARC
  5
8310
  8
0
 10
104.5924740055469044
 20
-1.2034695397652899
 30
0.0
 40
2.233283119779065
 50
325.0053787602873854
 51
325.7736067031768812
  0
ARC
  5
8311
  8
0
 10
106.4406704488343962
 20
-2.4607475173908808
 30
0.0
 40
0.0020195456340504
 50
73.9759058360474882
 51
145.7736067031678999
  0
ARC
  5
8312
  8
0
 10
106.3538135982070969
 20
-2.763173309153085
 30
0.0
 40
0.3166708955817389
 50
59.2358821156718705
 51
73.9759058360474739
  0
ARC
  5
8313
  8
0
 10
106.4026507371472974
 20
-2.6811314715038002
 30
0.0
 40
0.2211935199122115
 50
45.4469315080918719
 51
59.2358821156719202
  0
ARC
  5
8314
  8
0
 10
106.5563299681151932
 20
-2.5250358153339389
 30
0.0
 40
0.0021429323622452
 50
343.4866657959262852
 51
45.4469315080695466
  0
ARC
  5
8315
  8
0
 10
106.5541406820380956
 20
-2.5243867650070189
 30
0.0
 40
0.0044264033724072
 50
329.0893965363026155
 51
343.4866657959294116
  0
ARC
  5
8316
  8
0
 10
106.4376746805141067
 20
-2.5845105175476242
 30
0.0
 40
0.0510725097941571
 50
41.7078505551827305
 51
49.2391124148146702
  0
ARC
  5
8317
  8
0
 10
106.1913141621090944
 20
-2.8703161292345452
 30
0.0
 40
0.4284030713717979
 50
49.239112414815402
 51
51.2755132331186587
  0
ARC
  5
8318
  8
0
 10
106.3406714401051971
 20
-2.684050966819548
 30
0.0
 40
0.1896515117540605
 50
51.2755132331186587
 51
53.9857083815022705
  0
ARC
  5
8319
  8
0
 10
106.3776269522957989
 20
-2.6332127397322358
 30
0.0
 40
0.1268006150647382
 50
53.9857083815022705
 51
56.5376328135926016
  0
ARC
  5
831A
  8
0
 10
106.4407224024335932
 20
-2.5377497390581878
 30
0.0
 40
0.0123706350516959
 50
56.5376328135927508
 51
66.0267046757370508
  0
ARC
  5
831B
  8
0
 10
106.4454457380212062
 20
-2.527127632480894
 30
0.0
 40
0.0007457029137343
 50
66.0267046757351466
 51
90.8906567477175145
  0
ARC
  5
831C
  8
0
 10
106.4454351493459967
 20
-2.5264465198828852
 30
0.0
 40
0.0000645080141621
 50
90.8906567482020051
 51
163.4738700804730911
  0
ARC
  5
831D
  8
0
 10
106.445607070998804
 20
-2.5264975306929389
 30
0.0
 40
0.00024383775917
 50
163.4738700806385054
 51
209.7152275553731045
  0
ARC
  5
831E
  8
0
 10
106.4503332076131983
 20
-2.523800124983782
 30
0.0
 40
0.0056855621970292
 50
209.7152275553717971
 51
229.3757602120184913
  0
ARC
  5
831F
  8
0
 10
106.5019740730056981
 20
-2.4734020171407671
 30
0.0
 40
0.0778227115064928
 50
224.6723960204990078
 51
228.5904541124102138
  0
ARC
  5
8320
  8
0
 10
106.6544027863462958
 20
-2.2982498111587901
 30
0.0
 40
0.3100127628081102
 50
228.8733093246405019
 51
231.4058797433368113
  0
ARC
  5
8321
  8
0
 10
106.577165705700196
 20
-2.397293298236487
 30
0.0
 40
0.1844269010078094
 50
230.9659792437734041
 51
235.9131070754079076
  0
ARC
  5
8322
  8
0
 10
106.4829078847362069
 20
-2.536093054143687
 30
0.0
 40
0.0166500148396523
 50
236.8525534218393886
 51
242.2037907464655007
  0
ARC
  5
8323
  8
0
 10
106.4785798250980946
 20
-2.5440427553756311
 30
0.0
 40
0.0076002901580572
 50
243.1196494962539987
 51
248.5305418627505105
  0
ARC
  5
8324
  8
0
 10
106.4759179771373994
 20
-2.5508795469504788
 30
0.0
 40
0.0002648312273054
 50
243.0808343629553008
 51
278.9516558416639782
  0
ARC
  5
8325
  8
0
 10
106.4759329014174938
 20
-2.5509742924794132
 30
0.0
 40
0.0001689174671303
 50
278.9516558416937073
 51
310.3191409089068884
  0
ARC
  5
8326
  8
0
 10
106.4759919210281964
 20
-2.5510438389027712
 30
0.0
 40
0.0000777033265162
 50
310.3191409092581807
 51
0.8131030954973089
  0
ARC
  5
8327
  8
0
 10
106.4757564037887931
 20
-2.551047181429122
 30
0.0
 40
0.0003132442838038
 50
0.8131030954215823
 51
28.6086224375907783
  0
ARC
  5
8328
  8
0
 10
106.4745504661749038
 20
-2.5515656036509098
 30
0.0
 40
0.0016247927027268
 50
24.2917036647587317
 51
39.5822727494385305
  0
ARC
  5
8329
  8
0
 10
3994.7500128950960061
 20
-3631.7884203182879901
 30
0.0
 40
5319.1772445261303801
 50
136.973097451518214
 51
136.973660997452896
  0
ARC
  5
832A
  8
0
 10
106.203189260105205
 20
-2.3163902168861341
 30
0.0
 40
0.0204033236057827
 50
235.8183095225450074
 51
316.973660997451816
  0
ARC
  5
832B
  8
0
 10
106.4519986436717005
 20
-1.9380764850783621
 30
0.0
 40
0.4732006793940307
 50
225.7132469225431066
 51
236.6312493376265991
  0
ARC
  5
832C
  8
0
 10
106.1356202422229984
 20
-2.260817837959717
 30
0.0
 40
0.0212836194302763
 50
180.386644250405908
 51
228.7478107358016075
  0
ARC
  5
832D
  8
0
 10
106.1338109091859963
 20
-2.2608300479137671
 30
0.0
 40
0.0194742451954428
 50
145.0053787602876127
 51
180.3866442504063912
  0
ARC
  5
832E
  8
0
 10
104.2883388152615964
 20
-0.9688747483802195
 30
0.0
 40
2.233283119779065
 50
325.0053787602873854
 51
325.7736067031768812
  0
ARC
  5
832F
  8
0
 10
106.1365352585491024
 20
-2.2261527260058069
 30
0.0
 40
0.0020195456340504
 50
73.9759058360474882
 51
145.7736067031678999
  0
ARC
  5
8330
  8
0
 10
106.0496784079217036
 20
-2.5285785177680111
 30
0.0
 40
0.3166708955817389
 50
59.2358821156718705
 51
73.9759058360474739
  0
ARC
  5
8331
  8
0
 10
106.0985155468620036
 20
-2.4465366801187289
 30
0.0
 40
0.2211935199122115
 50
45.4469315080918719
 51
59.2358821156719202
  0
ARC
  5
8332
  8
0
 10
106.2521947778298994
 20
-2.2904410239488691
 30
0.0
 40
0.0021429323622452
 50
343.4866657959262852
 51
45.4469315080695466
  0
ARC
  5
8333
  8
0
 10
106.2500054917528018
 20
-2.2897919736219481
 30
0.0
 40
0.0044264033724072
 50
329.0893965363026155
 51
343.4866657959294116
  0
ARC
  5
8334
  8
0
 10
106.1335394902286993
 20
-2.349915726162549
 30
0.0
 40
0.0510725097941571
 50
41.7078505551827305
 51
49.2391124148146702
  0
ARC
  5
8335
  8
0
 10
105.8871789718238006
 20
-2.6357213378494708
 30
0.0
 40
0.4284030713717979
 50
49.239112414815402
 51
51.2755132331186587
  0
ARC
  5
8336
  8
0
 10
106.0365362498199033
 20
-2.4494561754344728
 30
0.0
 40
0.1896515117540605
 50
51.2755132331186587
 51
53.9857083815022705
  0
ARC
  5
8337
  8
0
 10
106.0734917620105051
 20
-2.3986179483471619
 30
0.0
 40
0.1268006150647382
 50
53.9857083815022705
 51
56.5376328135926016
  0
ARC
  5
8338
  8
0
 10
106.1365872121482994
 20
-2.3031549476731099
 30
0.0
 40
0.0123706350516959
 50
56.5376328135927508
 51
66.0267046757370508
  0
ARC
  5
8339
  8
0
 10
106.1413105477358982
 20
-2.2925328410958228
 30
0.0
 40
0.0007457029137343
 50
66.0267046757351466
 51
90.8906567477175145
  0
ARC
  5
833A
  8
0
 10
106.1412999590607029
 20
-2.291851728497821
 30
0.0
 40
0.0000645080141621
 50
90.8906567482020051
 51
163.4738700804730911
  0
ARC
  5
833B
  8
0
 10
106.141471880713496
 20
-2.2919027393078681
 30
0.0
 40
0.00024383775917
 50
163.4738700806385054
 51
209.7152275553731045
  0
ARC
  5
833C
  8
0
 10
106.1461980173279045
 20
-2.2892053335987121
 30
0.0
 40
0.0056855621970292
 50
209.7152275553717971
 51
229.3757602120184913
  0
ARC
  5
833D
  8
0
 10
106.1978388827204043
 20
-2.2388072257556888
 30
0.0
 40
0.0778227115064928
 50
224.6723960204990078
 51
228.5904541124102138
  0
ARC
  5
833E
  8
0
 10
106.350267596061002
 20
-2.0636550197737149
 30
0.0
 40
0.3100127628081102
 50
228.8733093246405019
 51
231.4058797433368113
  0
ARC
  5
833F
  8
0
 10
106.2730305154149022
 20
-2.1626985068514091
 30
0.0
 40
0.1844269010078094
 50
230.9659792437734041
 51
235.9131070754079076
  0
ARC
  5
8340
  8
0
 10
106.1787726944508989
 20
-2.3014982627586171
 30
0.0
 40
0.0166500148396523
 50
236.8525534218393886
 51
242.2037907464655007
  0
ARC
  5
8341
  8
0
 10
106.1744446348128008
 20
-2.3094479639905532
 30
0.0
 40
0.0076002901580572
 50
243.1196494962539987
 51
248.5305418627505105
  0
ARC
  5
8342
  8
0
 10
106.1717827868521056
 20
-2.316284755565408
 30
0.0
 40
0.0002648312273054
 50
243.0808343629553008
 51
278.9516558416639782
  0
ARC
  5
8343
  8
0
 10
106.1717977111322
 20
-2.316379501094338
 30
0.0
 40
0.0001689174671303
 50
278.9516558416937073
 51
310.3191409089068884
  0
ARC
  5
8344
  8
0
 10
106.1718567307429026
 20
-2.316449047517696
 30
0.0
 40
0.0000777033265162
 50
310.3191409092581807
 51
0.8131030954973089
  0
ARC
  5
8345
  8
0
 10
106.1716212135033999
 20
-2.3164523900440521
 30
0.0
 40
0.0003132442838038
 50
0.8131030954215823
 51
28.6086224375907783
  0
ARC
  5
8346
  8
0
 10
106.1704152758895958
 20
-2.316970812265843
 30
0.0
 40
0.0016247927027268
 50
24.2917036647587317
 51
39.5822727494385305
  0
ARC
  5
8347
  8
0
 10
3994.8622791148459328
 20
-3631.7118801654478375
 30
0.0
 40
5319.1772445261303801
 50
136.973097451518214
 51
136.973660997452896
  0
ARC
  5
8348
  8
0
 10
106.3154554798551032
 20
-2.2398500640460628
 30
0.0
 40
0.0204033236057827
 50
235.8183095225450074
 51
316.973660997451816
  0
ARC
  5
8349
  8
0
 10
106.5642648634214993
 20
-1.861536332238291
 30
0.0
 40
0.4732006793940307
 50
225.7132469225431066
 51
236.6312493376265991
  0
ARC
  5
834A
  8
0
 10
106.2478864619728967
 20
-2.1842776851196422
 30
0.0
 40
0.0212836194302763
 50
180.386644250405908
 51
228.7478107358016075
  0
ARC
  5
834B
  8
0
 10
106.2460771289358945
 20
-2.1842898950736962
 30
0.0
 40
0.0194742451954428
 50
145.0053787602876127
 51
180.3866442504063912
  0
ARC
  5
834C
  8
0
 10
104.4006050350113952
 20
-0.8923345955401522
 30
0.0
 40
2.233283119779065
 50
325.0053787602873854
 51
325.7736067031768812
  0
ARC
  5
834D
  8
0
 10
106.2488014782989012
 20
-2.1496125731657361
 30
0.0
 40
0.0020195456340504
 50
73.9759058360474882
 51
145.7736067031678999
  0
ARC
  5
834E
  8
0
 10
106.1619446276716019
 20
-2.4520383649279398
 30
0.0
 40
0.3166708955817389
 50
59.2358821156718705
 51
73.9759058360474739
  0
ARC
  5
834F
  8
0
 10
106.2107817666118024
 20
-2.3699965272786581
 30
0.0
 40
0.2211935199122115
 50
45.4469315080918719
 51
59.2358821156719202
  0
ARC
  5
8350
  8
0
 10
106.3644609975796982
 20
-2.2139008711087982
 30
0.0
 40
0.0021429323622452
 50
343.4866657959262852
 51
45.4469315080695466
  0
ARC
  5
8351
  8
0
 10
106.3622717115026006
 20
-2.2132518207818772
 30
0.0
 40
0.0044264033724072
 50
329.0893965363026155
 51
343.4866657959294116
  0
ARC
  5
8352
  8
0
 10
106.2458057099785975
 20
-2.2733755733224781
 30
0.0
 40
0.0510725097941571
 50
41.7078505551827305
 51
49.2391124148146702
  0
ARC
  5
8353
  8
0
 10
105.9994451915735993
 20
-2.559181185009396
 30
0.0
 40
0.4284030713717979
 50
49.239112414815402
 51
51.2755132331186587
  0
ARC
  5
8354
  8
0
 10
106.1488024695697021
 20
-2.3729160225944019
 30
0.0
 40
0.1896515117540605
 50
51.2755132331186587
 51
53.9857083815022705
  0
ARC
  5
8355
  8
0
 10
106.1857579817603039
 20
-2.322077795507087
 30
0.0
 40
0.1268006150647382
 50
53.9857083815022705
 51
56.5376328135926016
  0
ARC
  5
8356
  8
0
 10
106.2488534318980982
 20
-2.226614794833043
 30
0.0
 40
0.0123706350516959
 50
56.5376328135927508
 51
66.0267046757370508
  0
ARC
  5
8357
  8
0
 10
106.253576767485697
 20
-2.2159926882557488
 30
0.0
 40
0.0007457029137343
 50
66.0267046757351466
 51
90.8906567477175145
  0
ARC
  5
8358
  8
0
 10
106.2535661788105017
 20
-2.2153115756577471
 30
0.0
 40
0.0000645080141621
 50
90.8906567482020051
 51
163.4738700804730911
  0
ARC
  5
8359
  8
0
 10
106.2537381004632948
 20
-2.2153625864677968
 30
0.0
 40
0.00024383775917
 50
163.4738700806385054
 51
209.7152275553731045
  0
ARC
  5
835A
  8
0
 10
106.2584642370777033
 20
-2.2126651807586368
 30
0.0
 40
0.0056855621970292
 50
209.7152275553717971
 51
229.3757602120184913
  0
ARC
  5
835B
  8
0
 10
106.3101051024702031
 20
-2.162267072915621
 30
0.0
 40
0.0778227115064928
 50
224.6723960204990078
 51
228.5904541124102138
  0
ARC
  5
835C
  8
0
 10
106.4625338158108008
 20
-1.987114866933644
 30
0.0
 40
0.3100127628081102
 50
228.8733093246405019
 51
231.4058797433368113
  0
ARC
  5
835D
  8
0
 10
106.385296735164701
 20
-2.0861583540113422
 30
0.0
 40
0.1844269010078094
 50
230.9659792437734041
 51
235.9131070754079076
  0
ARC
  5
835E
  8
0
 10
106.2910389142006977
 20
-2.2249581099185418
 30
0.0
 40
0.0166500148396523
 50
236.8525534218393886
 51
242.2037907464655007
  0
ARC
  5
835F
  8
0
 10
106.2867108545625996
 20
-2.2329078111504859
 30
0.0
 40
0.0076002901580572
 50
243.1196494962539987
 51
248.5305418627505105
  0
ARC
  5
8360
  8
0
 10
106.2840490066019044
 20
-2.239744602725334
 30
0.0
 40
0.0002648312273054
 50
243.0808343629553008
 51
278.9516558416639782
  0
ARC
  5
8361
  8
0
 10
106.2840639308819988
 20
-2.239839348254268
 30
0.0
 40
0.0001689174671303
 50
278.9516558416937073
 51
310.3191409089068884
  0
ARC
  5
8362
  8
0
 10
106.2841229504927014
 20
-2.2399088946776251
 30
0.0
 40
0.0000777033265162
 50
310.3191409092581807
 51
0.8131030954973089
  0
ARC
  5
8363
  8
0
 10
106.2838874332532981
 20
-2.2399122372039839
 30
0.0
 40
0.0003132442838038
 50
0.8131030954215823
 51
28.6086224375907783
  0
ARC
  5
8364
  8
0
 10
106.2826814956393946
 20
-2.240430659425769
 30
0.0
 40
0.0016247927027268
 50
24.2917036647587317
 51
39.5822727494385305
  0
ARC
  5
8365
  8
0
 10
3994.7065749467178648
 20
-3631.6661309318978965
 30
0.0
 40
5319.1772445261303801
 50
136.973097451518214
 51
136.973660997452896
  0
ARC
  5
8366
  8
0
 10
106.1597513117266942
 20
-2.1941008304965588
 30
0.0
 40
0.0204033236057827
 50
235.8183095225450074
 51
316.973660997451816
  0
ARC
  5
8367
  8
0
 10
106.4085606952931045
 20
-1.815787098688787
 30
0.0
 40
0.4732006793940307
 50
225.7132469225431066
 51
236.6312493376265991
  0
ARC
  5
8368
  8
0
 10
106.0921822938445018
 20
-2.1385284515701448
 30
0.0
 40
0.0212836194302763
 50
180.386644250405908
 51
228.7478107358016075
  0
ARC
  5
8369
  8
0
 10
106.0903729608074997
 20
-2.1385406615241922
 30
0.0
 40
0.0194742451954428
 50
145.0053787602876127
 51
180.3866442504063912
  0
ARC
  5
836A
  8
0
 10
104.2449008668830004
 20
-0.8465853619906447
 30
0.0
 40
2.233283119779065
 50
325.0053787602873854
 51
325.7736067031768812
  0
ARC
  5
836B
  8
0
 10
106.0930973101705064
 20
-2.1038633396162361
 30
0.0
 40
0.0020195456340504
 50
73.9759058360474882
 51
145.7736067031678999
  0
ARC
  5
836C
  8
0
 10
106.0062404595432071
 20
-2.4062891313784389
 30
0.0
 40
0.3166708955817389
 50
59.2358821156718705
 51
73.9759058360474739
  0
ARC
  5
836D
  8
0
 10
106.0550775984833933
 20
-2.3242472937291541
 30
0.0
 40
0.2211935199122115
 50
45.4469315080918719
 51
59.2358821156719202
  0
ARC
  5
836E
  8
0
 10
106.2087568294513034
 20
-2.1681516375592942
 30
0.0
 40
0.0021429323622452
 50
343.4866657959262852
 51
45.4469315080695466
  0
ARC
  5
836F
  8
0
 10
106.2065675433742058
 20
-2.1675025872323732
 30
0.0
 40
0.0044264033724072
 50
329.0893965363026155
 51
343.4866657959294116
  0
ARC
  5
8370
  8
0
 10
106.0901015418502027
 20
-2.2276263397729781
 30
0.0
 40
0.0510725097941571
 50
41.7078505551827305
 51
49.2391124148146702
  0
ARC
  5
8371
  8
0
 10
105.8437410234452045
 20
-2.5134319514598991
 30
0.0
 40
0.4284030713717979
 50
49.239112414815402
 51
51.2755132331186587
  0
ARC
  5
8372
  8
0
 10
105.9930983014412931
 20
-2.3271667890448979
 30
0.0
 40
0.1896515117540605
 50
51.2755132331186587
 51
53.9857083815022705
  0
ARC
  5
8373
  8
0
 10
106.0300538136318949
 20
-2.276328561957587
 30
0.0
 40
0.1268006150647382
 50
53.9857083815022705
 51
56.5376328135926016
  0
ARC
  5
8374
  8
0
 10
106.0931492637698028
 20
-2.180865561283539
 30
0.0
 40
0.0123706350516959
 50
56.5376328135927508
 51
66.0267046757370508
  0
ARC
  5
8375
  8
0
 10
106.0978725993573022
 20
-2.1702434547062479
 30
0.0
 40
0.0007457029137343
 50
66.0267046757351466
 51
90.8906567477175145
  0
ARC
  5
8376
  8
0
 10
106.0978620106821069
 20
-2.1695623421082431
 30
0.0
 40
0.0000645080141621
 50
90.8906567482020051
 51
163.4738700804730911
  0
ARC
  5
8377
  8
0
 10
106.0980339323349
 20
-2.1696133529182928
 30
0.0
 40
0.00024383775917
 50
163.4738700806385054
 51
209.7152275553731045
  0
ARC
  5
8378
  8
0
 10
106.1027600689492942
 20
-2.1669159472091368
 30
0.0
 40
0.0056855621970292
 50
209.7152275553717971
 51
229.3757602120184913
  0
ARC
  5
8379
  8
0
 10
106.154400934341794
 20
-2.116517839366117
 30
0.0
 40
0.0778227115064928
 50
224.6723960204990078
 51
228.5904541124102138
  0
ARC
  5
837A
  8
0
 10
106.3068296476824059
 20
-1.941365633384144
 30
0.0
 40
0.3100127628081102
 50
228.8733093246405019
 51
231.4058797433368113
  0
ARC
  5
837B
  8
0
 10
106.2295925670363061
 20
-2.0404091204618382
 30
0.0
 40
0.1844269010078094
 50
230.9659792437734041
 51
235.9131070754079076
  0
ARC
  5
837C
  8
0
 10
106.1353347460723029
 20
-2.1792088763690418
 30
0.0
 40
0.0166500148396523
 50
236.8525534218393886
 51
242.2037907464655007
  0
ARC
  5
837D
  8
0
 10
106.1310066864342048
 20
-2.1871585776009819
 30
0.0
 40
0.0076002901580572
 50
243.1196494962539987
 51
248.5305418627505105
  0
ARC
  5
837E
  8
0
 10
106.1283448384734953
 20
-2.193995369175834
 30
0.0
 40
0.0002648312273054
 50
243.0808343629553008
 51
278.9516558416639782
  0
ARC
  5
837F
  8
0
 10
106.1283597627536039
 20
-2.1940901147047671
 30
0.0
 40
0.0001689174671303
 50
278.9516558416937073
 51
310.3191409089068884
  0
ARC
  5
8380
  8
0
 10
106.1284187823643066
 20
-2.1941596611281211
 30
0.0
 40
0.0000777033265162
 50
310.3191409092581807
 51
0.8131030954973089
  0
ARC
  5
8381
  8
0
 10
106.1281832651249033
 20
-2.1941630036544768
 30
0.0
 40
0.0003132442838038
 50
0.8131030954215823
 51
28.6086224375907783
  0
ARC
  5
8382
  8
0
 10
106.1269773275109998
 20
-2.194681425876265
 30
0.0
 40
0.0016247927027268
 50
24.2917036647587317
 51
39.5822727494385305
  0
ARC
  5
8383
  8
0
 10
3994.5810418166429372
 20
-3631.6902848000181621
 30
0.0
 40
5319.1772445261303801
 50
136.973097451518214
 51
136.973660997452896
  0
ARC
  5
8384
  8
0
 10
106.0342181816508997
 20
-2.2182546986165579
 30
0.0
 40
0.0204033236057827
 50
235.8183095225450074
 51
316.973660997451816
  0
ARC
  5
8385
  8
0
 10
106.2830275652173952
 20
-1.8399409668087889
 30
0.0
 40
0.4732006793940307
 50
225.7132469225431066
 51
236.6312493376265991
  0
ARC
  5
8386
  8
0
 10
105.9666491637688068
 20
-2.1626823196901439
 30
0.0
 40
0.0212836194302763
 50
180.386644250405908
 51
228.7478107358016075
  0
ARC
  5
8387
  8
0
 10
105.9648398307318047
 20
-2.1626945296441948
 30
0.0
 40
0.0194742451954428
 50
145.0053787602876127
 51
180.3866442504063912
  0
ARC
  5
8388
  8
0
 10
104.1193677368073054
 20
-0.8707392301106509
 30
0.0
 40
2.233283119779065
 50
325.0053787602873854
 51
325.7736067031768812
  0
ARC
  5
8389
  8
0
 10
105.9675641800947972
 20
-2.1280172077362352
 30
0.0
 40
0.0020195456340504
 50
73.9759058360474882
 51
145.7736067031678999
  0
ARC
  5
838A
  8
0
 10
105.8807073294673984
 20
-2.430442999498438
 30
0.0
 40
0.3166708955817389
 50
59.2358821156718705
 51
73.9759058360474739
  0
ARC
  5
838B
  8
0
 10
105.9295444684076983
 20
-2.3484011618491571
 30
0.0
 40
0.2211935199122115
 50
45.4469315080918719
 51
59.2358821156719202
  0
ARC
  5
838C
  8
0
 10
106.0832236993755942
 20
-2.1923055056792959
 30
0.0
 40
0.0021429323622452
 50
343.4866657959262852
 51
45.4469315080695466
  0
ARC
  5
838D
  8
0
 10
106.0810344132984966
 20
-2.1916564553523719
 30
0.0
 40
0.0044264033724072
 50
329.0893965363026155
 51
343.4866657959294116
  0
ARC
  5
838E
  8
0
 10
105.964568411774394
 20
-2.2517802078929772
 30
0.0
 40
0.0510725097941571
 50
41.7078505551827305
 51
49.2391124148146702
  0
ARC
  5
838F
  8
0
 10
105.7182078933694953
 20
-2.537585819579899
 30
0.0
 40
0.4284030713717979
 50
49.239112414815402
 51
51.2755132331186587
  0
ARC
  5
8390
  8
0
 10
105.8675651713655981
 20
-2.351320657164897
 30
0.0
 40
0.1896515117540605
 50
51.2755132331186587
 51
53.9857083815022705
  0
ARC
  5
8391
  8
0
 10
105.9045206835561999
 20
-2.3004824300775901
 30
0.0
 40
0.1268006150647382
 50
53.9857083815022705
 51
56.5376328135926016
  0
ARC
  5
8392
  8
0
 10
105.9676161336939941
 20
-2.2050194294035421
 30
0.0
 40
0.0123706350516959
 50
56.5376328135927508
 51
66.0267046757370508
  0
ARC
  5
8393
  8
0
 10
105.972339469281593
 20
-2.194397322826247
 30
0.0
 40
0.0007457029137343
 50
66.0267046757351466
 51
90.8906567477175145
  0
ARC
  5
8394
  8
0
 10
105.9723288806063977
 20
-2.1937162102282448
 30
0.0
 40
0.0000645080141621
 50
90.8906567482020051
 51
163.4738700804730911
  0
ARC
  5
8395
  8
0
 10
105.972500802259205
 20
-2.193767221038299
 30
0.0
 40
0.00024383775917
 50
163.4738700806385054
 51
209.7152275553731045
  0
ARC
  5
8396
  8
0
 10
105.9772269388735992
 20
-2.191069815329139
 30
0.0
 40
0.0056855621970292
 50
209.7152275553717971
 51
229.3757602120184913
  0
ARC
  5
8397
  8
0
 10
106.028867804266099
 20
-2.1406717074861201
 30
0.0
 40
0.0778227115064928
 50
224.6723960204990078
 51
228.5904541124102138
  0
ARC
  5
8398
  8
0
 10
106.1812965176066967
 20
-1.9655195015041429
 30
0.0
 40
0.3100127628081102
 50
228.8733093246405019
 51
231.4058797433368113
  0
ARC
  5
8399
  8
0
 10
106.1040594369605969
 20
-2.0645629885818368
 30
0.0
 40
0.1844269010078094
 50
230.9659792437734041
 51
235.9131070754079076
  0
ARC
  5
839A
  8
0
 10
106.0098016159965937
 20
-2.203362744489044
 30
0.0
 40
0.0166500148396523
 50
236.8525534218393886
 51
242.2037907464655007
  0
ARC
  5
839B
  8
0
 10
106.0054735563584956
 20
-2.211312445720981
 30
0.0
 40
0.0076002901580572
 50
243.1196494962539987
 51
248.5305418627505105
  0
ARC
  5
839C
  8
0
 10
106.0028117083978003
 20
-2.2181492372958331
 30
0.0
 40
0.0002648312273054
 50
243.0808343629553008
 51
278.9516558416639782
  0
ARC
  5
839D
  8
0
 10
106.0028266326778947
 20
-2.2182439828247662
 30
0.0
 40
0.0001689174671303
 50
278.9516558416937073
 51
310.3191409089068884
  0
ARC
  5
839E
  8
0
 10
106.0028856522885974
 20
-2.2183135292481242
 30
0.0
 40
0.0000777033265162
 50
310.3191409092581807
 51
0.8131030954973089
  0
ARC
  5
839F
  8
0
 10
106.0026501350491941
 20
-2.218316871774479
 30
0.0
 40
0.0003132442838038
 50
0.8131030954215823
 51
28.6086224375907783
  0
ARC
  5
83A0
  8
0
 10
106.0014441974353048
 20
-2.2188352939962672
 30
0.0
 40
0.0016247927027268
 50
24.2917036647587317
 51
39.5822727494385305
  0
ARC
  5
83A1
  8
0
 10
106.0303990833769063
 20
-1.9995283647633031
 30
0.0
 40
0.000720140486554
 50
244.6995135899913123
 51
300.7056294915884109
  0
ARC
  5
83A2
  8
0
 10
106.0344711715204937
 20
-1.9887707355672251
 30
0.0
 40
0.0122205308678812
 50
235.3876960593345871
 51
248.9979671568243873
  0
ARC
  5
83A3
  8
0
 10
106.0701817554657964
 20
-1.9359051759915531
 30
0.0
 40
0.076016672409683
 50
229.1585270795256122
 51
235.8688778728896125
  0
ARC
  5
83A4
  8
0
 10
106.122413037838399
 20
-1.8735421047358931
 30
0.0
 40
0.1573584274793689
 50
223.3591716717401994
 51
229.6207217447860103
  0
ARC
  5
83A5
  8
0
 10
106.0541565602513998
 20
-1.937572039603104
 30
0.0
 40
0.0637713356569585
 50
217.2575613657785141
 51
223.6367553049138053
  0
ARC
  5
83A6
  8
0
 10
106.0120098504696955
 20
-1.9695240700600001
 30
0.0
 40
0.0108824351139596
 50
203.6431769492695878
 51
217.7011383272360092
  0
ARC
  5
83A7
  8
0
 10
106.0027759643827068
 20
-1.9735611009210059
 30
0.0
 40
0.0008046410073431
 50
157.5063300260611072
 51
203.998299394606903
  0
ARC
  5
83A8
  8
0
 10
106.0023029883109018
 20
-1.9734585798636419
 30
0.0
 40
0.0003395570050733
 50
93.5226414717646151
 51
142.79497311909941
  0
ARC
  5
83A9
  8
0
 10
106.0022289120905015
 20
-1.9756505000898801
 30
0.0
 40
0.0025313950301717
 50
67.2538642170606238
 51
88.7954881894742982
  0
ARC
  5
83AA
  8
0
 10
105.9995229947136011
 20
-1.9817432657444589
 30
0.0
 40
0.0091976090848065
 50
56.4796574795672512
 51
66.3835190225168503
  0
ARC
  5
83AB
  8
0
 10
105.9597703300937042
 20
-2.042020612826025
 30
0.0
 40
0.0814030833603009
 50
47.7069770435581617
 51
56.582243990437739
  0
ARC
  5
83AC
  8
0
 10
105.9128743434273048
 20
-2.097264054047602
 30
0.0
 40
0.1538448098956391
 50
43.2782205129744568
 51
48.6324873819337711
  0
ARC
  5
83AD
  8
0
 10
105.9876825756800969
 20
-2.0279120053110691
 30
0.0
 40
0.0518442731456717
 50
35.4133695762319434
 51
44.15524976605397
  0
ARC
  5
83AE
  8
0
 10
106.0224272786319943
 20
-2.0031047865064582
 30
0.0
 40
0.0091529111685973
 50
23.4933513181006184
 51
34.886662165361308
  0
ARC
  5
83AF
  8
0
 10
106.0297929310649039
 20
-1.999800642518589
 30
0.0
 40
0.0010847314601206
 50
349.032340995534696
 51
18.5226388362226011
  0
ARC
  5
83B0
  8
0
 10
106.0305852796282977
 20
-1.999930181289961
 30
0.0
 40
0.0002831929940663
 50
309.8665599775372925
 51
344.257011027831993
  0
LINE
  5
83B1
  8
0
 10
106.0123285877207024
 20
-1.9929967544937131
 30
0.0
 11
105.9800230340810003
 21
-2.022770396038982
 31
0.0
  0
ARC
  5
83B2
  8
0
 10
105.9659551846659014
 20
-2.0075062348451702
 30
0.0
 40
0.020758106949226
 50
253.7103455428826067
 51
312.6644748694446889
  0
ARC
  5
83B3
  8
0
 10
105.9771748074412017
 20
-1.9774453284442111
 30
0.0
 40
0.0528110259039795
 50
237.2706556543087117
 51
251.1736926118497024
  0
ARC
  5
83B4
  8
0
 10
106.1136199546733963
 20
-1.7884265360180569
 30
0.0
 40
0.2858691889384243
 50
227.4570560722254129
 51
234.747417469649605
  0
ARC
  5
83B5
  8
0
 10
106.1811538738191985
 20
-1.7148370060542919
 30
0.0
 40
0.385750364119128
 50
222.7512565855790001
 51
227.4570560722254129
  0
ARC
  5
83B6
  8
0
 10
105.9923587423124047
 20
-1.889365109325815
 30
0.0
 40
0.1286440427028296
 50
214.5217640435010082
 51
222.7512565855790001
  0
ARC
  5
83B7
  8
0
 10
105.9080472784353049
 20
-1.947357939096974
 30
0.0
 40
0.0263132494587549
 50
173.4430267076612893
 51
214.5217640435024009
  0
ARC
  5
83B8
  8
0
 10
105.8993300635945047
 20
-1.9463559562492061
 30
0.0
 40
0.0175386381164779
 50
139.0159560415602016
 51
173.4430267076627104
  0
LINE
  5
83B9
  8
0
 10
105.8860902815371929
 20
-1.9348532609974101
 30
0.0
 11
105.9094125438904967
 21
-1.9059258508013699
 31
0.0
  0
ARC
  5
83BA
  8
0
 10
105.9143544726149031
 20
-1.9093144185553641
 30
0.0
 40
0.0059931558050165
 50
92.1167127002116075
 51
145.5677394150465886
  0
ARC
  5
83BB
  8
0
 10
105.8936820373887997
 20
-2.021063649392687
 30
0.0
 40
0.1195012685730805
 50
45.0583328011702875
 51
80.1460725313719138
  0
ARC
  5
83BC
  8
0
 10
106.0016569263392938
 20
-1.985793009084748
 30
0.0
 40
0.0128763961347044
 50
325.9784806914001933
 51
335.041807685318588
  0
ARC
  5
83BD
  8
0
 10
105.9478415281076025
 20
-2.0223231727064781
 30
0.0
 40
0.0056888454666326
 50
1.1027801788797851
 51
38.2808068645836528
  0
ARC
  5
83BE
  8
0
 10
105.8799546275382966
 20
-2.0663814071039708
 30
0.0
 40
0.0865967232740074
 50
33.330869627779137
 51
42.5907300313115726
  0
ARC
  5
83BF
  8
0
 10
105.7164244038356031
 20
-2.2122561512409362
 30
0.0
 40
0.3057280414835309
 50
41.9767231919992483
 51
46.7837843586005633
  0
ARC
  5
83C0
  8
0
 10
105.6992021283542016
 20
-2.2279137809287941
 30
0.0
 40
0.3289370278691489
 50
46.4651038210788272
 51
51.151247834949551
  0
ARC
  5
83C1
  8
0
 10
105.8295079665402056
 20
-2.0651211416328752
 30
0.0
 40
0.1204185273074795
 50
50.8507142175787408
 51
57.662137521743567
  0
ARC
  5
83C2
  8
0
 10
105.8828080852595974
 20
-1.9809836829938261
 30
0.0
 40
0.0208192794838546
 50
57.7383410886411781
 51
70.4532779120813757
  0
ARC
  5
83C3
  8
0
 10
105.8888990548848028
 20
-1.963345033010792
 30
0.0
 40
0.0021653067431418
 50
66.1754041613547628
 51
102.6397345773139023
  0
ARC
  5
83C4
  8
0
 10
105.8887163912281011
 20
-1.962016423779974
 30
0.0
 40
0.000836523443335
 50
110.3678533196709992
 51
183.5747526013043114
  0
ARC
  5
83C5
  8
0
 10
105.8974057085721938
 20
-1.9601649596810899
 30
0.0
 40
0.0097125904327579
 50
191.3028713436058013
 51
217.5643732257422869
  0
ARC
  5
83C6
  8
0
 10
106.1677700418369028
 20
-1.767025827957432
 30
0.0
 40
0.3419710529983752
 50
215.5981930341853001
 51
217.3717980023706957
  0
ARC
  5
83C7
  8
0
 10
105.9527954138381034
 20
-2.022010979412844
 30
0.0
 40
0.0007613854564311
 50
271.5525041204720083
 51
344.5597625658792253
  0
ARC
  5
83C8
  8
0
 10
105.9541687154820977
 20
-2.0125618718045071
 30
0.0
 40
0.0102994265196141
 50
236.6492481902872953
 51
262.4532661488585177
  0
ARC
  5
83C9
  8
0
 10
105.9051962850836048
 20
-2.091854226589251
 30
0.0
 40
0.0829018175250213
 50
58.5047768905224004
 51
61.8655104222699492
  0
ARC
  5
83CA
  8
0
 10
105.9346979670830962
 20
-2.0048452775563308
 30
0.0
 40
0.000720140486554
 50
244.6995135899913123
 51
300.7056294915884109
  0
ARC
  5
83CB
  8
0
 10
105.9387700552265983
 20
-1.9940876483602521
 30
0.0
 40
0.0122205308678812
 50
235.3876960593345871
 51
248.9979671568243873
  0
ARC
  5
83CC
  8
0
 10
105.974480639171901
 20
-1.9412220887845879
 30
0.0
 40
0.076016672409683
 50
229.1585270795256122
 51
235.8688778728896125
  0
ARC
  5
83CD
  8
0
 10
106.0267119215445035
 20
-1.8788590175289199
 30
0.0
 40
0.1573584274793689
 50
223.3591716717401994
 51
229.6207217447860103
  0
ARC
  5
83CE
  8
0
 10
105.9584554439575044
 20
-1.9428889523961279
 30
0.0
 40
0.0637713356569585
 50
217.2575613657785141
 51
223.6367553049138053
  0
ARC
  5
83CF
  8
0
 10
105.9163087341758001
 20
-1.9748409828530309
 30
0.0
 40
0.0108824351139596
 50
203.6431769492695878
 51
217.7011383272360092
  0
ARC
  5
83D0
  8
0
 10
105.9070748480887971
 20
-1.9788780137140369
 30
0.0
 40
0.0008046410073431
 50
157.5063300260611072
 51
203.998299394606903
  0
ARC
  5
83D1
  8
0
 10
105.9066018720170064
 20
-1.978775492656669
 30
0.0
 40
0.0003395570050733
 50
93.5226414717646151
 51
142.79497311909941
  0
ARC
  5
83D2
  8
0
 10
105.9065277957967055
 20
-1.980967412882908
 30
0.0
 40
0.0025313950301717
 50
67.2538642170606238
 51
88.7954881894742982
  0
ARC
  5
83D3
  8
0
 10
105.9038218784197056
 20
-1.987060178537486
 30
0.0
 40
0.0091976090848065
 50
56.4796574795672512
 51
66.3835190225168503
  0
ARC
  5
83D4
  8
0
 10
105.8640692137997945
 20
-2.047337525619052
 30
0.0
 40
0.0814030833603009
 50
47.7069770435581617
 51
56.582243990437739
  0
ARC
  5
83D5
  8
0
 10
105.8171732271333951
 20
-2.102580966840637
 30
0.0
 40
0.1538448098956391
 50
43.2782205129744568
 51
48.6324873819337711
  0
ARC
  5
83D6
  8
0
 10
105.8919814593863009
 20
-2.033228918104097
 30
0.0
 40
0.0518442731456717
 50
35.4133695762319434
 51
44.15524976605397
  0
ARC
  5
83D7
  8
0
 10
105.9267261623380989
 20
-2.0084216992994892
 30
0.0
 40
0.0091529111685973
 50
23.4933513181006184
 51
34.886662165361308
  0
ARC
  5
83D8
  8
0
 10
105.9340918147709942
 20
-2.005117555311617
 30
0.0
 40
0.0010847314601206
 50
349.032340995534696
 51
18.5226388362226011
  0
ARC
  5
83D9
  8
0
 10
105.9348841633344023
 20
-2.0052470940829918
 30
0.0
 40
0.0002831929940663
 50
309.8665599775372925
 51
344.257011027831993
  0
LINE
  5
83DA
  8
0
 10
105.9215767424024932
 20
-2.0001825224859711
 30
0.0
 11
105.8936218544258026
 21
-2.0259464769855562
 31
0.0
  0
ARC
  5
83DB
  8
0
 10
105.8795540050107036
 20
-2.0106823157917399
 30
0.0
 40
0.020758106949226
 50
253.7103455428826067
 51
312.6644748694446889
  0
ARC
  5
83DC
  8
0
 10
105.8907736277860039
 20
-1.9806214093907779
 30
0.0
 40
0.0528110259039795
 50
237.2706556543087117
 51
251.1736926118497024
  0
ARC
  5
83DD
  8
0
 10
106.0272187750182979
 20
-1.7916026169646271
 30
0.0
 40
0.2858691889384243
 50
227.4570560722254129
 51
234.747417469649605
  0
ARC
  5
83DE
  8
0
 10
106.0947526941641001
 20
-1.7180130870008581
 30
0.0
 40
0.385750364119128
 50
222.7512565855790001
 51
227.4570560722254129
  0
ARC
  5
83DF
  8
0
 10
105.9059575626573064
 20
-1.892541190272385
 30
0.0
 40
0.1286440427028296
 50
214.5217640435010082
 51
222.7512565855790001
  0
ARC
  5
83E0
  8
0
 10
105.8216460987802066
 20
-1.950534020043541
 30
0.0
 40
0.0263132494587549
 50
173.4430267076612893
 51
214.5217640435024009
  0
ARC
  5
83E1
  8
0
 10
105.8129288839394064
 20
-1.9495320371957729
 30
0.0
 40
0.0175386381164779
 50
139.0159560415602016
 51
173.4430267076627104
  0
LINE
  5
83E2
  8
0
 10
105.7996891018820946
 20
-1.9380293419439769
 30
0.0
 11
105.8230113642353984
 21
-1.909101931747937
 31
0.0
  0
ARC
  5
83E3
  8
0
 10
105.8279532929598048
 20
-1.912490499501931
 30
0.0
 40
0.0059931558050165
 50
92.1167127002116075
 51
145.5677394150465886
  0
ARC
  5
83E4
  8
0
 10
105.8072808577337014
 20
-2.0242397303392532
 30
0.0
 40
0.1195012685730805
 50
48.6053813202638096
 51
80.1460725313719138
  0
ARC
  5
83E5
  8
0
 10
105.8614403484525042
 20
-2.0254992536530478
 30
0.0
 40
0.0056888454666326
 50
1.1027801788797851
 51
38.2808068645836528
  0
ARC
  5
83E6
  8
0
 10
105.7935534478831983
 20
-2.069557488050541
 30
0.0
 40
0.0865967232740074
 50
33.330869627779137
 51
42.5907300313115726
  0
ARC
  5
83E7
  8
0
 10
105.6300232241805048
 20
-2.215432232187506
 30
0.0
 40
0.3057280414835309
 50
41.9767231919992483
 51
46.7837843586005633
  0
ARC
  5
83E8
  8
0
 10
105.6128009486990038
 20
-2.2310898618753612
 30
0.0
 40
0.3289370278691489
 50
46.4651038210788272
 51
51.151247834949551
  0
ARC
  5
83E9
  8
0
 10
105.7431067868850931
 20
-2.0682972225794449
 30
0.0
 40
0.1204185273074795
 50
50.8507142175787408
 51
57.662137521743567
  0
ARC
  5
83EA
  8
0
 10
105.7964069056043996
 20
-1.984159763940393
 30
0.0
 40
0.0208192794838546
 50
57.7383410886411781
 51
70.4532779120813757
  0
ARC
  5
83EB
  8
0
 10
105.802497875229605
 20
-1.9665211139573591
 30
0.0
 40
0.0021653067431418
 50
66.1754041613547628
 51
102.6397345773139023
  0
ARC
  5
83EC
  8
0
 10
105.8023152115730028
 20
-1.9651925047265411
 30
0.0
 40
0.000836523443335
 50
110.3678533196709992
 51
183.5747526013043114
  0
ARC
  5
83ED
  8
0
 10
105.811004528916996
 20
-1.963341040627657
 30
0.0
 40
0.0097125904327579
 50
191.3028713436058013
 51
217.5643732257422016
  0
ARC
  5
83EE
  8
0
 10
106.081368862181705
 20
-1.770201908904002
 30
0.0
 40
0.3419710529983752
 50
215.5981930341853001
 51
217.3717980023706957
  0
ARC
  5
83EF
  8
0
 10
105.8663942341830051
 20
-2.0251870603594142
 30
0.0
 40
0.0007613854564311
 50
271.5525041204720083
 51
344.5597625658792253
  0
ARC
  5
83F0
  8
0
 10
105.8677675358268999
 20
-2.0157379527510741
 30
0.0
 40
0.0102994265196141
 50
236.6492481902872953
 51
262.4532661488585177
  0
ARC
  5
83F1
  8
0
 10
105.8187951054284071
 20
-2.0950303075358221
 30
0.0
 40
0.0829018175250213
 50
58.5047768905224004
 51
61.8655104222699492
  0
ARC
  5
83F2
  8
0
 10
105.8482967874278984
 20
-2.008021358502901
 30
0.0
 40
0.000720140486554
 50
244.6995135899913123
 51
300.7056294915884109
  0
ARC
  5
83F3
  8
0
 10
105.8523688755715
 20
-1.9972637293068189
 30
0.0
 40
0.0122205308678812
 50
235.3876960593345871
 51
248.9979671568243873
  0
ARC
  5
83F4
  8
0
 10
105.8880794595168027
 20
-1.9443981697311541
 30
0.0
 40
0.076016672409683
 50
229.1585270795256122
 51
235.8688778728896125
  0
ARC
  5
83F5
  8
0
 10
105.9403107418893057
 20
-1.882035098475487
 30
0.0
 40
0.1573584274793689
 50
223.3591716717401994
 51
229.6207217447860103
  0
ARC
  5
83F6
  8
0
 10
105.8720542643024061
 20
-1.9460650333426981
 30
0.0
 40
0.0637713356569585
 50
217.2575613657785141
 51
223.6367553049138053
  0
ARC
  5
83F7
  8
0
 10
105.8299075545207018
 20
-1.9780170637995971
 30
0.0
 40
0.0108824351139596
 50
203.6431769492695878
 51
217.7011383272360092
  0
ARC
  5
83F8
  8
0
 10
105.8206736684335993
 20
-1.982054094660608
 30
0.0
 40
0.0008046410073431
 50
157.5063300260611072
 51
203.998299394606903
  0
ARC
  5
83F9
  8
0
 10
105.8202006923617944
 20
-1.981951573603236
 30
0.0
 40
0.0003395570050733
 50
93.5226414717646151
 51
142.79497311909941
  0
ARC
  5
83FA
  8
0
 10
105.8201266161414935
 20
-1.984143493829478
 30
0.0
 40
0.0025313950301717
 50
67.2538642170606238
 51
88.7954881894742982
  0
ARC
  5
83FB
  8
0
 10
105.8174206987644936
 20
-1.990236259484053
 30
0.0
 40
0.0091976090848065
 50
56.4796574795672512
 51
66.3835190225168503
  0
ARC
  5
83FC
  8
0
 10
105.7776680341446962
 20
-2.0505136065656191
 30
0.0
 40
0.0814030833603009
 50
47.7069770435581617
 51
56.582243990437739
  0
ARC
  5
83FD
  8
0
 10
105.7307720474782968
 20
-2.1057570477872041
 30
0.0
 40
0.1538448098956391
 50
43.2782205129744568
 51
48.6324873819337711
  0
ARC
  5
83FE
  8
0
 10
105.8055802797311031
 20
-2.0364049990506632
 30
0.0
 40
0.0518442731456717
 50
35.4133695762319434
 51
44.15524976605397
  0
ARC
  5
83FF
  8
0
 10
105.8403249826829011
 20
-2.0115977802460558
 30
0.0
 40
0.0091529111685973
 50
23.4933513181006184
 51
34.886662165361308
  0
ARC
  5
8400
  8
0
 10
105.8476906351158959
 20
-2.008293636258184
 30
0.0
 40
0.0010847314601206
 50
349.032340995534696
 51
18.5226388362226011
  0
ARC
  5
8401
  8
0
 10
105.848482983679304
 20
-2.0084231750295589
 30
0.0
 40
0.0002831929940663
 50
309.8665599775372925
 51
344.257011027831993
  0
ARC
  5
8402
  8
0
 10
3994.4450043485949209
 20
-3631.5941862174017842
 30
0.0
 40
5319.1772445261303801
 50
136.973097451518214
 51
136.973660997452896
  0
ARC
  5
8403
  8
0
 10
105.8981807136027982
 20
-2.1221561159995832
 30
0.0
 40
0.0204033236057827
 50
235.8183095225450074
 51
316.973660997451816
  0
ARC
  5
8404
  8
0
 10
106.1469900971692937
 20
-1.7438423841918109
 30
0.0
 40
0.4732006793940307
 50
225.7132469225431066
 51
236.6312493376265991
  0
ARC
  5
8405
  8
0
 10
105.8306116957206058
 20
-2.0665837370731701
 30
0.0
 40
0.0212836194302763
 50
180.386644250405908
 51
228.7478107358016075
  0
ARC
  5
8406
  8
0
 10
105.8288023626836036
 20
-2.0665959470272171
 30
0.0
 40
0.0194742451954428
 50
145.0053787602876127
 51
180.3866442504063912
  0
ARC
  5
8407
  8
0
 10
103.9833302687591043
 20
-0.7746406474936727
 30
0.0
 40
2.233283119779065
 50
325.0053787602873854
 51
325.7736067031768812
  0
ARC
  5
8408
  8
0
 10
105.8315267120466956
 20
-2.031918625119256
 30
0.0
 40
0.0020195456340504
 50
73.9759058360474882
 51
145.7736067031678999
  0
ARC
  5
8409
  8
0
 10
105.7446698614192968
 20
-2.3343444168814602
 30
0.0
 40
0.3166708955817389
 50
59.2358821156718705
 51
73.9759058360474739
  0
ARC
  5
840A
  8
0
 10
105.7935070003594973
 20
-2.252302579232178
 30
0.0
 40
0.2211935199122115
 50
45.4469315080918719
 51
59.2358821156719202
  0
ARC
  5
840B
  8
0
 10
105.9471862313275068
 20
-2.096206923062315
 30
0.0
 40
0.0021429323622452
 50
343.4866657959262852
 51
45.4469315080695466
  0
ARC
  5
840C
  8
0
 10
105.9449969452502955
 20
-2.0955578727353981
 30
0.0
 40
0.0044264033724072
 50
329.0893965363026155
 51
343.4866657959294116
  0
ARC
  5
840D
  8
0
 10
105.8285309437263066
 20
-2.1556816252759989
 30
0.0
 40
0.0510725097941571
 50
41.7078505551827305
 51
49.2391124148146702
  0
ARC
  5
840E
  8
0
 10
105.5821704253212943
 20
-2.4414872369629239
 30
0.0
 40
0.4284030713717979
 50
49.239112414815402
 51
51.2755132331186587
  0
ARC
  5
840F
  8
0
 10
105.7315277033174965
 20
-2.2552220745479228
 30
0.0
 40
0.1896515117540605
 50
51.2755132331186587
 51
53.9857083815022705
  0
ARC
  5
8410
  8
0
 10
105.7684832155080983
 20
-2.204383847460611
 30
0.0
 40
0.1268006150647382
 50
53.9857083815022705
 51
56.5376328135926016
  0
ARC
  5
8411
  8
0
 10
105.8315786656459068
 20
-2.108920846786563
 30
0.0
 40
0.0123706350516959
 50
56.5376328135927508
 51
66.0267046757370508
  0
ARC
  5
8412
  8
0
 10
105.8363020012335056
 20
-2.0982987402092732
 30
0.0
 40
0.0007457029137343
 50
66.0267046757351466
 51
90.8906567477175145
  0
ARC
  5
8413
  8
0
 10
105.8362914125582961
 20
-2.097617627611267
 30
0.0
 40
0.0000645080141621
 50
90.8906567482020051
 51
163.4738700804730911
  0
ARC
  5
8414
  8
0
 10
105.8364633342111034
 20
-2.0976686384213208
 30
0.0
 40
0.00024383775917
 50
163.4738700806385054
 51
209.7152275553731045
  0
ARC
  5
8415
  8
0
 10
105.8411894708254977
 20
-2.0949712327121608
 30
0.0
 40
0.0056855621970292
 50
209.7152275553717971
 51
229.3757602120184913
  0
ARC
  5
8416
  8
0
 10
105.892830336217898
 20
-2.0445731248691419
 30
0.0
 40
0.0778227115064928
 50
224.6723960204990078
 51
228.5904541124102138
  0
ARC
  5
8417
  8
0
 10
106.0452590495585952
 20
-1.8694209188871651
 30
0.0
 40
0.3100127628081102
 50
228.8733093246405019
 51
231.4058797433368113
  0
ARC
  5
8418
  8
0
 10
105.9680219689123959
 20
-1.9684644059648659
 30
0.0
 40
0.1844269010078094
 50
230.9659792437734041
 51
235.9131070754079076
  0
ARC
  5
8419
  8
0
 10
105.8737641479484068
 20
-2.1072641618720702
 30
0.0
 40
0.0166500148396523
 50
236.8525534218393886
 51
242.2037907464655007
  0
ARC
  5
841A
  8
0
 10
105.8694360883102945
 20
-2.1152138631040058
 30
0.0
 40
0.0076002901580572
 50
243.1196494962539987
 51
248.5305418627505105
  0
ARC
  5
841B
  8
0
 10
105.8667742403495993
 20
-2.122050654678858
 30
0.0
 40
0.0002648312273054
 50
243.0808343629553008
 51
278.9516558416639782
  0
ARC
  5
841C
  8
0
 10
105.8667891646297932
 20
-2.1221454002077951
 30
0.0
 40
0.0001689174671303
 50
278.9516558416937073
 51
310.3191409089068884
  0
ARC
  5
841D
  8
0
 10
105.8668481842404958
 20
-2.122214946631146
 30
0.0
 40
0.0000777033265162
 50
310.3191409092581807
 51
0.8131030954973089
  0
ARC
  5
841E
  8
0
 10
105.866612667000993
 20
-2.1222182891575012
 30
0.0
 40
0.0003132442838038
 50
0.8131030954215823
 51
28.6086224375907783
  0
ARC
  5
841F
  8
0
 10
105.8654067293872032
 20
-2.122736711379289
 30
0.0
 40
0.0016247927027268
 50
24.2917036647587317
 51
39.5822727494385305
  0
LINE
  5
8420
  8
0
 10
105.8313171889374047
 20
-1.999802153509872
 30
0.0
 11
105.8226833582531015
 21
-2.0074068785042272
 31
0.0
  0
ARC
  5
8421
  8
0
 10
105.8074967468954952
 20
-1.9901651463933341
 30
0.0
 40
0.0229763028077073
 50
235.6065532896732861
 51
311.3737745229872758
  0
ARC
  5
8422
  8
0
 10
106.4793542487114024
 20
-1.2542996230957859
 30
0.0
 40
1.0191964881957489
 50
222.6908615228826136
 51
227.7832330156462035
  0
ARC
  5
8423
  8
0
 10
105.7593012537976023
 20
-1.925096365996648
 30
0.0
 40
0.0354423713519983
 50
192.7777288025284008
 51
214.867541248854991
  0
ARC
  5
8424
  8
0
 10
105.7388259177147063
 20
-1.9297398792633971
 30
0.0
 40
0.0144470956174918
 50
129.756948122826401
 51
192.7777288025262123
  0
LINE
  5
8425
  8
0
 10
105.7295865343955938
 20
-1.9186334681570609
 30
0.0
 11
105.754479874407906
 21
-1.888902057081576
 31
0.0
  0
ARC
  5
8426
  8
0
 10
105.7560775492201941
 20
-1.890375766095562
 30
0.0
 40
0.0021743938355625
 50
79.3729412957535914
 51
136.8319409628014114
  0
ARC
  5
8427
  8
0
 10
105.6755018486502991
 20
-2.059745260664136
 30
0.0
 40
0.1896621641873977
 50
44.9835583117443178
 51
64.725701207139295
  0
LINE
  5
8428
  8
0
 10
106.6491822560981007
 20
-2.6189923870323741
 30
0.0
 11
106.6161765069896035
 21
-2.6520738551755469
 31
0.0
  0
ARC
  5
8429
  8
0
 10
106.6022430670706029
 20
-2.6381723070279679
 30
0.0
 40
0.0196823217348874
 50
229.5510193336261864
 51
315.06564626861541
  0
LINE
  5
842A
  8
0
 10
106.589473753748095
 20
-2.653150238332024
 30
0.0
 11
106.5201211631160021
 21
-2.5940242521376682
 31
0.0
  0
ARC
  5
842B
  8
0
 10
106.5281939489975969
 20
-2.584555173471176
 30
0.0
 40
0.0124432038753077
 50
181.5852232763014911
 51
229.5510193336264138
  0
LINE
  5
842C
  8
0
 10
106.6172120144912014
 20
-2.5931349544678071
 30
0.0
 11
106.5870225896120047
 21
-2.623224083447361
 31
0.0
  0
ARC
  5
842D
  8
0
 10
106.5730168534274043
 20
-2.6091716620326819
 30
0.0
 40
0.0198401409694375
 50
231.5044528161398034
 51
314.9046671480904251
  0
LINE
  5
842E
  8
0
 10
106.5606672820237009
 20
-2.6246996779983851
 30
0.0
 11
106.5345142114088048
 21
-2.6038999046275322
 31
0.0
  0
ARC
  5
842F
  8
0
 10
106.5660969740948048
 20
-2.5539588214265301
 30
0.0
 40
0.0590896157558279
 50
197.0267527789733037
 51
237.6907217402790025
  0
ARC
  5
8430
  8
0
 10
106.208528374558
 20
-2.3420602024225579
 30
0.0
 40
0.013436025175059
 50
33.9683015233128174
 51
51.6219921215724895
  0
ARC
  5
8431
  8
0
 10
106.2195025461629996
 20
-2.3346060035887781
 30
0.0
 40
0.0001770612557147
 50
295.3192598891495209
 51
17.406393238691539
  0
ARC
  5
8432
  8
0
 10
-1831.7663315252459597
 20
2091.2096381347960232
 30
0.0
 40
2852.8437669942968569
 50
312.7893268858683768
 51
312.7903115722323832
  0
ARC
  5
8433
  8
0
 10
106.1701132549692943
 20
-2.3533110892632472
 30
0.0
 40
0.0199932712740776
 50
223.5093606311004066
 51
312.4136715550314989
  0
ARC
  5
8434
  8
0
 10
103.1249051555378031
 20
-5.545284874946339
 30
0.0
 40
4.391605809615009
 50
46.3608827765121774
 51
47.5106277428633987
  0
ARC
  5
8435
  8
0
 10
106.1049054976397059
 20
-2.2926712066693531
 30
0.0
 40
0.0197371930668323
 50
141.1953970928231001
 51
226.1431359171340034
  0
LINE
  5
8436
  8
0
 10
106.0895245473572004
 20
-2.2803025705858699
 30
0.0
 11
106.1062083103756066
 21
-2.259552356507629
 31
0.0
  0
LINE
  5
8437
  8
0
 10
106.1391031350549952
 20
-2.2047748956817972
 30
0.0
 11
106.109758403780404
 21
-2.241038229379487
 31
0.0
  0
ARC
  5
8438
  8
0
 10
106.1253017649939068
 20
-2.2536161065740532
 30
0.0
 40
0.0199949761824272
 50
141.0197940514221955
 51
228.1173495154168904
  0
LINE
  5
8439
  8
0
 10
106.1119529759847069
 20
-2.2685026408861719
 30
0.0
 11
106.118892219623703
 21
-2.2739770824657302
 31
0.0
  0
LINE
  5
843A
  8
0
 10
106.5948527685364979
 20
-2.5628762661237579
 30
0.0
 11
106.5493473360683936
 21
-2.535864941738935
 31
0.0
  0
LINE
  5
843B
  8
0
 10
106.3023290534092951
 20
-2.3968020492341919
 30
0.0
 11
106.2168332920173981
 21
-2.3373070482751892
 31
0.0
  0
LINE
  5
843C
  8
0
 10
106.1053797028336021
 20
-2.2553221287938068
 30
0.0
 11
106.0602929771200991
 21
-2.220220929932903
 31
0.0
  0
LINE
  5
843D
  8
0
 10
105.9581051978311024
 20
-2.1382557162036759
 30
0.0
 11
105.9313592517930971
 21
-2.1165115952537792
 31
0.0
  0
LINE
  5
843E
  8
0
 10
105.8308401367321068
 20
-2.030019367657661
 30
0.0
 11
105.8100199720174004
 21
-2.0130024804254769
 31
0.0
  0
LINE
  5
843F
  8
0
 10
106.4199905271794933
 20
-2.4652444545884542
 30
0.0
 11
106.4302741915468999
 21
-2.4723446200740429
 31
0.0
  0
LINE
  5
8440
  8
0
 10
105.6842167158193035
 20
-1.8891860664800251
 30
0.0
 11
105.7272272766610968
 21
-1.921126511891134
 31
0.0
  0
ARC
  5
8441
  8
0
 10
109.6008428063031062
 20
-7.6176631794429133
 30
0.0
 40
0.0196864796613758
 50
270.4921094607059899
 51
359.9979215790208968
  0
ARC
  5
8442
  8
0
 10
109.5868054716763993
 20
-7.6767191592322117
 30
0.0
 40
0.0393702280329976
 50
91.6226772663384139
 51
180.0011659098906023
  0
LINE
  5
8443
  8
0
 10
108.8151518634515043
 20
-7.6767190116756581
 30
0.0
 11
109.5474352436515062
 21
-7.6767199603756584
 31
0.0
  0
ARC
  5
8444
  8
0
 10
108.8786173229961065
 20
4.4049054958819962
 30
0.0
 40
12.1033370859243607
 50
271.4329833952484137
 51
272.9780285267684121
  0
ARC
  5
8445
  8
0
 10
109.4880052353833975
 20
-7.3088533448612312
 30
0.0
 40
0.373737783013205
 50
272.9780285267684121
 51
278.5724037974592875
  0
ARC
  5
8446
  8
0
 10
109.5421838037934066
 20
-7.6682631508428232
 30
0.0
 40
0.0102673909443621
 50
278.5724037974626981
 51
296.2198178219001079
  0
ARC
  5
8447
  8
0
 10
109.5463296030088003
 20
-7.6763876231971748
 30
0.0
 40
0.0011545082204558
 50
289.7696460200962179
 51
343.2700964519848981
  0
LINE
  5
8448
  8
0
 10
109.5474141369805068
 20
-7.6767834454999706
 30
0.0
 11
109.5877722310515026
 21
-7.697800895475658
 31
0.0
  0
ARC
  5
8449
  8
0
 10
109.5828419921766965
 20
-7.7066010870059136
 30
0.0
 40
0.0100871515470129
 50
297.0355979840030045
 51
60.7406095785762474
  0
LINE
  5
844A
  8
0
 10
109.5874270463514932
 20
-7.7155859578756578
 30
0.0
 11
109.5468232944751037
 21
-7.7367741139827171
 31
0.0
  0
LINE
  5
844B
  8
0
 10
109.5468232944751037
 20
-7.7367741139827171
 30
0.0
 11
109.5474353280515061
 21
-7.7479228567756593
 31
0.0
  0
LINE
  5
844C
  8
0
 10
109.5474353280515061
 20
-7.7479228567756593
 30
0.0
 11
109.5873536421514984
 21
-7.7687507429756577
 31
0.0
  0
ARC
  5
844D
  8
0
 10
109.582558915550095
 20
-7.7779402209985236
 30
0.0
 40
0.0103651294982136
 50
296.224251447293625
 51
62.4461282371613109
  0
LINE
  5
844E
  8
0
 10
109.587139116951505
 20
-7.787238482375658
 30
0.0
 11
109.5474353280515061
 21
-7.8079487533756593
 31
0.0
  0
LINE
  5
844F
  8
0
 10
109.5474353280515061
 20
-7.8079488159879311
 30
0.0
 11
109.5474353280515061
 21
-7.8192705725756593
 31
0.0
  0
LINE
  5
8450
  8
0
 10
109.5474353280515061
 20
-7.8192705725756593
 30
0.0
 11
109.5873153811015044
 21
-7.8400660515756577
 31
0.0
  0
ARC
  5
8451
  8
0
 10
109.5824816945792008
 20
-7.8493357430762511
 30
0.0
 40
0.0104542673541562
 50
297.1919818574838246
 51
62.4601827285048117
  0
LINE
  5
8452
  8
0
 10
109.5872590172514975
 20
-7.8586346082756577
 30
0.0
 11
109.5474360753366057
 21
-7.8793995766503206
 31
0.0
  0
LINE
  5
8453
  8
0
 10
109.5474360753366057
 20
-7.8793995766503206
 30
0.0
 11
109.5474353280515061
 21
-7.8908596484378419
 31
0.0
  0
LINE
  5
8454
  8
0
 10
109.5474353280515061
 20
-7.8908596484378419
 30
0.0
 11
109.587147456451504
 21
-7.9115383459756581
 31
0.0
  0
ARC
  5
8455
  8
0
 10
109.5823253443023049
 20
-7.9207989068247393
 30
0.0
 40
0.0104408214628481
 50
297.5165291192889754
 51
62.4933347569860587
  0
LINE
  5
8456
  8
0
 10
109.5871490506515045
 20
-7.9300586373756579
 30
0.0
 11
109.5474353280515061
 21
-7.9511328078756591
 31
0.0
  0
LINE
  5
8457
  8
0
 10
109.5474353280515061
 20
-7.9511328078756591
 30
0.0
 11
109.5474353280515061
 21
-8.0034929138756592
 31
0.0
  0
ARC
  5
8458
  8
0
 10
109.5277502886515038
 20
-8.0034929138756592
 30
0.0
 40
0.0196850394000006
 50
270.0000000015925821
 51
0.000000000005496
  0
LINE
  5
8459
  8
0
 10
109.5277502886521006
 20
-8.0231779532756597
 30
0.0
 11
108.8348369028521034
 21
-8.0231779532949172
 31
0.0
  0
ARC
  5
845A
  8
0
 10
108.8348369028515066
 20
-8.0034929138949114
 30
0.0
 40
0.0196850394000059
 50
179.9999999439635019
 51
270.0000000015925821
  0
LINE
  5
845B
  8
0
 10
108.8151518634515043
 20
-8.0034929138756592
 30
0.0
 11
108.8151518635380057
 21
-7.9150745539013796
 31
0.0
  0
LINE
  5
845C
  8
0
 10
108.8151518635380057
 20
-7.9150745539013796
 30
0.0
 11
108.7754096973515061
 21
-7.8944199623756592
 31
0.0
  0
ARC
  5
845D
  8
0
 10
108.7802506090770009
 20
-7.885105407883052
 30
0.0
 40
0.0104973973788663
 50
117.8651782961655954
 51
242.538433044186803
  0
LINE
  5
845E
  8
0
 10
108.7753442030515032
 20
-7.8758251852756578
 30
0.0
 11
108.8151518634515043
 21
-7.8550646265756576
 31
0.0
  0
LINE
  5
845F
  8
0
 10
108.8151518634515043
 20
-7.8550646265756576
 30
0.0
 11
108.8151518634515043
 21
-7.8435485305350339
 31
0.0
  0
LINE
  5
8460
  8
0
 10
108.8151518634515043
 20
-7.8435485305350339
 30
0.0
 11
108.7753423455514934
 21
-7.8228348240756578
 31
0.0
  0
ARC
  5
8461
  8
0
 10
108.7801385828400953
 20
-7.8136169714153603
 30
0.0
 40
0.0103909912806749
 50
116.9674703469234061
 51
242.5111175711797102
  0
LINE
  5
8462
  8
0
 10
108.7754264287515014
 20
-7.8043558535756592
 30
0.0
 11
108.8151518634515043
 21
-7.7836311193756593
 31
0.0
  0
LINE
  5
8463
  8
0
 10
108.8151518634515043
 20
-7.7836311193756584
 30
0.0
 11
108.8151518634515043
 21
-7.7722371879682193
 31
0.0
  0
LINE
  5
8464
  8
0
 10
108.8151518634515043
 20
-7.7722371879682193
 30
0.0
 11
108.7750778573515049
 21
-7.7513624274756578
 31
0.0
  0
ARC
  5
8465
  8
0
 10
108.7798604548109012
 20
-7.7421811082538561
 30
0.0
 40
0.0103522877235455
 50
115.8327549721047944
 51
242.4847558338639999
  0
LINE
  5
8466
  8
0
 10
108.7753494896980015
 20
-7.732863326604682
 30
0.0
 11
108.8151518634515043
 21
-7.712111259675658
 31
0.0
  0
LINE
  5
8467
  8
0
 10
108.8151518634515043
 20
-7.7121112074169371
 30
0.0
 11
108.8151518634515043
 21
-7.6767190116756581
 31
0.0
  0
ARC
  5
8468
  8
0
 10
108.7737897497212032
 20
-7.677423150210835
 30
0.0
 40
0.0413681068374531
 50
0.9752951660324864
 51
75.6321450399412214
  0
ARC
  5
8469
  8
0
 10
109.1108197541552016
 20
-2.5789274835172882
 30
0.0
 40
5.3899186641760402
 50
270.7491706278125889
 51
274.6463910863507749
  0
ARC
  5
846A
  8
0
 10
109.2260951087722987
 20
-11.3945625980006806
 30
0.0
 40
3.426470102155371
 50
90.7491706278126458
 51
92.9036398610247005
  0
ARC
  5
846B
  8
0
 10
108.9957947073082067
 20
-6.8540743080837538
 30
0.0
 40
1.1198550276376169
 50
261.0276120297211264
 51
272.9036398610247147
  0
ARC
  5
846C
  8
0
 10
109.0608899258792945
 20
-8.5439152665171818
 30
0.0
 40
0.6310078652112593
 50
90.5903329825978147
 51
112.330059916140101
  0
ARC
  5
846D
  8
0
 10
108.8788589021687017
 20
1.6181201456992449
 30
0.0
 40
9.5326772325037048
 50
271.0550739731035037
 51
274.0217539080599067
  0
ARC
  5
846E
  8
0
 10
108.8378830510664983
 20
-7.9769059071457651
 30
0.0
 40
0.0658773340381892
 50
96.5084843080000354
 51
110.1850458252790048
  0
ARC
  5
846F
  8
0
 10
109.4179165584218936
 20
-17.82457313806675
 30
0.0
 40
9.9305138365060515
 50
91.3653654347745885
 51
93.3916652841352999
  0
ARC
  5
8470
  8
0
 10
108.7761286844360029
 20
-7.8928998297947626
 30
0.0
 40
0.0016803312260369
 50
228.529781518838206
 51
241.2973792634730046
  0
ARC
  5
8471
  8
0
 10
108.7754721691599968
 20
-7.8936426629954477
 30
0.0
 40
0.0006889617330449
 50
194.4537768607978876
 51
228.5297815188361028
  0
ARC
  5
8472
  8
0
 10
108.7751531851038038
 20
-7.8937248833880131
 30
0.0
 40
0.0003595516222276
 50
115.3073605692587051
 51
194.4537768609905015
  0
ARC
  5
8473
  8
0
 10
108.7900973676906062
 20
-7.9360092842860697
 30
0.0
 40
0.0452052084789244
 50
93.5698433393335165
 51
109.5108550413500978
  0
ARC
  5
8474
  8
0
 10
109.4176827008429029
 20
-19.2366177800511409
 30
0.0
 40
11.3632258823380408
 50
91.1920096701393987
 51
93.1802426157946257
  0
ARC
  5
8475
  8
0
 10
108.7551805324160057
 20
7.9211556069579876
 30
0.0
 40
15.8237727872990099
 50
271.5430853388385799
 51
272.6627610878292103
  0
ARC
  5
8476
  8
0
 10
109.4682223758609041
 20
-7.4106259234775234
 30
0.0
 40
0.4754193392086667
 50
272.6627610878292103
 51
279.591274515222608
  0
ARC
  5
8477
  8
0
 10
108.2889499927552066
 20
25.9476092721173615
 30
0.0
 40
33.8352292657207627
 50
271.5112488438343803
 51
271.9165899114198055
  0
ARC
  5
8478
  8
0
 10
109.1966231204721964
 20
-1.176837234649653
 30
0.0
 40
6.6956001450926621
 50
271.9165899114198055
 51
272.9387553756312741
  0
ARC
  5
8479
  8
0
 10
109.5158574536869054
 20
-7.3953669366729473
 30
0.0
 40
0.4688817305143225
 50
272.9387553756312741
 51
278.7101559293660102
  0
ARC
  5
847A
  8
0
 10
108.8760904982269011
 20
-8.1655772810736931
 30
0.0
 40
0.3164358162593102
 50
92.0386389205103228
 51
101.1032824345926997
  0
ARC
  5
847B
  8
0
 10
105.4429661937504932
 20
88.2813780863246649
 30
0.0
 40
96.191602927313312
 50
272.0386389205103228
 51
272.2272665195949912
  0
ARC
  5
847C
  8
0
 10
114.6261171125629943
 20
-147.8334876800705899
 30
0.0
 40
140.1017742475040961
 50
92.0975793289797764
 51
92.227266519594977
  0
ARC
  5
847D
  8
0
 10
109.4881837566822043
 20
-7.55256287665821
 30
0.0
 40
0.2732100726022621
 50
272.0975793289796911
 51
282.5253672972515915
  0
ARC
  5
847E
  8
0
 10
108.7782817108579962
 20
-7.8267789590965542
 30
0.0
 40
0.0058282142143307
 50
97.5447176029570642
 51
130.4627674010509111
  0
ARC
  5
847F
  8
0
 10
108.8630350785140024
 20
-8.4666850263357372
 30
0.0
 40
0.6513225272942809
 50
94.8691071538753192
 51
97.5447176029570642
  0
ARC
  5
8480
  8
0
 10
109.4990598524737067
 20
-22.0728296519093483
 30
0.0
 40
14.2718694998672007
 50
91.2758083313901523
 51
92.7764115987071563
  0
ARC
  5
8481
  8
0
 10
108.8576219656991952
 20
6.3936828139866089
 30
0.0
 40
14.20186981457638
 50
271.3059283325509909
 51
272.8355189883960747
  0
ARC
  5
8482
  8
0
 10
109.5054221933333025
 20
-7.1597038174474452
 30
0.0
 40
0.6334658454995074
 50
274.9583345447252896
 51
277.2636117501400008
  0
ARC
  5
8483
  8
0
 10
108.8255829563261017
 20
-7.8053296437333088
 30
0.0
 40
0.0240755821914418
 50
91.4318156740333592
 51
115.6749068078135991
  0
ARC
  5
8484
  8
0
 10
109.0005255299611946
 20
-9.7312355103743293
 30
0.0
 40
1.95785956734037
 50
92.0202211295355994
 51
95.1441199812122278
  0
ARC
  5
8485
  8
0
 10
110.1386744796191977
 20
-39.3494662683664274
 30
0.0
 40
31.5979411547204307
 50
91.7362612347288291
 51
92.189460915032015
  0
ARC
  5
8486
  8
0
 10
108.9249549039950011
 20
2.9318299149962832
 30
0.0
 40
10.7009328342203194
 50
271.3726401624932123
 51
273.2058882645131916
  0
ARC
  5
8487
  8
0
 10
109.5042114355572949
 20
-7.5809338810281579
 30
0.0
 40
0.1724923850596135
 50
276.3853317139607952
 51
284.5120937968951011
  0
ARC
  5
8488
  8
0
 10
108.7891503294578968
 20
-7.7878657956740396
 30
0.0
 40
0.0398550007057267
 50
93.6782384097871272
 51
111.9249465967530028
  0
ARC
  5
8489
  8
0
 10
109.2746777843308053
 20
-15.3405157365256404
 30
0.0
 40
7.6080950892917842
 50
90.7098269540016844
 51
93.6782384097871272
  0
ARC
  5
848A
  8
0
 10
109.0774894603643048
 20
0.5753080339162047
 30
0.0
 40
8.3089501618492196
 50
270.7098269540016986
 51
273.1989768183454999
  0
ARC
  5
848B
  8
0
 10
109.5117134035014033
 20
-7.193845500600311
 30
0.0
 40
0.5276715345486923
 50
273.1989768183454999
 51
278.1129991618797135
  0
ARC
  5
848C
  8
0
 10
108.8584866097915977
 20
-7.9051795861461551
 30
0.0
 40
0.1978718750264314
 50
92.2550304653317568
 51
102.6505440882068996
  0
ARC
  5
848D
  8
0
 10
109.509229439528994
 20
-20.4255618608947493
 30
0.0
 40
12.7351384288605995
 50
91.4755565491850859
 51
92.9640623649586928
  0
LINE
  5
848E
  8
0
 10
108.7559981358283068
 20
-7.6373489329756579
 30
0.0
 11
109.6010118900271948
 21
-7.6373489329756579
 31
0.0
  0
ARC
  5
8490
  8
0
 10
109.0306501354039028
 20
-8.7832833591256865
 30
0.0
 40
0.8493030750140778
 50
89.3412750373141478
 51
104.2811529071236976
  0
ARC
  5
8491
  8
0
 10
109.0604496240757015
 20
-6.1914433626337777
 30
0.0
 40
1.7427082245253891
 50
269.3412750373141193
 51
273.9762309452257796
  0
ARC
  5
8492
  8
0
 10
108.5786834733925019
 20
15.9638342360873597
 30
0.0
 40
23.9013887706552488
 50
271.4447141964254229
 51
272.2036430623791148
  0
ARC
  5
8493
  8
0
 10
109.5006213443384979
 20
-7.4135804584180258
 30
0.0
 40
0.5063066571683064
 50
269.6721263135784739
 51
279.9724893110882817
  0
ARC
  5
8494
  8
0
 10
45.2561858125392504
 20
-60.5081876490087183
 30
0.0
 40
85.121257468641133
 50
42.8229443965124972
 51
45.3611701710132422
  0
ARC
  5
8495
  8
0
 10
108.4238120235125962
 20
-1.967320156261722
 30
0.0
 40
1.001806619514797
 50
222.8229443965126109
 51
266.8938163307186073
  0
ENDSEC
  0
EOF
