  0
SECTION
  2
HEADER
  9
$ACADVER
  1
AC1009
  9
$INSBASE
 10
85.7220734737746852
 20
-6.993078227551778
 30
0.0
  9
$EXTMIN
 10
79.4031758359747073
 20
-22.7489137923354683
 30
0.0
  9
$EXTMAX
 10
85.7220734737746852
 20
9.6466855519224808
 30
0.0
  9
$LIMMIN
 10
0.0
 20
0.0
  9
$LIMMAX
 10
11.6929133858000007
 20
8.2677165353999982
  9
$ORTHOMODE
 70
     0
  9
$REGENMODE
 70
     1
  9
$FILLMODE
 70
     1
  9
$QTEXTMODE
 70
     0
  9
$MIRRTEXT
 70
     0
  9
$DRAGMODE
 70
     2
  9
$LTSCALE
 40
0.6431102362
  9
$OSMODE
 70
  3839
  9
$ATTMODE
 70
     1
  9
$TEXTSIZE
 40
0.2
  9
$TRACEWID
 40
0.05
  9
$TEXTSTYLE
  7
STANDARD
  9
$CLAYER
  8
0
  9
$CELTYPE
  6
BYLAYER
  9
$CECOLOR
 62
   256
  9
$DIMSCALE
 40
1.0
  9
$DIMASZ
 40
0.1875
  9
$DIMEXO
 40
0.0625
  9
$DIMDLI
 40
0.4443307087
  9
$DIMRND
 40
0.0
  9
$DIMDLE
 40
0.0
  9
$DIMEXE
 40
0.125
  9
$DIMTP
 40
0.01
  9
$DIMTM
 40
0.01
  9
$DIMTXT
 40
1.0
  9
$DIMCEN
 40
0.1052362205
  9
$DIMTSZ
 40
0.0
  9
$DIMTOL
 70
     1
  9
$DIMLIM
 70
     0
  9
$DIMTIH
 70
     1
  9
$DIMTOH
 70
     1
  9
$DIMSE1
 70
     0
  9
$DIMSE2
 70
     0
  9
$DIMTAD
 70
     0
  9
$DIMZIN
 70
     0
  9
$DIMBLK
  1

  9
$DIMASO
 70
     1
  9
$DIMSHO
 70
     1
  9
$DIMPOST
  1
\X
  9
$DIMAPOST
  1

  9
$DIMALT
 70
     1
  9
$DIMALTD
 70
     2
  9
$DIMALTF
 40
25.3999999999999986
  9
$DIMLFAC
 40
1.0
  9
$DIMTOFL
 70
     0
  9
$DIMTVP
 40
0.0
  9
$DIMTIX
 70
     0
  9
$DIMSOXD
 70
     0
  9
$DIMSAH
 70
     0
  9
$DIMBLK1
  1

  9
$DIMBLK2
  1

  9
$DIMSTYLE
  2
STANDARD
  9
$DIMCLRD
 70
     0
  9
$DIMCLRE
 70
     0
  9
$DIMCLRT
 70
     0
  9
$DIMTFAC
 40
1.0
  9
$DIMGAP
 40
0.09
  9
$LUNITS
 70
     2
  9
$LUPREC
 70
     4
  9
$SKETCHINC
 40
0.1
  9
$FILLETRAD
 40
0.0
  9
$AUNITS
 70
     0
  9
$AUPREC
 70
     0
  9
$MENU
  1
.
  9
$ELEVATION
 40
0.0
  9
$PELEVATION
 40
0.0
  9
$THICKNESS
 40
0.0
  9
$LIMCHECK
 70
     0
  9
$BLIPMODE
 70
     0
  9
$CHAMFERA
 40
0.0
  9
$CHAMFERB
 40
0.0
  9
$SKPOLY
 70
     0
  9
$TDCREATE
 40
2458172.4620254631154239
  9
$TDUPDATE
 40
2459115.5757870371453464
  9
$TDINDWG
 40
0.0900638079
  9
$TDUSRTIMER
 40
0.0900638079
  9
$USRTIMER
 70
     1
  9
$ANGBASE
 50
0.0
  9
$ANGDIR
 70
     0
  9
$PDMODE
 70
     0
  9
$PDSIZE
 40
0.3125
  9
$PLINEWID
 40
0.0
  9
$COORDS
 70
     1
  9
$SPLFRAME
 70
     0
  9
$SPLINETYPE
 70
     6
  9
$SPLINESEGS
 70
     8
  9
$ATTDIA
 70
     1
  9
$ATTREQ
 70
     1
  9
$HANDLING
 70
     1
  9
$HANDSEED
  5
461A
  9
$SURFTAB1
 70
     6
  9
$SURFTAB2
 70
     6
  9
$SURFTYPE
 70
     6
  9
$SURFU
 70
     6
  9
$SURFV
 70
     6
  9
$UCSNAME
  2

  9
$UCSORG
 10
0.0
 20
0.0
 30
0.0
  9
$UCSXDIR
 10
1.0
 20
0.0
 30
0.0
  9
$UCSYDIR
 10
0.0
 20
1.0
 30
0.0
  9
$PUCSNAME
  2

  9
$PUCSORG
 10
0.0
 20
0.0
 30
0.0
  9
$PUCSXDIR
 10
1.0
 20
0.0
 30
0.0
  9
$PUCSYDIR
 10
0.0
 20
1.0
 30
0.0
  9
$USERI1
 70
     0
  9
$USERI2
 70
     0
  9
$USERI3
 70
     0
  9
$USERI4
 70
     0
  9
$USERI5
 70
     0
  9
$USERR1
 40
0.0
  9
$USERR2
 40
0.0
  9
$USERR3
 40
0.0
  9
$USERR4
 40
0.0
  9
$USERR5
 40
0.0
  9
$WORLDVIEW
 70
     1
  9
$SHADEDGE
 70
     3
  9
$SHADEDIF
 70
    70
  9
$TILEMODE
 70
     1
  9
$MAXACTVP
 70
    64
  9
$PLIMCHECK
 70
     0
  9
$PEXTMIN
 10
1.0000000000000000E+20
 20
1.0000000000000000E+20
 30
1.0000000000000000E+20
  9
$PEXTMAX
 10
-1.0000000000000000E+20
 20
-1.0000000000000000E+20
 30
-1.0000000000000000E+20
  9
$PLIMMIN
 10
0.0
 20
0.0
  9
$PLIMMAX
 10
12.0
 20
9.0
  9
$UNITMODE
 70
     0
  9
$VISRETAIN
 70
     1
  9
$PLINEGEN
 70
     0
  9
$PSLTSCALE
 70
     1
  0
ENDSEC
  0
SECTION
  2
TABLES
  0
TABLE
  2
VPORT
 70
     1
  0
VPORT
  2
*ACTIVE
 70
     0
 10
0.0
 20
0.0
 11
1.0
 21
1.0
 12
0.0
 22
0.0
 13
0.0
 23
0.0
 14
1.0
 24
1.0
 15
0.0
 25
0.0
 16
-0.0000000000000284
 26
0.0
 36
136.9651092327773938
 17
82.5626258850097656
 27
-6.5586414337158203
 37
0.0
 40
32.9913368445725226
 41
3.314341846758349
 42
50.0
 43
0.0
 44
0.0
 50
0.0
 51
0.0
 71
     0
 72
   100
 73
     1
 74
     1
 75
     0
 76
     0
 77
     0
 78
     0
  0
ENDTAB
  0
TABLE
  2
LTYPE
 70
     2
  0
LTYPE
  2
CONTINUOUS
 70
     0
  3
Solid line
 72
    65
 73
     0
 40
0.0
  0
LTYPE
  2
PHANTOM2
 70
     0
  3
___ _ _ ___ _ _ ___ _ _ ___ _ _
 72
    65
 73
     6
 40
1.25
 49
0.625
 49
-0.125
 49
0.125
 49
-0.125
 49
0.125
 49
-0.125
  0
ENDTAB
  0
TABLE
  2
LAYER
 70
     2
  0
LAYER
  2
0
 70
     0
 62
   255
  6
CONTINUOUS
  0
LAYER
  2
DEFPOINTS
 70
     0
 62
     7
  6
CONTINUOUS
  0
ENDTAB
  0
TABLE
  2
STYLE
 70
     1
  0
STYLE
  2
STANDARD
 70
     0
 40
0.0
 41
0.8
 50
0.0
 71
     0
 42
0.2
  3
txt
  4

  0
ENDTAB
  0
TABLE
  2
VIEW
 70
     0
  0
ENDTAB
  0
TABLE
  2
UCS
 70
     0
  0
ENDTAB
  0
TABLE
  2
APPID
 70
     9
  0
APPID
  2
ACAD
 70
     0
  0
APPID
  2
ACAD_MLEADERVER
 70
     0
  0
APPID
  2
ACAD_EXEMPT_FROM_CAD_STANDARDS
 70
     0
  0
APPID
  2
ACAD_DSTYLE_DIMJAG
 70
     0
  0
APPID
  2
ACAD_DSTYLE_DIMTALN
 70
     0
  0
APPID
  2
ACAD_NAV_VCDISPLAY
 70
     0
  0
APPID
  2
ACAECLAYERSTANDARD
 70
     0
  0
APPID
  2
ACCMTRANSPARENCY
 70
     0
  0
APPID
  2
ACDBATTR
 70
     0
  0
ENDTAB
  0
TABLE
  2
DIMSTYLE
 70
     1
  0
DIMSTYLE
  2
STANDARD
 70
     0
  3

  4

  5

  6

  7

 40
1.0
 41
0.1875
 42
0.0625
 43
0.38
 44
0.125
 45
0.0
 46
0.0
 47
0.01
 48
0.01
140
0.15625
141
0.09
142
0.0
143
25.3999999999999986
144
1.0
145
0.0
146
1.0
147
0.09
 71
     1
 72
     0
 73
     1
 74
     1
 75
     0
 76
     0
 77
     0
 78
     4
170
     0
171
     2
172
     0
173
     0
174
     0
175
     0
176
     0
177
     0
178
     0
  0
ENDTAB
  0
ENDSEC
  0
SECTION
  2
BLOCKS
  0
BLOCK
  8
0
  2
$MODEL_SPACE
 70
     0
 10
0.0
 20
0.0
 30
0.0
  3
$MODEL_SPACE
  1

  0
ENDBLK
  5
21
  8
0
  0
BLOCK
 67
     1
  8
0
  2
$PAPER_SPACE
 70
     0
 10
0.0
 20
0.0
 30
0.0
  3
$PAPER_SPACE
  1

  0
ENDBLK
  5
1D
 67
     1
  8
0
  0
BLOCK
  8
0
  2
_FILLED
 70
     0
 10
0.0
 20
0.0
 30
0.0
  3
_FILLED
  1

  0
SOLID
  5
218A
  8
0
  6
BYBLOCK
 62
     0
 10
0.0
 20
0.0
 30
0.0
 11
-1.0
 21
0.1666666667
 31
0.0
 12
-1.0
 22
-0.1666666667
 32
0.0
 13
-1.0
 23
-0.1666666667
 33
0.0
  0
ENDBLK
  5
218B
  8
0
  6
BYBLOCK
 62
     0
  0
BLOCK
  8
0
  2
A$C8E06F677
 70
     2
 10
0.0
 20
0.0
 30
0.0
  3
A$C8E06F677
  1

  0
LINE
  5
25FB
  8
0
 10
1.747233255562274
 20
1.1826998054469571
 30
0.0
 11
1.7472332593233859
 21
2.5989003663334409
 31
0.0
  0
ARC
  5
25FC
  8
0
 10
1.7622971493069499
 20
2.5989003662934351
 30
0.0
 40
0.0150638899835629
 50
102.4394304687282045
 51
179.9999998478363921
  0
ARC
  5
25FD
  8
0
 10
1.6509620801486831
 20
3.2270567557154402
 30
0.0
 40
0.6228961801711415
 50
279.9930331379832751
 51
309.2614493998071907
  0
ARC
  5
25FE
  8
0
 10
1.691771027579501
 20
3.1513831863126942
 30
0.0
 40
0.538724800621421
 50
310.9946309239155084
 51
5.5478952537752573
  0
ARC
  5
25FF
  8
0
 10
0.530622082017179
 20
2.9375778607381382
 30
0.0
 40
1.718049535393084
 50
8.9029687279808272
 51
20.7846030982446806
  0
ARC
  5
2600
  8
0
 10
3.4198505393912608
 20
4.1088423941196597
 30
0.0
 40
1.400520443799524
 50
173.1688250190526901
 51
203.6405340929898102
  0
ARC
  5
2601
  8
0
 10
3.2225296219455619
 20
4.1030583413904278
 30
0.0
 40
1.2056422749138449
 50
151.3561322768250932
 51
171.7803903707477104
  0
ARC
  5
2602
  8
0
 10
2.5781643908596159
 20
4.486049184826105
 30
0.0
 40
0.4573564401134965
 50
122.553501265152903
 51
154.7698580559934101
  0
ARC
  5
2603
  8
0
 10
2.3565260353906279
 20
4.8141653250062237
 30
0.0
 40
0.0623799532908072
 50
20.9914644936486283
 51
113.0852094581890981
  0
ARC
  5
2604
  8
0
 10
-0.8249535178741078
 20
3.4586786318978531
 30
0.0
 40
3.5205406906912202
 50
353.7211681724808727
 51
23.0397537086466784
  0
ARC
  5
2605
  8
0
 10
-2.459582345708033
 20
3.4243294744878612
 30
0.0
 40
5.1460140648208164
 50
343.5965074855994885
 51
356.0924731223822732
  0
ARC
  5
2606
  8
0
 10
0.969112256121317
 20
2.4097848904811912
 30
0.0
 40
1.5703790284351311
 50
316.2691843798804143
 51
343.7784313201138957
  0
ARC
  5
2607
  8
0
 10
1.729752589304641
 20
1.6738621263437861
 30
0.0
 40
0.5120563555768785
 50
302.1082368703529255
 51
316.9367262800420235
  0
ARC
  5
2608
  8
0
 10
1.6835876588518299
 20
1.8522890190036341
 30
0.0
 40
0.6899842953041107
 50
276.6879562377670254
 51
297.4751021765773089
  0
ARC
  5
2609
  8
0
 10
1.7622694936129959
 20
1.1819608626606271
 30
0.0
 40
0.0150543844497005
 50
177.1865124947422885
 51
276.3884998554353842
  0
ARC
  5
260A
  8
0
 10
1.4020338406223221
 20
2.0978233347883131
 30
0.0
 40
0.5576509117473347
 50
51.7550874690000811
 51
63.3722506102873311
  0
ARC
  5
260B
  8
0
 10
1.645036408320161
 20
2.5830261980821572
 30
0.0
 40
0.0149999993967738
 50
62.4744552565534121
 51
180.0000013319960033
  0
LINE
  5
260C
  8
0
 10
1.630036408923387
 20
2.583026197733441
 30
0.0
 11
1.630036408923387
 21
1.1816427400334411
 31
0.0
  0
ARC
  5
260D
  8
0
 10
1.645036408760598
 20
1.1816366930394171
 30
0.0
 40
0.015000001056082
 50
179.9769021852488891
 51
297.5155269769805955
  0
ARC
  5
260E
  8
0
 10
1.1186334625469421
 20
2.1377329721150131
 30
0.0
 40
1.1064263971464121
 50
298.8181907077415076
 51
304.6202905892071158
  0
ARC
  5
260F
  8
0
 10
1.600036422293821
 20
2.5778427195062359
 30
0.0
 40
0.0299999866295694
 50
0.0000246891532179
 51
90.0388665558689638
  0
ARC
  5
2610
  8
0
 10
1.5755870767884379
 20
4.7501408875090201
 30
0.0
 40
2.142437467765919
 50
265.5653275649324883
 51
270.6533253203629101
  0
ARC
  5
2611
  8
0
 10
1.4065929092858811
 20
3.1713830166075438
 30
0.0
 40
0.5572754300990589
 50
198.9432316352257999
 51
270.3429700207427118
  0
ARC
  5
2612
  8
0
 10
1.8549069892939589
 20
3.3516953630612738
 30
0.0
 40
1.0401448587466871
 50
182.566217798843212
 51
200.3210271709415906
  0
ARC
  5
2613
  8
0
 10
-149.9449722743432858
 20
-7.0716309868271692
 30
0.0
 40
151.1174678249435033
 50
3.9374169701005122
 51
4.869748009124776
  0
ARC
  5
2614
  8
0
 10
0.0010836979736339
 20
5.2493669564955443
 30
0.0
 40
1.08680129095081
 50
53.046914797606469
 51
90.055215448348406
  0
ARC
  5
2615
  8
0
 10
0.5524868689808189
 20
6.0009913555207293
 30
0.0
 40
0.1550805154608082
 50
10.0255547684350006
 51
48.9033522278884121
  0
ARC
  5
2616
  8
0
 10
0.5226739543328875
 20
5.9847425099476084
 30
0.0
 40
0.1875786959139328
 50
354.0705590451979106
 51
13.3294989103739496
  0
ARC
  5
2617
  8
0
 10
0.6590724979623613
 20
5.9647200898361818
 30
0.0
 40
0.0501807248675835
 50
307.7181140155058188
 51
0.7363112047109347
  0
ARC
  5
2618
  8
0
 10
0.4113596825205131
 20
6.6267934946670781
 30
0.0
 40
0.7549778268874771
 50
269.478096491688575
 51
291.6397035055799734
  0
ARC
  5
2619
  8
0
 10
0.0631037852501901
 20
12.1028898666803997
 30
0.0
 40
6.2403874024133081
 50
269.4209404711505158
 51
273.1359177847310207
  0
ARC
  5
261A
  8
0
 10
-0.6249647575650981
 20
6.38361835598998
 30
0.0
 40
1.400087379651475
 50
326.281325555581077
 51
341.5757933629470244
  0
ARC
  5
261B
  8
0
 10
-0.0738303051454867
 20
6.0260660031419331
 30
0.0
 40
0.7432346932461633
 50
301.4517927379528146
 51
325.6229005305946202
  0
ARC
  5
261C
  8
0
 10
0.0084476662857966
 20
5.93579067377049
 30
0.0
 40
0.6237189625640241
 50
269.2273055896990854
 51
299.3306206036555182
  0
ARC
  5
261D
  8
0
 10
-0.0172194063839486
 20
6.9068327080764673
 30
0.0
 40
1.3294308154778489
 50
270.7387243530963019
 51
283.4469803873345199
  0
ARC
  5
261E
  8
0
 10
-13.3283282759574302
 20
57.1202107847005323
 30
0.0
 40
53.2767959921970373
 50
284.8121587067004157
 51
285.0151115411861156
  0
ARC
  5
261F
  8
0
 10
0.6737529978618424
 20
4.3749768166295731
 30
0.0
 40
1.302798622984072
 50
97.0243223523706035
 51
98.806666460536789
  0
ARC
  5
2620
  8
0
 10
0.5170268286469968
 20
5.6349708709229134
 30
0.0
 40
0.0331279004045849
 50
18.8388872716827898
 51
94.4909205844847548
  0
ARC
  5
2621
  8
0
 10
0.4964357974494967
 20
5.6466303390661441
 30
0.0
 40
0.0519531914597474
 50
329.6347952606823242
 51
358.9387917942052013
  0
ARC
  5
2622
  8
0
 10
-0.0096720263648455
 20
6.8001161811106199
 30
0.0
 40
1.233801282215701
 50
270.4508492843972931
 51
282.3008872476461875
  0
ARC
  5
2623
  8
0
 10
-0.3259088624375224
 20
8.2504013757248646
 30
0.0
 40
2.7181640688034459
 50
282.3008872476461875
 51
285.7594500832317976
  0
ARC
  5
2624
  8
0
 10
0.6582368347647165
 20
4.7630857074161401
 30
0.0
 40
0.9053581573948711
 50
100.884315578510396
 51
105.7594500832316982
  0
ARC
  5
2625
  8
0
 10
0.508478605025978
 20
5.5419173011845739
 30
0.0
 40
0.1122590596609493
 50
79.0136375988205941
 51
100.8843155785102965
  0
ARC
  5
2626
  8
0
 10
0.5248990013246875
 20
5.6346049196545289
 30
0.0
 40
0.0182064762034976
 50
9.901806552989969
 51
74.147178128653664
  0
ARC
  5
2627
  8
0
 10
0.4614231310232669
 20
5.6363498152379616
 30
0.0
 40
0.0814229365389063
 50
329.0420859512911989
 51
0.9752737681084453
  0
ARC
  5
2628
  8
0
 10
-0.0007732416631292
 20
6.4710417646615781
 30
0.0
 40
0.9988932247287845
 50
270.0464412837241071
 51
275.2528905483491144
  0
ARC
  5
2629
  8
0
 10
-0.1110868349780905
 20
8.6897874057860207
 30
0.0
 40
3.2197717266096761
 50
273.5927428483317954
 51
276.7046133758095152
  0
ARC
  5
262A
  8
0
 10
0.3906811252441757
 20
4.4336505153243628
 30
0.0
 40
1.0658412388154681
 50
92.6127621864232395
 51
96.7814587688854573
  0
ARC
  5
262B
  8
0
 10
0.3508339028897573
 20
5.3834842772965503
 30
0.0
 40
0.1152313788384283
 50
76.6161108856311444
 51
94.3497552795141985
  0
ARC
  5
262C
  8
0
 10
0.3758668170903689
 20
5.4886926694712939
 30
0.0
 40
0.0070858630859479
 50
338.6945682699442273
 51
76.6161108856256021
  0
ARC
  5
262D
  8
0
 10
0.1671977309011421
 20
5.6175979603356332
 30
0.0
 40
0.2522467443359131
 50
290.856780825795397
 51
328.5848617361810966
  0
ARC
  5
262E
  8
0
 10
0.0071133086446231
 20
5.9254745872819079
 30
0.0
 40
0.5982819445868356
 50
269.3222494077920146
 51
294.6884385088532099
  0
ARC
  5
262F
  8
0
 10
1.5989641014209031
 20
1.188066274824473
 30
0.0
 40
0.0310747410356358
 50
272.045284939079977
 51
359.2829402606012081
  0
LINE
  5
2630
  8
0
 10
1.6000731395233869
 20
1.1570113305334411
 30
0.0
 11
1.5352483493670359
 21
1.1567330112982499
 31
0.0
  0
ARC
  5
2631
  8
0
 10
1.508369952886458
 20
-0.2656509881214719
 30
0.0
 40
1.4226379335595549
 50
88.9174263687824578
 51
97.4818077952306368
  0
ARC
  5
2632
  8
0
 10
1.3432182844517211
 20
0.7917581098869276
 30
0.0
 40
0.3536880044422725
 50
93.2565604992786774
 51
170.4234807703689967
  0
ARC
  5
2633
  8
0
 10
1.971313935222563
 20
0.5844570083405899
 30
0.0
 40
1.0124608373898081
 50
164.7597671348707991
 51
184.3240003579612107
  0
ARC
  5
2634
  8
0
 10
-361.4220418746920132
 20
-16.9069894440792297
 30
0.0
 40
362.8019952588953743
 50
2.6838142634003881
 51
2.7513517859332559
  0
ARC
  5
2635
  8
0
 10
0.9623075773988576
 20
0.0797373912369117
 30
0.0
 40
0.019740867251905
 50
269.5715066170649834
 51
3.5171152010592319
  0
LINE
  5
2636
  8
0
 10
0.9621599443233873
 20
0.0599970760334416
 30
0.0
 11
-0.9621482314766121
 21
0.0599971403334416
 31
0.0
  0
ARC
  5
2637
  8
0
 10
-0.0010108691986224
 20
5.2493669563661101
 30
0.0
 40
1.086801290969853
 50
89.944790591064276
 51
126.9530851923772019
  0
ARC
  5
2638
  8
0
 10
-0.552414040065428
 20
6.0009913555207293
 30
0.0
 40
0.1550805154608082
 50
131.0966477721115098
 51
169.9744452315649994
  0
ARC
  5
2639
  8
0
 10
-0.5226011254174967
 20
5.9847425099476084
 30
0.0
 40
0.1875786959139328
 50
166.6705010896259864
 51
185.9294409548018905
  0
ARC
  5
263A
  8
0
 10
-0.6589996690469704
 20
5.9647200898361818
 30
0.0
 40
0.0501807248675835
 50
179.2636887952889992
 51
232.2818859844942949
  0
ARC
  5
263B
  8
0
 10
-0.4112868536051222
 20
6.6267934946670781
 30
0.0
 40
0.7549778268874771
 50
248.3602964944199982
 51
270.5219035083114818
  0
ARC
  5
263C
  8
0
 10
-0.0630309563347993
 20
12.1028898666803997
 30
0.0
 40
6.2403874024133081
 50
266.864082215269093
 51
270.5790595288494274
  0
ARC
  5
263D
  8
0
 10
0.6250375864804889
 20
6.38361835598998
 30
0.0
 40
1.400087379651475
 50
198.4242066370528903
 51
213.7186744444190083
  0
ARC
  5
263E
  8
0
 10
0.0739031340608776
 20
6.0260660031419331
 30
0.0
 40
0.7432346932461633
 50
214.3770994694054934
 51
238.5482072620472138
  0
ARC
  5
263F
  8
0
 10
-0.0083748373704058
 20
5.93579067377049
 30
0.0
 40
0.6237189625640241
 50
240.6693793963445103
 51
270.7726944103006872
  0
ARC
  5
2640
  8
0
 10
0.0173360029700538
 20
6.9070742669065748
 30
0.0
 40
1.3296759301427981
 50
256.5536058787373008
 51
269.2495525316460885
  0
ARC
  5
2641
  8
0
 10
13.3284011048728193
 20
57.1202107847005323
 30
0.0
 40
53.2767959921970373
 50
254.9848884588139981
 51
255.1878412932996127
  0
ARC
  5
2642
  8
0
 10
-0.6736801689464516
 20
4.3749768166295731
 30
0.0
 40
1.302798622984072
 50
81.1933335394632252
 51
82.9756776476294107
  0
ARC
  5
2643
  8
0
 10
-0.5169539997316061
 20
5.6349708709229134
 30
0.0
 40
0.0331279004045849
 50
85.5090794155152452
 51
161.1611127283171925
  0
ARC
  5
2644
  8
0
 10
-0.4963629685341058
 20
5.6466303390661441
 30
0.0
 40
0.0519531914597474
 50
181.0612082057947987
 51
210.3652047393175906
  0
ARC
  5
2645
  8
0
 10
0.0097448552802364
 20
6.8001161811106199
 30
0.0
 40
1.233801282215701
 50
257.6991127523539262
 51
269.5491507156024795
  0
ARC
  5
2646
  8
0
 10
0.3259816913529132
 20
8.2504013757248646
 30
0.0
 40
2.7181640688034459
 50
254.2405499167682876
 51
257.6991127523538125
  0
ARC
  5
2647
  8
0
 10
-0.6581640058493257
 20
4.7630857074161401
 30
0.0
 40
0.9053581573948711
 50
74.2405499167682876
 51
79.1156844214896608
  0
ARC
  5
2648
  8
0
 10
-0.5084057761105872
 20
5.5419173011845739
 30
0.0
 40
0.1122590596609493
 50
79.1156844214896751
 51
100.9863624011794059
  0
ARC
  5
2649
  8
0
 10
-0.5248261724092967
 20
5.6346049196545289
 30
0.0
 40
0.0182064762034976
 50
105.8528218713462934
 51
170.0981934470100043
  0
ARC
  5
264A
  8
0
 10
-0.461350302107876
 20
5.6363498152379616
 30
0.0
 40
0.0814229365389063
 50
179.0247262318916057
 51
210.9579140487086875
  0
ARC
  5
264B
  8
0
 10
0.00084607057852
 20
6.4710417646615781
 30
0.0
 40
0.9988932247287845
 50
264.7471094516508856
 51
269.9535587162757224
  0
ARC
  5
264C
  8
0
 10
0.1111596638934813
 20
8.6897874057860207
 30
0.0
 40
3.2197717266096761
 50
263.2953866241904279
 51
266.407257151668091
  0
ARC
  5
264D
  8
0
 10
-0.3906082963287849
 20
4.4336505153243628
 30
0.0
 40
1.0658412388154681
 50
83.2185412311145996
 51
87.3872378135767462
  0
ARC
  5
264E
  8
0
 10
-0.3507610739743665
 20
5.3834842772965503
 30
0.0
 40
0.1152313788384283
 50
85.6502447204858015
 51
103.3838891143687988
  0
ARC
  5
264F
  8
0
 10
-0.3757939881749781
 20
5.4886926694712939
 30
0.0
 40
0.0070858630859479
 50
103.3838891143743979
 51
201.3054317300556875
  0
ARC
  5
2650
  8
0
 10
-0.1671249019857512
 20
5.6175979603356332
 30
0.0
 40
0.2522467443359131
 50
211.4151382638187897
 51
249.1432191742042903
  0
ARC
  5
2651
  8
0
 10
-0.0070404797292323
 20
5.9254745872819079
 30
0.0
 40
0.5982819445868356
 50
245.3115614911467901
 51
270.6777505922078717
  0
ARC
  5
2652
  8
0
 10
-0.962056886748975
 20
0.0801602884518997
 30
0.0
 40
0.0201633550260406
 50
177.7499650837827119
 51
269.7404357920814277
  0
ARC
  5
2653
  8
0
 10
111.6940067960667022
 20
-4.2317708830215244
 30
0.0
 40
112.7587167988113066
 50
174.9723888798689018
 51
177.8080532783700107
  0
ARC
  5
2654
  8
0
 10
-60.9912388455203924
 20
7.9307650909418328
 30
0.0
 40
60.4034363569612793
 50
357.8359955468739031
 51
357.9375039344287188
  0
ARC
  5
2655
  8
0
 10
2.39344416989575
 20
4.8293092795243071
 30
0.0
 40
0.0743189273005324
 50
145.2343822114561078
 51
195.5769111951975958
  0
ARC
  5
2656
  8
0
 10
-3.3696331147149872
 20
3.0629137623292291
 30
0.0
 40
5.9534094026909239
 50
0.4291209765576972
 51
17.0586817206064616
  0
ARC
  5
2657
  8
0
 10
1.0192049363452871
 20
3.0518338790607449
 30
0.0
 40
1.565394512672758
 50
327.8490163422623027
 51
2.0379604901544108
  0
ARC
  5
2658
  8
0
 10
1.7121847901908149
 20
2.646727459681546
 30
0.0
 40
0.7635413461352279
 50
272.6309447841539964
 51
325.9135369196123975
  0
ARC
  5
2659
  8
0
 10
-0.9567151606456638
 20
0.0498356660469562
 30
0.0
 40
0.0101617558170169
 50
90.4976732142846316
 51
177.121146381654512
  0
LINE
  5
265A
  8
0
 10
-0.9668640919376558
 20
0.0503460334784128
 30
0.0
 11
-0.9686221107325359
 21
0.0000029614886122
 31
0.0
  0
LINE
  5
265B
  8
0
 10
-0.9686221107325359
 20
0.0000029614886122
 30
0.0
 11
0.9686221107325359
 21
-0.0000029614886122
 31
0.0
  0
LINE
  5
265C
  8
0
 10
0.9686221107325359
 20
-0.0000029614886122
 30
0.0
 11
0.9669414725027261
 21
0.0503460334784128
 31
0.0
  0
ARC
  5
265D
  8
0
 10
0.9569604185730842
 20
0.0500128681228991
 30
0.0
 40
0.0099866128742699
 50
1.9118105079595069
 51
88.742591254191197
  0
ARC
  5
265E
  8
0
 10
0.0000363665325347
 20
6.6938346319116437
 30
0.0
 40
1.3083569389002561
 50
267.2361944430004996
 51
270.000000498636723
  0
ARC
  5
265F
  8
0
 10
-0.0629450063979391
 20
5.387299232800693
 30
0.0
 40
0.0003178613555863
 50
193.8559001537942095
 51
250.5139512711616021
  0
ARC
  5
2660
  8
0
 10
-0.0536227594329333
 20
5.3895986424813032
 30
0.0
 40
0.0099195056603841
 50
179.7752692730934996
 51
193.8559001537917936
  0
LINE
  5
2661
  8
0
 10
-0.0635421887907546
 20
5.389637549570458
 30
0.0
 11
-0.063543477967464
 21
5.4239233267113871
 31
0.0
  0
LINE
  5
2662
  8
0
 10
-0.0635434779573565
 20
5.4239230578984774
 30
0.0
 11
-0.0577324169674656
 21
5.4330099158113878
 31
0.0
  0
ARC
  5
2663
  8
0
 10
-0.0605843247259825
 20
5.434791106013642
 30
0.0
 40
0.0033624420291943
 50
328.0127101039324771
 51
348.1661287799212801
  0
LINE
  5
2664
  8
0
 10
-0.0572933469403063
 20
5.4341015542651281
 30
0.0
 11
-0.0563651084674648
 21
5.4400470152332812
 31
0.0
  0
ARC
  5
2665
  8
0
 10
-0.0118948279342544
 20
6.5810733233573933
 30
0.0
 40
1.17400567052774
 50
261.4585892441143073
 51
267.4785427861230005
  0
ARC
  5
2666
  8
0
 10
-0.0114546898880477
 20
6.6133816922053699
 30
0.0
 40
1.201182266692711
 50
261.6320129963090153
 51
267.5146311068530167
  0
ARC
  5
2667
  8
0
 10
-0.0127910382613585
 20
6.534950754509171
 30
0.0
 40
1.117180665695499
 50
261.0671608399347861
 51
267.3962118804392958
  0
ARC
  5
2668
  8
0
 10
-0.0129399320017534
 20
6.528361802432415
 30
0.0
 40
1.1055971533597979
 50
260.9806049545696283
 51
267.3766367930780916
  0
LINE
  5
2669
  8
0
 10
-0.0563651084674648
 20
5.4400470152332812
 30
0.0
 11
-0.0563651084782482
 21
5.4010876172219788
 31
0.0
  0
ARC
  5
266A
  8
0
 10
-0.0739339111254873
 20
5.4010876172268416
 30
0.0
 40
0.0175688026472392
 50
343.9633416266888162
 51
359.9999999841414251
  0
LINE
  5
266B
  8
0
 10
-0.0630510377371527
 20
5.3869995776714532
 30
0.0
 11
-0.0570487959059216
 21
5.3962341946736689
 31
0.0
  0
ARC
  5
266C
  8
0
 10
0.0000292356437726
 20
6.5784759739792014
 30
0.0
 40
1.183618826489361
 50
267.2359387012631942
 51
270.0003457381852172
  0
LINE
  5
266D
  8
0
 10
-0.1862630664674647
 20
5.4575518587113869
 30
0.0
 11
-0.1862630664674647
 21
5.4159234097113877
 31
0.0
  0
ARC
  5
266E
  8
0
 10
-0.1915989186923337
 20
5.4156192251512199
 30
0.0
 40
0.0053445156199862
 50
305.1596765240716991
 51
3.2627680346344099
  0
LINE
  5
266F
  8
0
 10
-0.188521241504886
 20
5.4112498143966521
 30
0.0
 11
-0.2077157284674653
 21
5.4036916914113871
 31
0.0
  0
ARC
  5
2670
  8
0
 10
-0.200099015839128
 20
5.330238113552598
 30
0.0
 40
0.0738474265734425
 50
95.9200840187496055
 51
96.5025319623384377
  0
ARC
  5
2671
  8
0
 10
-0.1161153483203234
 20
5.9130394257077006
 30
0.0
 40
0.517731369326641
 50
249.4481758068831994
 51
259.7252888707154739
  0
ARC
  5
2672
  8
0
 10
-0.2968126669945077
 20
5.431157770379305
 30
0.0
 40
0.0030845989765815
 50
175.9026390115226945
 51
250.0080471229863974
  0
LINE
  5
2673
  8
0
 10
-0.299889381967465
 20
5.4654378097113883
 30
0.0
 11
-0.299889381967465
 21
5.4313781696113983
 31
0.0
  0
LINE
  5
2674
  8
0
 10
-0.299889381967465
 20
5.4654378097113883
 30
0.0
 11
-0.2724768131068638
 21
5.4707300644810051
 31
0.0
  0
ARC
  5
2675
  8
0
 10
-0.2750158364424875
 20
5.479355137960022
 30
0.0
 40
0.0089910250815621
 50
286.4032165847813189
 51
1.20432108856159
  0
LINE
  5
2676
  8
0
 10
-0.2660267974674646
 20
5.4795441097113891
 30
0.0
 11
-0.2660267974674646
 21
5.4379156607018517
 31
0.0
  0
ARC
  5
2677
  8
0
 10
-0.2705218621146361
 20
5.4378215737459534
 30
0.0
 40
0.0044960492143127
 50
286.4084430259487135
 51
1.199092527251242
  0
LINE
  5
2678
  8
0
 10
-0.269251805467464
 20
5.4335086380113866
 30
0.0
 11
-0.2975467653442436
 21
5.4281390114971844
 31
0.0
  0
ARC
  5
2679
  8
0
 10
-0.1030931110114555
 20
5.873216440184148
 30
0.0
 40
0.4647947473988129
 50
249.4790555195403101
 51
259.6920283050673106
  0
ARC
  5
267A
  8
0
 10
-0.1043420848158938
 20
5.8740896555727042
 30
0.0
 40
0.4704326189803851
 50
249.479097176627505
 51
259.6919830534731091
  0
ARC
  5
267B
  8
0
 10
-0.3298784652244615
 20
5.4900258875188559
 30
0.0
 40
0.0362569622471487
 50
177.6666523208849924
 51
213.8710446121652922
  0
ARC
  5
267C
  8
0
 10
-0.3568538917207586
 20
5.4719189346510237
 30
0.0
 40
0.0037679583102004
 50
213.8710446121598068
 51
272.8635424547791217
  0
LINE
  5
267D
  8
0
 10
-0.3566656541674646
 20
5.4681556812113881
 30
0.0
 11
-0.3237402259254569
 21
5.4698026077744917
 31
0.0
  0
ARC
  5
267E
  8
0
 10
-0.3239161025395374
 20
5.4738855624270659
 30
0.0
 40
0.0040867409115771
 50
272.4665377854648227
 51
357.8296102331738098
  0
LINE
  5
267F
  8
0
 10
-0.3198322933674653
 20
5.473730791872895
 30
0.0
 11
-0.3198322933674653
 21
5.4911221487075581
 31
0.0
  0
LINE
  5
2680
  8
0
 10
-0.299889381967465
 20
5.4654378097113883
 30
0.0
 11
-0.3198322933674653
 21
5.473730791872895
 31
0.0
  0
LINE
  5
2681
  8
0
 10
-0.3237402259254569
 20
5.4698026077744917
 30
0.0
 11
-0.3000550871680732
 21
5.4599381432398966
 31
0.0
  0
ARC
  5
2682
  8
0
 10
-0.2067507493723175
 20
5.739007890366155
 30
0.0
 40
0.3028191075700797
 50
243.1725709733981091
 51
252.0870404387736983
  0
ARC
  5
2683
  8
0
 10
-0.2218236655491141
 20
5.6851586602219397
 30
0.0
 40
0.2507696578635254
 50
239.7414064225704067
 51
251.8621382629507934
  0
ARC
  5
2684
  8
0
 10
-0.2969093781441572
 20
5.4894853739653398
 30
0.0
 40
0.027814868312524
 50
175.9326648265474091
 51
214.5001679686012039
  0
ARC
  5
2685
  8
0
 10
-0.3006482727814994
 20
5.4856425895765231
 30
0.0
 40
0.028002559231102
 50
167.5212181073717943
 51
214.4482697975234942
  0
ARC
  5
2686
  8
0
 10
-0.3318478465315264
 20
5.4854756232984929
 30
0.0
 40
0.0302639053949604
 50
167.6022321501478984
 51
214.9105579616027057
  0
ARC
  5
2687
  8
0
 10
-0.183640962497698
 20
5.6905415355651661
 30
0.0
 40
0.2265112348661455
 50
243.3947192034885916
 51
248.6713952284553102
  0
ARC
  5
2688
  8
0
 10
-0.2092629268671127
 20
5.6392372857732358
 30
0.0
 40
0.1799741068311058
 50
235.7871146773337898
 51
249.4368965030253946
  0
ARC
  5
2689
  8
0
 10
-0.0036806597096684
 20
6.3217202418563634
 30
0.0
 40
0.8832459055579434
 50
258.0699402169441896
 51
270.2414103833864942
  0
ARC
  5
268A
  8
0
 10
-0.1294897502874823
 20
5.7262617838364074
 30
0.0
 40
0.2746420093335429
 50
241.2034606012587972
 51
258.0699402169440759
  0
ARC
  5
268B
  8
0
 10
0.0089896903853939
 20
7.0918502621505768
 30
0.0
 40
1.6237813826697509
 50
265.8313879838490266
 51
269.6840771658889935
  0
ARC
  5
268C
  8
0
 10
0.0845807180581675
 20
8.1289825497342836
 30
0.0
 40
2.663664734499771
 50
263.8124542184477832
 51
265.8313879838487992
  0
ARC
  5
268D
  8
0
 10
0.9897201553762204
 20
16.477834616123701
 30
0.0
 40
11.0614387388084907
 50
263.4502868591773108
 51
263.8124542184477264
  0
ARC
  5
268E
  8
0
 10
-0.4716129286173505
 20
3.750072896538347
 30
0.0
 40
1.7499395154199151
 50
83.4502868591774103
 51
85.1799784498254695
  0
ARC
  5
268F
  8
0
 10
-0.3619320125778413
 20
5.0507770208290621
 30
0.0
 40
0.4446192013628108
 50
85.1799784498254695
 51
89.0396076879917757
  0
ARC
  5
2690
  8
0
 10
-0.3573130057322311
 20
5.3263152652238714
 30
0.0
 40
0.1690422441468391
 50
89.0396076879918894
 51
97.9824753067466929
  0
ARC
  5
2691
  8
0
 10
0.0280696413563257
 20
7.7165090475294802
 30
0.0
 40
2.250180766130204
 50
267.7261254886270763
 51
268.6397691220689126
  0
ARC
  5
2692
  8
0
 10
-0.0320779850846176
 20
6.2017395877304748
 30
0.0
 40
0.734217622347927
 50
266.5588616452319002
 51
267.7261254886270763
  0
ARC
  5
2693
  8
0
 10
-0.5774939589826289
 20
-2.8686455747604351
 30
0.0
 40
8.3525510871834392
 50
86.5588616452319712
 51
86.7264543571984774
  0
ARC
  5
2694
  8
0
 10
-0.0428535117033508
 20
6.4788038819754634
 30
0.0
 40
1.0101756392621839
 50
265.056846167020808
 51
266.7264543571984063
  0
ARC
  5
2695
  8
0
 10
0.6249704254827561
 20
14.2002934831868508
 30
0.0
 40
8.7604911472072935
 50
264.7299188485263244
 51
265.056846167020808
  0
ARC
  5
2696
  8
0
 10
0.0877415134347208
 20
8.376076864856083
 30
0.0
 40
2.9115498651306231
 50
263.1051116152179929
 51
264.7299188485264949
  0
ARC
  5
2697
  8
0
 10
-0.5270165148560891
 20
3.0573665027574211
 30
0.0
 40
2.4426591891686691
 50
83.7663571497659092
 51
84.9136305724004785
  0
ARC
  5
2698
  8
0
 10
-0.3434401672530623
 20
5.1198405452993523
 30
0.0
 40
0.3720313975174225
 50
84.9136305724004359
 51
86.3617560789902967
  0
ARC
  5
2699
  8
0
 10
-0.2793554531681677
 20
6.1277023932022434
 30
0.0
 40
0.6378658027151423
 50
265.6272602385225241
 51
266.3617560789901972
  0
ARC
  5
269A
  8
0
 10
-0.3467540884609814
 20
5.2462968719501291
 30
0.0
 40
0.2461128559260294
 50
85.6272602385226946
 51
93.4130291651816123
  0
ARC
  5
269B
  8
0
 10
-0.3579218410013913
 20
5.4335522515518848
 30
0.0
 40
0.0585247542601674
 50
93.4130291651812854
 51
98.0380173873268177
  0
ARC
  5
269C
  8
0
 10
-0.3412061735920107
 20
5.3151840352654434
 30
0.0
 40
0.1780674167860415
 50
98.0380173873270735
 51
100.6288479775714961
  0
ARC
  5
269D
  8
0
 10
-0.3705673290800799
 20
5.4716382765540779
 30
0.0
 40
0.0188819681143834
 50
100.6288479775726046
 51
129.0543144979708075
  0
ARC
  5
269E
  8
0
 10
-0.3199345519209444
 20
5.5326648689443632
 30
0.0
 40
0.0687935477693525
 50
218.1228837164842957
 51
229.1792543896659993
  0
ARC
  5
269F
  8
0
 10
0.0060265946812388
 20
6.8188317538845018
 30
0.0
 40
1.3522333631003169
 50
268.6705951405505743
 51
269.7461863678665281
  0
LINE
  5
26A0
  8
0
 10
-0.01850934477857
 20
5.4668210083811912
 30
0.0
 11
-0.0241265850494461
 21
5.465930678317644
 31
0.0
  0
ARC
  5
26A1
  8
0
 10
-0.024396922743537
 20
5.4754806742103801
 30
0.0
 40
0.0095538214354311
 50
264.2305153772376798
 51
271.621474375228388
  0
ARC
  5
26A2
  8
0
 10
-0.0263168004866055
 20
5.4754446020670446
 30
0.0
 40
0.0095178373904934
 50
268.3673590089878189
 51
275.7856532048508029
  0
LINE
  5
26A3
  8
0
 10
-0.0265879741892761
 20
5.4659306284800069
 30
0.0
 11
-0.0344682229742821
 21
5.4671974871209876
 31
0.0
  0
LINE
  5
26A4
  8
0
 10
-0.025357334167464
 20
5.4659752487113868
 30
0.0
 11
-0.0253457842852827
 21
5.4669618546382184
 31
0.0
  0
LINE
  5
26A5
  8
0
 10
-0.0302785940674646
 20
5.4665059255117443
 30
0.0
 11
-0.0302785940674646
 21
5.4633549702113866
 31
0.0
  0
ARC
  5
26A6
  8
0
 10
-0.0253491646923374
 20
5.4633549702113866
 30
0.0
 40
0.0049294293751272
 50
180.0000000000003126
 51
354.6925360615543923
  0
LINE
  5
26A7
  8
0
 10
-0.0204408694737488
 20
5.4628989965152668
 30
0.0
 11
-0.0204360614732266
 21
5.4665156246492392
 31
0.0
  0
ARC
  5
26A8
  8
0
 10
0.0000363699796839
 20
6.4636593868432506
 30
0.0
 40
1.005034012231862
 50
268.6727386476574111
 51
270.0000004526092994
  0
ARC
  5
26A9
  8
0
 10
-0.0014666311717724
 20
6.4169723057193222
 30
0.0
 40
0.958323067314976
 50
265.6574197165878104
 51
268.4329948961313903
  0
ARC
  5
26AA
  8
0
 10
-0.0761187547590554
 20
5.466069993133913
 30
0.0
 40
0.0049146506965788
 50
175.0066087598287083
 51
5.0888567302477838
  0
LINE
  5
26AB
  8
0
 10
-0.0612089379240297
 20
5.468100095504961
 30
0.0
 11
-0.0749139866494248
 21
5.4659306783176458
 31
0.0
  0
ARC
  5
26AC
  8
0
 10
-0.0751843232119613
 20
5.4754807054575219
 30
0.0
 40
0.0095538526380415
 50
264.2305274633839076
 51
271.6214622893180035
  0
ARC
  5
26AD
  8
0
 10
-0.0771081407064322
 20
5.4755532304409584
 30
0.0
 40
0.0096263120190661
 50
268.4092132368488137
 51
275.7437989772180913
  0
LINE
  5
26AE
  8
0
 10
-0.0773753757892548
 20
5.4659306284800051
 30
0.0
 11
-0.1015384365674645
 21
5.4697648419113873
 31
0.0
  0
LINE
  5
26AF
  8
0
 10
-0.1015384365674645
 20
5.4697648419113873
 30
0.0
 11
-0.1223001997204296
 21
5.4664598696103921
 31
0.0
  0
ARC
  5
26B0
  8
0
 10
-0.1235667041820276
 20
5.4744160227242826
 30
0.0
 40
0.0080563270739784
 50
245.1725580386109016
 51
279.0447703570530962
  0
ARC
  5
26B1
  8
0
 10
-0.1247891349536383
 20
5.4717737644568123
 30
0.0
 40
0.0051449930595789
 50
173.1724385220414035
 51
245.172558038620906
  0
ARC
  5
26B2
  8
0
 10
-0.0572947836718685
 20
6.0007849034207936
 30
0.0
 40
0.5380543284041402
 50
256.8525486532648188
 51
259.598263465057812
  0
ARC
  5
26B3
  8
0
 10
-0.1512664138569999
 20
5.4744885190432191
 30
0.0
 40
0.0038521585709245
 50
254.0367373390216983
 51
350.5874665934857717
  0
ARC
  5
26B4
  8
0
 10
-0.1502627927693467
 20
5.4779970506114717
 30
0.0
 40
0.0075014117894624
 50
205.4358371420206879
 51
254.036737339024711
  0
ARC
  5
26B5
  8
0
 10
-0.0332983367055482
 20
6.1303366131199217
 30
0.0
 40
0.6698116495454776
 50
259.9521188840328136
 51
261.9627380923553801
  0
ARC
  5
26B6
  8
0
 10
-0.011801609038173
 20
6.2885070628142241
 30
0.0
 40
0.8294404899672189
 50
262.3442594684556184
 51
265.3903372043084801
  0
ARC
  5
26B7
  8
0
 10
0.0000363893054098
 20
6.6938346319116437
 30
0.0
 40
1.3083569389002561
 50
269.999999501363277
 51
272.7638055569995004
  0
ARC
  5
26B8
  8
0
 10
0.0630177622358836
 20
5.387299232800693
 30
0.0
 40
0.0003178613555863
 50
289.4860487288383979
 51
346.1440998462056768
  0
ARC
  5
26B9
  8
0
 10
0.0536955152708778
 20
5.3895986424813032
 30
0.0
 40
0.0099195056603841
 50
346.1440998462081211
 51
0.224730726906505
  0
LINE
  5
26BA
  8
0
 10
0.0636149446286991
 20
5.389637549570458
 30
0.0
 11
0.0636162338054085
 21
5.4239233267113871
 31
0.0
  0
LINE
  5
26BB
  8
0
 10
0.063616233795301
 20
5.4239230578984774
 30
0.0
 11
0.0578051728054101
 21
5.4330099158113878
 31
0.0
  0
ARC
  5
26BC
  8
0
 10
0.0606570805639271
 20
5.434791106013642
 30
0.0
 40
0.0033624420291943
 50
191.8338712200786063
 51
211.9872898960674945
  0
LINE
  5
26BD
  8
0
 10
0.0573661027782508
 20
5.4341015542651281
 30
0.0
 11
0.0564378643054093
 21
5.4400470152332812
 31
0.0
  0
ARC
  5
26BE
  8
0
 10
0.0119675837721989
 20
6.5810733233573933
 30
0.0
 40
1.17400567052774
 50
272.5214572138769995
 51
278.5414107558858063
  0
ARC
  5
26BF
  8
0
 10
0.0115274457259922
 20
6.6133816922053699
 30
0.0
 40
1.201182266692711
 50
272.4853688931469264
 51
278.3679870036909847
  0
ARC
  5
26C0
  8
0
 10
0.0128637940993031
 20
6.534950754509171
 30
0.0
 40
1.117180665695499
 50
272.6037881195607042
 51
278.9328391600653276
  0
ARC
  5
26C1
  8
0
 10
0.0130126878396979
 20
6.528361802432415
 30
0.0
 40
1.1055971533597979
 50
272.6233632069217947
 51
279.0193950454303149
  0
LINE
  5
26C2
  8
0
 10
0.0564378643054093
 20
5.4400470152332812
 30
0.0
 11
0.0564378643161927
 21
5.4010876172219788
 31
0.0
  0
ARC
  5
26C3
  8
0
 10
0.0740066669634318
 20
5.4010876172268416
 30
0.0
 40
0.0175688026472392
 50
180.0000000158586033
 51
196.0366583733112122
  0
LINE
  5
26C4
  8
0
 10
0.0631237935750972
 20
5.3869995776714532
 30
0.0
 11
0.0571215517438661
 21
5.3962341946736689
 31
0.0
  0
ARC
  5
26C5
  8
0
 10
0.000043520194172
 20
6.5784759739792014
 30
0.0
 40
1.183618826489361
 50
269.9996542618147828
 51
272.7640612987368058
  0
LINE
  5
26C6
  8
0
 10
0.1863358223054092
 20
5.4575518587113869
 30
0.0
 11
0.1863358223054092
 21
5.4159234097113877
 31
0.0
  0
ARC
  5
26C7
  8
0
 10
0.1916716745302782
 20
5.4156192251512199
 30
0.0
 40
0.0053445156199862
 50
176.737231965365595
 51
234.8403234759281872
  0
LINE
  5
26C8
  8
0
 10
0.1885939973428305
 20
5.4112498143966521
 30
0.0
 11
0.2077884843054099
 21
5.4036916914113871
 31
0.0
  0
ARC
  5
26C9
  8
0
 10
0.2001717716770726
 20
5.330238113552598
 30
0.0
 40
0.0738474265734425
 50
83.497468037661605
 51
84.0799159812503802
  0
ARC
  5
26CA
  8
0
 10
0.116188104158268
 20
5.9130394257077006
 30
0.0
 40
0.517731369326641
 50
280.2747111292845261
 51
290.5518241931167722
  0
ARC
  5
26CB
  8
0
 10
0.2968854228324522
 20
5.431157770379305
 30
0.0
 40
0.0030845989765815
 50
289.9919528770137163
 51
4.097360988477285
  0
LINE
  5
26CC
  8
0
 10
0.2999621378054096
 20
5.4654378097113883
 30
0.0
 11
0.2999621378054096
 21
5.4313781696113983
 31
0.0
  0
LINE
  5
26CD
  8
0
 10
0.2999621378054096
 20
5.4654378097113883
 30
0.0
 11
0.2725495689448083
 21
5.4707300644810051
 31
0.0
  0
ARC
  5
26CE
  8
0
 10
0.275088592280432
 20
5.479355137960022
 30
0.0
 40
0.0089910250815621
 50
178.7956789114383866
 51
253.5967834152187095
  0
LINE
  5
26CF
  8
0
 10
0.2660995533054091
 20
5.4795441097113891
 30
0.0
 11
0.2660995533054091
 21
5.4379156607018517
 31
0.0
  0
ARC
  5
26D0
  8
0
 10
0.2705946179525807
 20
5.4378215737459534
 30
0.0
 40
0.0044960492143127
 50
178.8009074727486905
 51
253.5915569740514002
  0
LINE
  5
26D1
  8
0
 10
0.2693245613054085
 20
5.4335086380113866
 30
0.0
 11
0.2976195211821881
 21
5.4281390114971844
 31
0.0
  0
ARC
  5
26D2
  8
0
 10
0.1031658668494
 20
5.873216440184148
 30
0.0
 40
0.4647947473988129
 50
280.3079716949326894
 51
290.5209444804597183
  0
ARC
  5
26D3
  8
0
 10
0.1044148406538383
 20
5.8740896555727042
 30
0.0
 40
0.4704326189803851
 50
280.3080169465267772
 51
290.5209028233722961
  0
ARC
  5
26D4
  8
0
 10
0.329951221062406
 20
5.4900258875188559
 30
0.0
 40
0.0362569622471487
 50
326.1289553878347078
 51
2.3333476791149268
  0
ARC
  5
26D5
  8
0
 10
0.3569266475587032
 20
5.4719189346510237
 30
0.0
 40
0.0037679583102004
 50
267.1364575452208214
 51
326.1289553878402216
  0
LINE
  5
26D6
  8
0
 10
0.3567384100054092
 20
5.4681556812113881
 30
0.0
 11
0.3238129817634014
 21
5.4698026077744917
 31
0.0
  0
ARC
  5
26D7
  8
0
 10
0.3239888583774819
 20
5.4738855624270659
 30
0.0
 40
0.0040867409115771
 50
182.170389766826105
 51
267.5334622145351773
  0
LINE
  5
26D8
  8
0
 10
0.3199050492054098
 20
5.473730791872895
 30
0.0
 11
0.3199050492054098
 21
5.4911221487075581
 31
0.0
  0
LINE
  5
26D9
  8
0
 10
0.2999621378054096
 20
5.4654378097113883
 30
0.0
 11
0.3199050492054098
 21
5.473730791872895
 31
0.0
  0
LINE
  5
26DA
  8
0
 10
0.3238129817634014
 20
5.4698026077744917
 30
0.0
 11
0.3001278430060177
 21
5.4599381432398966
 31
0.0
  0
ARC
  5
26DB
  8
0
 10
0.206823505210262
 20
5.739007890366155
 30
0.0
 40
0.3028191075700797
 50
287.9129595612262733
 51
296.8274290266018056
  0
ARC
  5
26DC
  8
0
 10
0.2218964213870587
 20
5.6851586602219397
 30
0.0
 40
0.2507696578635254
 50
288.1378617370492066
 51
300.2585935774296217
  0
ARC
  5
26DD
  8
0
 10
0.2969821339821017
 20
5.4894853739653398
 30
0.0
 40
0.027814868312524
 50
325.4998320313987961
 51
4.0673351734525687
  0
ARC
  5
26DE
  8
0
 10
0.3007210286194439
 20
5.4856425895765231
 30
0.0
 40
0.028002559231102
 50
325.5517302024763922
 51
12.4787818926281702
  0
ARC
  5
26DF
  8
0
 10
0.331920602369471
 20
5.4854756232984929
 30
0.0
 40
0.0302639053949604
 50
325.0894420383974079
 51
12.3977678498520998
  0
ARC
  5
26E0
  8
0
 10
0.1837137183356425
 20
5.6905415355651661
 30
0.0
 40
0.2265112348661455
 50
291.3286047715446898
 51
296.6052807965114084
  0
ARC
  5
26E1
  8
0
 10
0.2093356827050572
 20
5.6392372857732358
 30
0.0
 40
0.1799741068311058
 50
290.563103496974577
 51
304.2128853226661249
  0
ARC
  5
26E2
  8
0
 10
0.0037534155476129
 20
6.3217202418563634
 30
0.0
 40
0.8832459055579434
 50
269.7585896166135058
 51
281.9300597830558104
  0
ARC
  5
26E3
  8
0
 10
0.1295625061254269
 20
5.7262617838364074
 30
0.0
 40
0.2746420093335429
 50
281.9300597830558104
 51
298.7965393987411744
  0
ARC
  5
26E4
  8
0
 10
-0.9896473995382759
 20
16.477834616123701
 30
0.0
 40
11.0614387388084907
 50
276.1875457815522736
 51
276.5497131408225755
  0
ARC
  5
26E5
  8
0
 10
0.4716856844552951
 20
3.750072896538347
 30
0.0
 40
1.7499395154199151
 50
94.8200215501745163
 51
96.5497131408226181
  0
ARC
  5
26E6
  8
0
 10
0.3620047684157859
 20
5.0507770208290621
 30
0.0
 40
0.4446192013628108
 50
90.9603923120081674
 51
94.8200215501745163
  0
ARC
  5
26E7
  8
0
 10
0.3573857615701756
 20
5.3263152652238714
 30
0.0
 40
0.1690422441468391
 50
82.0175246932533355
 51
90.9603923120081674
  0
ARC
  5
26E8
  8
0
 10
-0.0279968855183812
 20
7.7165090475294802
 30
0.0
 40
2.250180766130204
 50
271.3602308779310874
 51
272.2738745113729237
  0
ARC
  5
26E9
  8
0
 10
0.0321507409225621
 20
6.2017395877304748
 30
0.0
 40
0.734217622347927
 50
272.2738745113729237
 51
273.4411383547680998
  0
ARC
  5
26EA
  8
0
 10
0.5775667148205735
 20
-2.8686455747604351
 30
0.0
 40
8.3525510871834392
 50
93.2735456428014658
 51
93.4411383547680856
  0
ARC
  5
26EB
  8
0
 10
-0.6248976696448115
 20
14.2002934831868508
 30
0.0
 40
8.7604911472072935
 50
274.943153832979192
 51
275.2700811514736188
  0
ARC
  5
26EC
  8
0
 10
-0.0876687575967763
 20
8.376076864856083
 30
0.0
 40
2.9115498651306231
 50
275.2700811514733914
 51
276.8948883847821207
  0
ARC
  5
26ED
  8
0
 10
0.5270892706940336
 20
3.0573665027574211
 30
0.0
 40
2.4426591891686691
 50
95.0863694275994504
 51
96.2336428502341334
  0
ARC
  5
26EE
  8
0
 10
0.3435129230910068
 20
5.1198405452993523
 30
0.0
 40
0.3720313975174225
 50
93.6382439210096607
 51
95.0863694275995783
  0
ARC
  5
26EF
  8
0
 10
0.2794282090061122
 20
6.1277023932022434
 30
0.0
 40
0.6378658027151423
 50
273.6382439210096891
 51
274.3727397614774191
  0
ARC
  5
26F0
  8
0
 10
0.346826844298926
 20
5.2462968719501291
 30
0.0
 40
0.2461128559260294
 50
86.5869708348183735
 51
94.3727397614773338
  0
ARC
  5
26F1
  8
0
 10
0.3579945968393359
 20
5.4335522515518848
 30
0.0
 40
0.0585247542601674
 50
81.9619826126731397
 51
86.5869708348187004
  0
ARC
  5
26F2
  8
0
 10
0.3412789294299552
 20
5.3151840352654434
 30
0.0
 40
0.1780674167860415
 50
79.3711520224285323
 51
81.9619826126729407
  0
ARC
  5
26F3
  8
0
 10
0.3706400849180245
 20
5.4716382765540779
 30
0.0
 40
0.0188819681143834
 50
50.9456855020292281
 51
79.3711520224273954
  0
ARC
  5
26F4
  8
0
 10
0.320007307758889
 20
5.5326648689443632
 30
0.0
 40
0.0687935477693525
 50
310.8207456103339723
 51
321.8771162835158179
  0
ARC
  5
26F5
  8
0
 10
-0.0059538388432943
 20
6.8188317538845018
 30
0.0
 40
1.3522333631003169
 50
270.2538136321334719
 51
271.329404859449312
  0
LINE
  5
26F6
  8
0
 10
0.0185821006165146
 20
5.4668210083811912
 30
0.0
 11
0.0241993408873906
 21
5.465930678317644
 31
0.0
  0
ARC
  5
26F7
  8
0
 10
0.0244696785814815
 20
5.4754806742103801
 30
0.0
 40
0.0095538214354311
 50
268.378525624771612
 51
275.7694846227622065
  0
ARC
  5
26F8
  8
0
 10
0.02638955632455
 20
5.4754446020670446
 30
0.0
 40
0.0095178373904934
 50
264.2143467951491971
 51
271.6326409910121811
  0
LINE
  5
26F9
  8
0
 10
0.0266607300272206
 20
5.4659306284800069
 30
0.0
 11
0.0345409788122266
 21
5.4671974871209876
 31
0.0
  0
LINE
  5
26FA
  8
0
 10
0.0254300900054085
 20
5.4659752487113868
 30
0.0
 11
0.0254185401232272
 21
5.4669618546382184
 31
0.0
  0
LINE
  5
26FB
  8
0
 10
0.0303513499054091
 20
5.4665059255117443
 30
0.0
 11
0.0303513499054091
 21
5.4633549702113866
 31
0.0
  0
ARC
  5
26FC
  8
0
 10
0.0254219205302819
 20
5.4633549702113866
 30
0.0
 40
0.0049294293751272
 50
185.3074639384456077
 51
359.9999999999997158
  0
LINE
  5
26FD
  8
0
 10
0.0205136253116933
 20
5.4628989965152668
 30
0.0
 11
0.0205088173111712
 21
5.4665156246492392
 31
0.0
  0
ARC
  5
26FE
  8
0
 10
0.0000363858582606
 20
6.4636593868432506
 30
0.0
 40
1.005034012231862
 50
269.9999995473908143
 51
271.3272613523425889
  0
ARC
  5
26FF
  8
0
 10
0.0015393870097169
 20
6.4169723057193222
 30
0.0
 40
0.958323067314976
 50
271.5670051038686097
 51
274.3425802834120759
  0
ARC
  5
2700
  8
0
 10
0.0761915105969999
 20
5.466069993133913
 30
0.0
 40
0.0049146506965788
 50
174.9111432697521877
 51
4.9933912401712712
  0
LINE
  5
2701
  8
0
 10
0.0612816937619742
 20
5.468100095504961
 30
0.0
 11
0.0749867424873694
 21
5.4659306783176458
 31
0.0
  0
ARC
  5
2702
  8
0
 10
0.0752570790499059
 20
5.4754807054575219
 30
0.0
 40
0.0095538526380415
 50
268.3785377106818828
 51
275.7694725366160924
  0
ARC
  5
2703
  8
0
 10
0.0771808965443768
 20
5.4755532304409584
 30
0.0
 40
0.0096263120190661
 50
264.2562010227820224
 51
271.5907867631510726
  0
LINE
  5
2704
  8
0
 10
0.0774481316271993
 20
5.4659306284800051
 30
0.0
 11
0.1016111924054091
 21
5.4697648419113873
 31
0.0
  0
LINE
  5
2705
  8
0
 10
0.1016111924054091
 20
5.4697648419113873
 30
0.0
 11
0.1223729555583741
 21
5.4664598696103921
 31
0.0
  0
ARC
  5
2706
  8
0
 10
0.1236394600199722
 20
5.4744160227242826
 30
0.0
 40
0.0080563270739784
 50
260.9552296429466764
 51
294.8274419613891268
  0
ARC
  5
2707
  8
0
 10
0.1248618907915828
 20
5.4717737644568123
 30
0.0
 40
0.0051449930595789
 50
294.8274419613791792
 51
6.8275614779585574
  0
ARC
  5
2708
  8
0
 10
0.057367539509813
 20
6.0007849034207936
 30
0.0
 40
0.5380543284041402
 50
280.4017365349423017
 51
283.1474513467351244
  0
ARC
  5
2709
  8
0
 10
0.1513391696949444
 20
5.4744885190432191
 30
0.0
 40
0.0038521585709245
 50
189.4125334065140862
 51
285.963262660978387
  0
ARC
  5
270A
  8
0
 10
0.1503355486072913
 20
5.4779970506114717
 30
0.0
 40
0.0075014117894624
 50
285.9632626609752037
 51
334.5641628579793974
  0
ARC
  5
270B
  8
0
 10
0.0333710925434927
 20
6.1303366131199217
 30
0.0
 40
0.6698116495454776
 50
278.0372619076445062
 51
280.0478811159671864
  0
ARC
  5
270C
  8
0
 10
0.0118743648761175
 20
6.2885070628142241
 30
0.0
 40
0.8294404899672189
 50
274.6096627956915199
 51
277.6557405315443248
  0
ARC
  5
270D
  8
0
 10
-0.0089169345455034
 20
7.0918502621505883
 30
0.0
 40
1.6237813826697509
 50
270.3159228340422828
 51
274.1686120160824203
  0
ARC
  5
270E
  8
0
 10
-0.0845079622170335
 20
8.1289825497343848
 30
0.0
 40
2.663664734499771
 50
274.1686120160824771
 51
276.1875457814836068
  0
ARC
  5
270F
  8
0
 10
-0.9896473995250785
 20
16.4778346161248912
 30
0.0
 40
11.0614387388084907
 50
276.1875457814836068
 51
276.5497131407540223
  0
ARC
  5
2710
  8
0
 10
0.4716856844532354
 20
3.7500728965377821
 30
0.0
 40
1.7499395154199151
 50
94.8200215501057784
 51
96.5497131407539655
  0
ARC
  5
2711
  8
0
 10
0.3620047684152858
 20
5.0507770208286269
 30
0.0
 40
0.4446192013628108
 50
90.960392311939529
 51
94.8200215501057784
  0
ARC
  5
2712
  8
0
 10
0.3573857615700051
 20
5.3263152652234416
 30
0.0
 40
0.1690422441468391
 50
82.0175246931845976
 51
90.960392311939458
  0
LINE
  5
2713
  8
0
 10
0.0000363779189723
 20
-0.0000000001112224
 30
0.0
 11
1.217315314775393
 21
-0.9736050506742259
 31
0.0
  0
ATTDEF
  5
2714
  8
DEFPOINTS
 10
-0.0048062290636119
 20
-0.0014023738869821
 30
0.0
 40
0.001
  1
K-5313T-4
  3

  2
MODELNUMBER
 70
     0
1001
ACDBATTR
1070
     0
1070
     1
  0
ATTDEF
  5
2715
  8
DEFPOINTS
 10
-0.0048062290636119
 20
-0.0030690405536472
 30
0.0
 40
0.001
  1
REFINIA
  3

  2
TRADENAME
 70
     0
1001
ACDBATTR
1070
     0
1070
     1
  0
ATTDEF
  5
2716
  8
DEFPOINTS
 10
-0.0048062290636119
 20
-0.0047357072203124
 30
0.0
 40
0.001
  1
BATHROOM SINK FAUCET
  3

  2
PRODUCT
 70
     0
1001
ACDBATTR
1070
     0
1070
     1
  0
ENDBLK
  5
2718
  8
0
  0
ENDSEC
  0
SECTION
  2
ENTITIES
  0
ATTDEF
  5
39EB
  8
DEFPOINTS
 10
85.710542395444989
 20
-6.9944323583105037
 30
0.0
 40
0.001
  1
K-12879K
  3

  2
MODELNUMBER
 70
     0
1001
ACDBATTR
1070
     0
1070
     1
  0
ATTDEF
  5
39EC
  8
DEFPOINTS
 10
85.710542395444989
 20
-6.9960990249771688
 30
0.0
 40
0.001
  1

  3

  2
TRADENAME
 70
     0
1001
ACDBATTR
1070
     0
1070
     1
  0
ATTDEF
  5
39ED
  8
DEFPOINTS
 10
85.710542395444989
 20
-6.997765691643834
 30
0.0
 40
0.001
  1
SLIDE BAR
  3

  2
PRODUCT
 70
     0
1001
ACDBATTR
1070
     0
1070
     1
  0
LINE
  5
44A9
  8
0
 10
83.2220734737747136
 20
-15.52200133700177
 30
0.0
 11
83.2220734737746852
 21
-15.2333056632017705
 31
0.0
  0
ARC
  5
44AA
  8
0
 10
82.7890026076746892
 20
-15.2333056632017705
 30
0.0
 40
0.4330708660999996
 50
359.9999999999993747
 51
89.9999999999992042
  0
LINE
  5
44AB
  8
0
 10
82.7890026076746892
 20
-14.8002347971017691
 30
0.0
 11
79.6393963083747138
 21
-14.8002347971017691
 31
0.0
  0
ARC
  5
44AC
  8
0
 10
79.6393963083747138
 20
-14.9183450333018008
 30
0.0
 40
0.1181102362000299
 50
90.0000000000170957
 51
270.0000612686527006
  0
LINE
  5
44AD
  8
0
 10
79.6393964346746941
 20
-15.0364552695017704
 30
0.0
 11
82.7890026076745471
 21
-15.0364552695017704
 31
0.0
  0
ARC
  5
44AE
  8
0
 10
82.7890026076746892
 20
-15.2333056632017794
 30
0.0
 40
0.1968503937000001
 50
0.0000000000004071
 51
90.0000000000463842
  0
LINE
  5
44AF
  8
0
 10
82.9858530013747071
 20
-15.2333056632017705
 30
0.0
 11
82.9858530013746929
 21
-15.52200133700177
 31
0.0
  0
ARC
  5
44B0
  8
0
 10
83.7535700618581984
 20
0.9498350375685831
 30
0.0
 40
0.8464566956845743
 50
226.4986163815061104
 51
251.2909133082119979
  0
ARC
  5
44B1
  8
0
 10
83.7535596518431049
 20
0.9498042985573675
 30
0.0
 40
0.8464242417907565
 50
251.2909133082119979
 51
270.431436210074196
  0
LINE
  5
44B2
  8
0
 10
83.1708928951746742
 20
0.3358511150633276
 30
0.0
 11
83.1708928951746742
 21
0.2853448916633248
 31
0.0
  0
ARC
  5
44B3
  8
0
 10
83.1905448095998139
 20
0.2853448916633248
 30
0.0
 40
0.0196519144251326
 50
180.0
 51
223.7773956508854951
  0
ARC
  5
44B4
  8
0
 10
83.7534795076336422
 20
0.8903029293334263
 30
0.0
 40
0.8459797101164545
 50
226.9845090489920949
 51
270.0061328910052225
  0
ARC
  5
44B5
  8
0
 10
83.7535700605747024
 20
0.8907799169633108
 30
0.0
 40
0.8464566928999877
 50
270.0
 51
305.5487004218267089
  0
ARC
  5
44B6
  8
0
 10
83.7535700605751146
 20
0.8907799169627637
 30
0.0
 40
0.8464566928992873
 50
305.5487004218238098
 51
312.9188214000033099
  0
ARC
  5
44B7
  8
0
 10
84.3162698322394846
 20
0.2854193838880512
 30
0.0
 40
0.0199632343249364
 50
313.3531401985060256
 51
359.6444433793087114
  0
LINE
  5
44B8
  8
0
 10
84.3362326821746819
 20
0.2852955001633255
 30
0.0
 11
84.3362472258747005
 21
0.3358511150633276
 31
0.0
  0
ARC
  5
44B9
  8
0
 10
83.7535700605748161
 20
0.9498350350632023
 30
0.0
 40
0.8464566928998358
 50
305.5487004218246057
 51
313.5013836672983984
  0
ARC
  5
44BA
  8
0
 10
83.7535757897470887
 20
0.9498270174835994
 30
0.0
 40
0.8464468387130288
 50
270.4303322905741993
 51
305.5487004218256857
  0
CIRCLE
  5
44BB
  8
0
 10
83.753570070796556
 20
0.8907801060473516
 30
0.0
 40
0.7874014516651019
  0
LINE
  5
44BC
  8
0
 10
84.3027826589747065
 20
0.3057430736836437
 30
0.0
 11
84.3027826589747065
 21
0.3265401028390222
 31
0.0
  0
LINE
  5
44BD
  8
0
 10
83.2043574620746824
 20
0.3057430736633222
 30
0.0
 11
83.2043574620746824
 21
0.3265401029363595
 31
0.0
  0
ARC
  5
44BE
  8
0
 10
83.7535700618581984
 20
0.831724796358067
 30
0.0
 40
0.8464566956845743
 50
108.7090866917880021
 51
133.5013836184938896
  0
LINE
  5
44BF
  8
0
 10
83.1708928951746742
 20
1.445708718863322
 30
0.0
 11
83.1708928951746742
 21
1.4962149422633251
 31
0.0
  0
ARC
  5
44C0
  8
0
 10
83.1905448095998139
 20
1.4962149422633251
 30
0.0
 40
0.0196519144251326
 50
136.2226043491145049
 51
180.0
  0
ARC
  5
44C1
  8
0
 10
83.7534795076336422
 20
0.8912569045932237
 30
0.0
 40
0.8459797101164545
 50
89.9938671089948059
 51
133.015490951008104
  0
ARC
  5
44C2
  8
0
 10
83.7535700605751146
 20
0.8907799169638863
 30
0.0
 40
0.8464566928992873
 50
47.0811785999966972
 51
54.4512995781762328
  0
ARC
  5
44C3
  8
0
 10
84.3162698322394846
 20
1.496140450038598
 30
0.0
 40
0.0199632343249364
 50
0.3555566206913296
 51
46.646859801494017
  0
LINE
  5
44C4
  8
0
 10
84.3362326821746819
 20
1.4962643337633239
 30
0.0
 11
84.3362472258747005
 21
1.445708718863322
 31
0.0
  0
ARC
  5
44C5
  8
0
 10
83.7535700605748161
 20
0.8317247988634477
 30
0.0
 40
0.8464566928998358
 50
46.4986163327014665
 51
54.4512995781752025
  0
ARC
  5
44C6
  8
0
 10
83.7535757897470887
 20
0.8317328164430506
 30
0.0
 40
0.8464468387130288
 50
54.4512995781752025
 51
89.5696677094257581
  0
LINE
  5
44C7
  8
0
 10
84.3027826589747065
 20
1.4758167602430059
 30
0.0
 11
84.3027826589747065
 21
1.4550197310876269
 31
0.0
  0
LINE
  5
44C8
  8
0
 10
83.2043574620746824
 20
1.475816760263327
 30
0.0
 11
83.2043574620746824
 21
1.4550197309902899
 31
0.0
  0
ARC
  5
44C9
  8
0
 10
83.7535702678927265
 20
0.8907797985675961
 30
0.0
 40
0.8464566686957549
 50
54.4513156551888997
 51
90.000014479891135
  0
ARC
  5
44CA
  8
0
 10
84.1595606847478876
 20
1.5135643282932629
 30
0.0
 40
0.0446153518095469
 50
66.9364493774800167
 51
114.5815630224442998
  0
ARC
  5
44CB
  8
0
 10
84.1608175957549349
 20
1.510816660918088
 30
0.0
 40
0.047636858268939
 50
114.5815630224434045
 51
165.4809620018270095
  0
LINE
  5
44CC
  8
0
 10
84.1147020495308624
 20
1.5227593014213661
 30
0.0
 11
84.1204337099389647
 21
0.1940645489373622
 31
0.0
  0
LINE
  5
44CD
  8
0
 10
84.0815290322030933
 20
0.1749276857412312
 30
0.0
 11
84.0901985719347635
 21
1.5442792671918959
 31
0.0
  0
ARC
  5
44CE
  8
0
 10
84.1263824617258251
 20
1.5394325935320901
 30
0.0
 40
0.0365070421422388
 50
114.8820282198001053
 51
172.3708905669925002
  0
ARC
  5
44CF
  8
0
 10
84.1288511297228752
 20
1.5163998676251891
 30
0.0
 40
0.0589136179190442
 50
70.3422593477546485
 51
107.6156608371265975
  0
CIRCLE
  5
44D0
  8
0
 10
83.7535700604746864
 20
0.8907799169133241
 30
0.0
 40
0.1968503936499992
  0
ARC
  5
44D1
  8
0
 10
83.3410234147080757
 20
1.520181060650976
 30
0.0
 40
0.0349018283740095
 50
68.8807038499424067
 51
119.9069918602112068
  0
ARC
  5
44D2
  8
0
 10
83.3420085604465868
 20
1.5083896178474701
 30
0.0
 40
0.0458385190736092
 50
13.8216590173244107
 51
75.3536498428244244
  0
LINE
  5
44D3
  8
0
 10
83.3865197811875873
 20
1.519340465257933
 30
0.0
 11
83.3932645625074542
 21
0.1906501898518229
 31
0.0
  0
ARC
  5
44D4
  8
0
 10
83.3719924505980998
 20
1.530003762842284
 30
0.0
 40
0.0429496214985552
 50
61.3850215387114417
 51
120.7201222054329008
  0
ARC
  5
44D5
  8
0
 10
83.3755149256923147
 20
1.5364604224629941
 30
0.0
 40
0.0355946038747069
 50
7.4604034592640787
 51
61.3850215387122518
  0
LINE
  5
44D6
  8
0
 10
83.4108082151925174
 20
1.541082060836217
 30
0.0
 11
83.4321396096575967
 21
0.1719728116692138
 31
0.0
  0
ARC
  5
44D7
  8
0
 10
83.753570060574674
 20
0.8317247988635934
 30
0.0
 40
0.8464566928997324
 50
89.9999999999983658
 51
108.7090866638984039
  0
LINE
  5
44D8
  8
0
 10
85.7220734737746852
 20
8.7627573288982248
 30
0.0
 11
85.7220734737746852
 21
7.1879541792982229
 31
0.0
  0
LINE
  5
44D9
  8
0
 10
82.6866404028747013
 20
-16.8474788916017708
 30
0.0
 11
84.3638058620589391
 21
-16.8474788916017708
 31
0.0
  0
LINE
  5
44DA
  8
0
 10
79.4031758359747073
 20
-15.8632269231017808
 30
0.0
 11
83.3401837104747045
 21
-15.8632269231017808
 31
0.0
  0
LINE
  5
44DB
  8
0
 10
79.4425459146747102
 20
-15.52200133700177
 30
0.0
 11
83.3008136317747017
 21
-15.52200133700177
 31
0.0
  0
LINE
  5
44DC
  8
0
 10
79.4321035439826346
 20
-15.5863729054517499
 30
0.0
 11
83.311256002466763
 21
-15.5863729054517499
 31
0.0
  0
LINE
  5
44DD
  8
0
 10
79.4031758359747073
 20
-15.8632269231017808
 30
0.0
 11
79.4031758359747073
 21
-15.5613714157017693
 31
0.0
  0
ARC
  5
44DE
  8
0
 10
79.4425459146747102
 20
-15.5613714157017693
 30
0.0
 40
0.0393700787000029
 50
90.0
 51
180.0000000000042064
  0
ARC
  5
44DF
  8
0
 10
79.4334879813156647
 20
-15.5267446610166093
 30
0.0
 40
0.0596443140722212
 50
239.4549837814651028
 51
268.6699563573408795
  0
LINE
  5
44E0
  8
0
 10
83.3401837104747045
 20
-15.8632269231017808
 30
0.0
 11
83.3401837104747045
 21
-15.5613714157017693
 31
0.0
  0
ARC
  5
44E1
  8
0
 10
83.3008136317747017
 20
-15.5613714157017693
 30
0.0
 40
0.0393700787000029
 50
359.9999999999955094
 51
90.0
  0
ARC
  5
44E2
  8
0
 10
83.3098715651337329
 20
-15.5267446610166093
 30
0.0
 40
0.0596443140722212
 50
271.3300436426591205
 51
300.5450162185350109
  0
LINE
  5
44E3
  8
0
 10
83.3401837104747045
 20
-15.7451166868017705
 30
0.0
 11
84.3638051928747075
 21
-15.7451166868017705
 31
0.0
  0
LINE
  5
44E4
  8
0
 10
84.3638051928747075
 20
-15.7451166868017705
 30
0.0
 11
84.3638058620589391
 21
-16.8474788916017708
 31
0.0
  0
ARC
  5
44E5
  8
0
 10
81.9779789855746657
 20
-16.4340930648017789
 30
0.0
 40
0.7086614173000138
 50
0.0000000000004071
 51
53.6639424834902883
  0
LINE
  5
44E6
  8
0
 10
82.6866404028747013
 20
-16.4340930648017682
 30
0.0
 11
82.6866404028747013
 21
-16.8474788916017708
 31
0.0
  0
LINE
  5
44E7
  8
0
 10
83.0527821351746951
 20
-15.8632269231017702
 30
0.0
 11
83.0527821351747093
 21
-16.8474788916017708
 31
0.0
  0
LINE
  5
44E8
  8
0
 10
83.0724671745746974
 20
-16.8474788916017708
 30
0.0
 11
83.0724671745746974
 21
-15.8632269231017702
 31
0.0
  0
LINE
  5
44E9
  8
0
 10
83.0527821351747093
 20
-15.9027424000017792
 30
0.0
 11
83.0724671745746974
 21
-15.9027424000017792
 31
0.0
  0
LINE
  5
44EA
  8
0
 10
82.9464829225747025
 20
8.7627573288982248
 30
0.0
 11
83.2614435524746881
 21
8.7627573288982248
 31
0.0
  0
LINE
  5
44EB
  8
0
 10
84.2456955209746923
 20
8.7627573288982248
 30
0.0
 11
85.7220734737746852
 21
8.7627573288982248
 31
0.0
  0
ARC
  5
44EC
  8
0
 10
82.9464573464377679
 20
8.7235107050747658
 30
0.0
 40
0.0392466321571531
 50
89.9626616418743765
 51
161.6271714755924052
  0
LINE
  5
44ED
  8
0
 10
82.9464829225747025
 20
7.1879541792982229
 30
0.0
 11
83.2614435524746881
 21
7.1879541792982229
 31
0.0
  0
LINE
  5
44EE
  8
0
 10
84.2456955209747065
 20
7.1879541792982229
 30
0.0
 11
85.7220734737746852
 21
7.1879541792982229
 31
0.0
  0
ARC
  5
44EF
  8
0
 10
82.9464573464377679
 20
7.2272008031216819
 30
0.0
 40
0.0392466321571531
 50
198.3728285244075948
 51
270.0373383581256235
  0
ARC
  5
44F0
  8
0
 10
85.5485837562588642
 20
7.9753557540982243
 30
0.0
 40
2.7467591790280732
 50
163.9258586139916076
 51
196.0741413860083071
  0
LINE
  5
44F1
  8
0
 10
84.2456955209746923
 20
9.6198431584982274
 30
0.0
 11
84.2456955209746923
 21
8.7627573288982248
 31
0.0
  0
LINE
  5
44F2
  8
0
 10
84.2456955209747065
 20
7.1879541792982273
 30
0.0
 11
84.2456955209746923
 21
1.579475396969755
 31
0.0
  0
LINE
  5
44F3
  8
0
 10
84.2456955209746923
 20
0.2020844369568948
 30
0.0
 11
84.2456955209746923
 21
-15.7451166868017705
 31
0.0
  0
LINE
  5
44F4
  8
0
 10
84.2456955209746923
 20
-16.8474788916017815
 30
0.0
 11
84.2456955209746923
 21
-21.1741106344017815
 31
0.0
  0
ARC
  5
44F5
  8
0
 10
84.2338844973746887
 20
9.6198431584982131
 30
0.0
 40
0.0118110236000071
 50
0.0000000000346044
 51
86.4562483444670278
  0
LINE
  5
44F6
  8
0
 10
83.2614435524746881
 20
9.6198431584982274
 30
0.0
 11
83.2614435524746881
 21
8.7627573288982248
 31
0.0
  0
LINE
  5
44F7
  8
0
 10
83.2614435524746881
 20
7.1879541792982273
 30
0.0
 11
83.2614435524746881
 21
1.579430057774565
 31
0.0
  0
LINE
  5
44F8
  8
0
 10
83.2614435524746881
 20
0.2021297761520842
 30
0.0
 11
83.2614435524746881
 21
-15.52200133700177
 31
0.0
  0
LINE
  5
44F9
  8
0
 10
83.2614435524746881
 20
-16.8474788916017815
 30
0.0
 11
83.2614435524746881
 21
-21.1741106344017815
 31
0.0
  0
ARC
  5
44FA
  8
0
 10
83.2732545760747058
 20
9.6198431584982131
 30
0.0
 40
0.0118110236000071
 50
93.5437516555321622
 51
179.9999999999654108
  0
ARC
  5
44FB
  8
0
 10
83.7535695367246973
 20
1.9533272255767491
 30
0.0
 40
7.6933583263457299
 50
86.4151104323483281
 51
93.5848895676516861
  0
LINE
  5
44FC
  8
0
 10
83.272528687587652
 20
9.6316318586982277
 30
0.0
 11
84.2346103858617283
 21
9.6316318586982277
 31
0.0
  0
LINE
  5
44FD
  8
0
 10
85.7220734737746852
 20
-22.748913784001779
 30
0.0
 11
85.7220734737746852
 21
-21.1741106344017815
 31
0.0
  0
LINE
  5
44FE
  8
0
 10
82.9464829225747025
 20
-22.748913784001779
 30
0.0
 11
85.7220734737746852
 21
-22.748913784001779
 31
0.0
  0
ARC
  5
44FF
  8
0
 10
82.9464573464377679
 20
-22.70966716017832
 30
0.0
 40
0.0392466321571531
 50
198.3728285244075948
 51
270.0373383581256235
  0
LINE
  5
4500
  8
0
 10
82.9464829225747025
 20
-21.1741106344017815
 30
0.0
 11
83.2614435524746881
 21
-21.1741106344017815
 31
0.0
  0
LINE
  5
4501
  8
0
 10
84.2456955209746923
 20
-21.1741106344017815
 30
0.0
 11
85.7220734737746852
 21
-21.1741106344017815
 31
0.0
  0
ARC
  5
4502
  8
0
 10
82.9464573464377679
 20
-21.2133572582252405
 30
0.0
 40
0.0392466321571531
 50
89.9626616418743765
 51
161.6271714755924052
  0
ARC
  5
4503
  8
0
 10
85.5485837562588642
 20
-21.9615122092017785
 30
0.0
 40
2.7467591790280732
 50
163.9258586139916076
 51
196.0741413860083071
  0
ARC
  5
4504
  8
0
 10
83.7535695367246973
 20
9.3718316999507323
 30
0.0
 40
0.783045065016721
 50
231.0621363929865026
 51
308.9378636070132984
  0
ARC
  5
4505
  8
0
 10
83.7535695367246973
 20
6.5788798082457163
 30
0.0
 40
0.783045065016721
 50
51.0621363929866519
 51
128.9378636070134974
  0
ARC
  5
4506
  8
0
 10
83.7535695367246973
 20
-20.5650362633492705
 30
0.0
 40
0.783045065016721
 50
231.0621363929865026
 51
308.9378636070132984
  0
ENDSEC
  0
EOF
