  0
SECTION
  2
HEADER
  9
$ACADVER
  1
AC1009
  9
$INSBASE
 10
3638.0042342781789557
 20
324.7965258659122014
 30
0.0
  9
$EXTMIN
 10
3630.2814763934920848
 20
324.7841761511587038
 30
-0.0015258207003583
  9
$EXTMAX
 10
3645.5784613115260981
 20
334.7177411082953995
 30
0.0000000349246037
  9
$LIMMIN
 10
0.0
 20
0.0
  9
$LIMMAX
 10
11.6929133858000007
 20
8.2677165353999982
  9
$ORTHOMODE
 70
     0
  9
$REGENMODE
 70
     1
  9
$FILLMODE
 70
     1
  9
$QTEXTMODE
 70
     0
  9
$MIRRTEXT
 70
     0
  9
$DRAGMODE
 70
     2
  9
$LTSCALE
 40
0.6431102362
  9
$OSMODE
 70
  4095
  9
$ATTMODE
 70
     1
  9
$TEXTSIZE
 40
0.2
  9
$TRACEWID
 40
0.05
  9
$TEXTSTYLE
  7
STANDARD
  9
$CLAYER
  8
0
  9
$CELTYPE
  6
BYLAYER
  9
$CECOLOR
 62
   256
  9
$DIMSCALE
 40
1.0
  9
$DIMASZ
 40
0.1875
  9
$DIMEXO
 40
0.0625
  9
$DIMDLI
 40
0.4443307087
  9
$DIMRND
 40
0.0
  9
$DIMDLE
 40
0.0
  9
$DIMEXE
 40
0.125
  9
$DIMTP
 40
0.01
  9
$DIMTM
 40
0.01
  9
$DIMTXT
 40
2.0
  9
$DIMCEN
 40
0.1052362205
  9
$DIMTSZ
 40
0.0
  9
$DIMTOL
 70
     1
  9
$DIMLIM
 70
     0
  9
$DIMTIH
 70
     1
  9
$DIMTOH
 70
     1
  9
$DIMSE1
 70
     0
  9
$DIMSE2
 70
     0
  9
$DIMTAD
 70
     0
  9
$DIMZIN
 70
     0
  9
$DIMBLK
  1

  9
$DIMASO
 70
     1
  9
$DIMSHO
 70
     1
  9
$DIMPOST
  1
\X
  9
$DIMAPOST
  1

  9
$DIMALT
 70
     1
  9
$DIMALTD
 70
     2
  9
$DIMALTF
 40
25.3999999999999986
  9
$DIMLFAC
 40
1.0
  9
$DIMTOFL
 70
     0
  9
$DIMTVP
 40
0.0
  9
$DIMTIX
 70
     0
  9
$DIMSOXD
 70
     0
  9
$DIMSAH
 70
     0
  9
$DIMBLK1
  1

  9
$DIMBLK2
  1

  9
$DIMSTYLE
  2
STANDARD
  9
$DIMCLRD
 70
     0
  9
$DIMCLRE
 70
     0
  9
$DIMCLRT
 70
     0
  9
$DIMTFAC
 40
1.0
  9
$DIMGAP
 40
0.09
  9
$LUNITS
 70
     2
  9
$LUPREC
 70
     4
  9
$SKETCHINC
 40
0.1
  9
$FILLETRAD
 40
0.0
  9
$AUNITS
 70
     0
  9
$AUPREC
 70
     0
  9
$MENU
  1
.
  9
$ELEVATION
 40
0.0
  9
$PELEVATION
 40
0.0
  9
$THICKNESS
 40
0.0
  9
$LIMCHECK
 70
     0
  9
$BLIPMODE
 70
     0
  9
$CHAMFERA
 40
0.0
  9
$CHAMFERB
 40
0.0
  9
$SKPOLY
 70
     0
  9
$TDCREATE
 40
2458060.468368056230247
  9
$TDUPDATE
 40
2459101.7530787037685513
  9
$TDINDWG
 40
0.5914306713
  9
$TDUSRTIMER
 40
0.5914306713
  9
$USRTIMER
 70
     1
  9
$ANGBASE
 50
0.0
  9
$ANGDIR
 70
     0
  9
$PDMODE
 70
     0
  9
$PDSIZE
 40
0.3125
  9
$PLINEWID
 40
0.0
  9
$COORDS
 70
     1
  9
$SPLFRAME
 70
     0
  9
$SPLINETYPE
 70
     6
  9
$SPLINESEGS
 70
     8
  9
$ATTDIA
 70
     1
  9
$ATTREQ
 70
     1
  9
$HANDLING
 70
     1
  9
$HANDSEED
  5
ADFC
  9
$SURFTAB1
 70
     6
  9
$SURFTAB2
 70
     6
  9
$SURFTYPE
 70
     6
  9
$SURFU
 70
     6
  9
$SURFV
 70
     6
  9
$UCSNAME
  2

  9
$UCSORG
 10
0.0
 20
0.0
 30
0.0
  9
$UCSXDIR
 10
1.0
 20
0.0
 30
0.0
  9
$UCSYDIR
 10
0.0
 20
1.0
 30
0.0
  9
$PUCSNAME
  2

  9
$PUCSORG
 10
0.0
 20
0.0
 30
0.0
  9
$PUCSXDIR
 10
1.0
 20
0.0
 30
0.0
  9
$PUCSYDIR
 10
0.0
 20
1.0
 30
0.0
  9
$USERI1
 70
     0
  9
$USERI2
 70
     0
  9
$USERI3
 70
     0
  9
$USERI4
 70
     0
  9
$USERI5
 70
     0
  9
$USERR1
 40
0.0
  9
$USERR2
 40
0.0
  9
$USERR3
 40
0.0
  9
$USERR4
 40
0.0
  9
$USERR5
 40
0.0
  9
$WORLDVIEW
 70
     1
  9
$SHADEDGE
 70
     3
  9
$SHADEDIF
 70
    70
  9
$TILEMODE
 70
     1
  9
$MAXACTVP
 70
    64
  9
$PLIMCHECK
 70
     0
  9
$PEXTMIN
 10
1.0000000000000000E+20
 20
1.0000000000000000E+20
 30
1.0000000000000000E+20
  9
$PEXTMAX
 10
-1.0000000000000000E+20
 20
-1.0000000000000000E+20
 30
-1.0000000000000000E+20
  9
$PLIMMIN
 10
0.0
 20
0.0
  9
$PLIMMAX
 10
12.0
 20
9.0
  9
$UNITMODE
 70
     0
  9
$VISRETAIN
 70
     1
  9
$PLINEGEN
 70
     0
  9
$PSLTSCALE
 70
     1
  0
ENDSEC
  0
SECTION
  2
TABLES
  0
TABLE
  2
VPORT
 70
     1
  0
VPORT
  2
*ACTIVE
 70
     0
 10
0.0
 20
0.0
 11
1.0
 21
1.0
 12
-0.0743036084286359
 22
0.0015939802001412
 13
0.0
 23
0.0
 14
1.0
 24
1.0
 15
0.0
 25
0.0
 16
0.0
 26
0.0
 36
50.9426872151858419
 17
3638.0042724609379547
 27
329.7493646495269104
 37
0.0
 40
10.0162298527577995
 41
2.6486111111111108
 42
50.0
 43
0.0
 44
0.0
 50
0.0
 51
0.0
 71
     0
 72
   100
 73
     1
 74
     1
 75
     0
 76
     0
 77
     0
 78
     0
  0
ENDTAB
  0
TABLE
  2
LTYPE
 70
     2
  0
LTYPE
  2
CONTINUOUS
 70
     0
  3
Solid line
 72
    65
 73
     0
 40
0.0
  0
LTYPE
  2
PHANTOM2
 70
     0
  3
___ _ _ ___ _ _ ___ _ _ ___ _ _
 72
    65
 73
     6
 40
1.25
 49
0.625
 49
-0.125
 49
0.125
 49
-0.125
 49
0.125
 49
-0.125
  0
ENDTAB
  0
TABLE
  2
LAYER
 70
     2
  0
LAYER
  2
0
 70
     0
 62
   255
  6
CONTINUOUS
  0
LAYER
  2
DEFPOINTS
 70
     0
 62
     7
  6
CONTINUOUS
  0
ENDTAB
  0
TABLE
  2
STYLE
 70
     1
  0
STYLE
  2
STANDARD
 70
     0
 40
0.0
 41
0.8
 50
0.0
 71
     0
 42
0.2
  3
txt
  4

  0
ENDTAB
  0
TABLE
  2
VIEW
 70
     0
  0
ENDTAB
  0
TABLE
  2
UCS
 70
     0
  0
ENDTAB
  0
TABLE
  2
APPID
 70
     9
  0
APPID
  2
ACAD
 70
     0
  0
APPID
  2
ACAD_MLEADERVER
 70
     0
  0
APPID
  2
ACAD_EXEMPT_FROM_CAD_STANDARDS
 70
     0
  0
APPID
  2
ACAD_NAV_VCDISPLAY
 70
     0
  0
APPID
  2
ACAECLAYERSTANDARD
 70
     0
  0
APPID
  2
ACCMTRANSPARENCY
 70
     0
  0
APPID
  2
ACAD_DSTYLE_DIMJAG
 70
     0
  0
APPID
  2
ACAD_DSTYLE_DIMTALN
 70
     0
  0
APPID
  2
ACDBATTR
 70
     0
  0
ENDTAB
  0
TABLE
  2
DIMSTYLE
 70
     1
  0
DIMSTYLE
  2
STANDARD
 70
     0
  3

  4

  5

  6

  7

 40
1.0
 41
0.1875
 42
0.0625
 43
0.38
 44
0.125
 45
0.0
 46
0.0
 47
0.01
 48
0.01
140
0.15625
141
0.09
142
0.0
143
25.3999999999999986
144
1.0
145
0.0
146
1.0
147
0.09
 71
     1
 72
     0
 73
     1
 74
     1
 75
     0
 76
     0
 77
     0
 78
     4
170
     0
171
     2
172
     0
173
     0
174
     0
175
     0
176
     0
177
     0
178
     0
  0
ENDTAB
  0
ENDSEC
  0
SECTION
  2
BLOCKS
  0
BLOCK
  8
0
  2
$MODEL_SPACE
 70
     0
 10
0.0
 20
0.0
 30
0.0
  3
$MODEL_SPACE
  1

  0
ENDBLK
  5
21
  8
0
  0
BLOCK
 67
     1
  8
0
  2
$PAPER_SPACE
 70
     0
 10
0.0
 20
0.0
 30
0.0
  3
$PAPER_SPACE
  1

  0
ENDBLK
  5
1D
 67
     1
  8
0
  0
BLOCK
  8
0
  2
_FILLED
 70
     0
 10
0.0
 20
0.0
 30
0.0
  3
_FILLED
  1

  0
SOLID
  5
6F59
  8
0
  6
BYBLOCK
 62
     0
 10
0.0
 20
0.0
 30
0.0
 11
-1.0
 21
0.1666666667
 31
0.0
 12
-1.0
 22
-0.1666666667
 32
0.0
 13
-1.0
 23
-0.1666666667
 33
0.0
  0
ENDBLK
  5
6F5A
  8
0
  6
BYBLOCK
 62
     0
  0
ENDSEC
  0
SECTION
  2
ENTITIES
  0
ATTDEF
  5
3930
  8
DEFPOINTS
 10
3638.0007986749869815
 20
324.7945431011370943
 30
0.0
 40
0.001
  1
K-12885IN-4
  3

  2
MODELNUMBER
 70
     0
1001
ACDBATTR
1070
     0
1070
     1
  0
ATTDEF
  5
3931
  8
DEFPOINTS
 10
3638.0007986749869815
 20
324.7928764344703723
 30
0.0
 40
0.001
  1
FAIRFAX
  3

  2
TRADENAME
 70
     0
1001
ACDBATTR
1070
     0
1070
     1
  0
ATTDEF
  5
3932
  8
DEFPOINTS
 10
3638.0007986749869815
 20
324.7912097678038208
 30
0.0
 40
0.001
  1
BATH FAUCET
  3

  2
PRODUCT
 70
     0
1001
ACDBATTR
1070
     0
1070
     1
  0
LINE
  5
A967
  8
0
 10
3636.889234295778806
 20
324.7965258659122014
 30
0.0
 11
3639.119234260580015
 21
324.7965258659122014
 31
0.0
  0
LINE
  5
A968
  8
0
 10
3638.5536608849802178
 20
326.3965258659122242
 30
0.0
 11
3637.4548076713790579
 21
326.3965258659122242
 31
0.0
  0
LINE
  5
A969
  8
0
 10
3636.8492342781792104
 20
324.8965258659122242
 30
0.0
 11
3636.8492342781792104
 21
324.8365258659122219
 31
0.0
  0
LINE
  5
A96A
  8
0
 10
3637.4732342781799161
 20
334.1755104304122028
 30
0.0
 11
3637.4732342781799161
 21
332.0075072684120983
 31
0.0
  0
LINE
  5
A96B
  8
0
 10
3637.4732342781799161
 20
326.3965258659122242
 30
0.0
 11
3637.4732342781799161
 21
331.3818141398600119
 31
0.0
  0
ARC
  5
A96C
  8
0
 10
3636.718184849480167
 20
326.1165258659121946
 30
0.0
 40
0.6899999999999999
 50
302.3644549486037931
 51
326.9442688490962041
  0
ARC
  5
A96D
  8
0
 10
3637.2695467995799845
 20
325.2465258659121901
 30
0.0
 40
0.34
 50
122.3644497865060998
 51
205.3769335250941026
  0
ARC
  5
A96E
  8
0
 10
3637.0869666277799297
 20
325.8765258659121855
 30
0.0
 40
0.25
 50
326.9442688491956233
 51
40.975610342708741
  0
ARC
  5
A96F
  8
0
 10
3637.4548076713790579
 20
326.256525865912181
 30
0.0
 40
0.14
 50
90.0
 51
202.1341296920982131
  0
ARC
  5
A970
  8
0
 10
3636.9492342781800289
 20
324.8965258659122242
 30
0.0
 40
0.1
 50
109.1881364536896939
 51
180.0
  0
ARC
  5
A971
  8
0
 10
3636.8900734803801242
 20
325.0665258659121832
 30
0.0
 40
0.08
 50
289.1881364537987906
 51
25.3769335253035599
  0
ARC
  5
A972
  8
0
 10
3637.2695467995799845
 20
326.181170644612223
 30
0.0
 40
0.06
 50
294.5009220834094208
 51
22.1341296913023307
  0
ARC
  5
A973
  8
0
 10
3637.3172382065799866
 20
326.0765258659121741
 30
0.0
 40
0.055
 50
114.5009220838973931
 51
220.9756103422014064
  0
ARC
  5
A974
  8
0
 10
3636.8892342781800835
 20
324.8365258659122219
 30
0.0
 40
0.04
 50
180.0
 51
270.0000251656869068
  0
ARC
  5
A975
  8
0
 10
3638.0042342781789557
 20
334.1765258659121969
 30
0.0
 40
0.5310000000000001
 50
90.0
 51
180.0
  0
LINE
  5
A976
  8
0
 10
3632.8034571826788124
 20
324.7965258659122014
 30
0.0
 11
3635.2050113735790546
 21
324.7965258659122014
 31
0.0
  0
ARC
  5
A977
  8
0
 10
3635.2050113735790546
 20
324.8359062521611236
 30
0.0
 40
0.0393803862489377
 50
270.0
 51
359.9850033637396223
  0
LINE
  5
A978
  8
0
 10
3635.2443917584801056
 20
324.8358959447122061
 30
0.0
 11
3635.2443917584801056
 21
324.8989616001068157
 31
0.0
  0
ARC
  5
A979
  8
0
 10
3635.1460204455529492
 20
324.8989419674848023
 30
0.0
 40
0.0983713148850528
 50
0.0114349023834652
 51
90.0313843392807769
  0
LINE
  5
A97A
  8
0
 10
3635.1459665616798702
 20
324.997313267612185
 30
0.0
 11
3632.8625019945798158
 21
324.997313267612185
 31
0.0
  0
ARC
  5
A97B
  8
0
 10
3635.1282500261381756
 20
325.3358959445706091
 30
0.0
 40
0.3385826770584159
 50
179.9999999760422895
 51
270.0000000070348847
  0
LINE
  5
A97C
  8
0
 10
3634.7896673490799913
 20
325.3358959447122061
 30
0.0
 11
3634.7896673492859918
 21
325.8284853445122167
 31
0.0
  0
LINE
  5
A97D
  8
0
 10
3632.9335338199798571
 20
325.8284853445122167
 30
0.0
 11
3635.0749347363798734
 21
325.8284853445122167
 31
0.0
  0
ARC
  5
A97E
  8
0
 10
3635.0749347363798734
 20
325.8584853445121894
 30
0.0
 40
0.0300000000000031
 50
270.0
 51
324.6790791348960283
  0
ARC
  5
A97F
  8
0
 10
3634.3592200016109928
 20
326.3656320722905093
 30
0.0
 40
0.9071803606219715
 50
324.6790791348960283
 51
333.2287623910905836
  0
ARC
  5
A980
  8
0
 10
3634.9217444621422146
 20
326.0818348716376249
 30
0.0
 40
0.2771211413466659
 50
333.2287623910905836
 51
354.2542470288764775
  0
ARC
  5
A981
  8
0
 10
3634.9217444621422146
 20
326.0818348716376249
 30
0.0
 40
0.2771211413466659
 50
5.7457529711234638
 51
46.6445775305591113
  0
ARC
  5
A982
  8
0
 10
3633.9865137545748439
 20
324.9448171493144173
 30
0.0
 40
1.748807795753184
 50
49.9414463734394403
 51
62.8733603020495835
  0
ARC
  5
A983
  8
0
 10
3634.8784528415258137
 20
326.7153408651071231
 30
0.0
 40
0.2340346885045233
 50
195.4351446045737077
 51
246.1702291449306017
  0
ARC
  5
A984
  8
0
 10
3634.8097035829177912
 20
326.6829382098233054
 30
0.0
 40
0.1596661087827182
 50
131.1566775617436065
 51
190.7878099248734998
  0
ARC
  5
A985
  8
0
 10
3634.6520581474228493
 20
326.8914927941473252
 30
0.0
 40
0.1027964992152258
 50
300.7543971199725092
 51
353.702199092848673
  0
ARC
  5
A986
  8
0
 10
3634.6919244409978091
 20
326.8802714041747777
 30
0.0
 40
0.062309870147462
 50
359.9494337692415229
 51
90.1748701124595016
  0
LINE
  5
A987
  8
0
 10
3634.6917342678789282
 20
326.9425809841122259
 30
0.0
 11
3633.3167342884798927
 21
326.9425809841122259
 31
0.0
  0
ARC
  5
A988
  8
0
 10
3634.5524451325791233
 20
327.0670909614121911
 30
0.0
 40
0.1598204623999997
 50
308.8252679316914282
 51
87.5251633934058191
  0
LINE
  5
A989
  8
0
 10
3634.559346278772864
 20
327.2267623564176233
 30
0.0
 11
3633.4775506877799671
 21
327.2274171199122179
 31
0.0
  0
LINE
  5
A98A
  8
0
 10
3634.559346278772864
 20
327.2267623564176233
 30
0.0
 11
3634.5593523883790112
 21
327.2662835336121816
 31
0.0
  0
LINE
  5
A98B
  8
0
 10
3634.5593523883790112
 20
327.2662835336121816
 30
0.0
 11
3633.4491161679789002
 21
327.2662835336121816
 31
0.0
  0
LINE
  5
A98C
  8
0
 10
3634.5160453017788313
 20
327.2662835336121816
 30
0.0
 11
3634.5160453017788313
 21
327.2714016438122258
 31
0.0
  0
LINE
  5
A98D
  8
0
 10
3633.4490344641799311
 20
327.2714016438122258
 30
0.0
 11
3634.5594340921788898
 21
327.2714016438122258
 31
0.0
  0
ARC
  5
A98E
  8
0
 10
3634.5594340921788898
 20
327.2910866832121997
 30
0.0
 40
0.0196850393999997
 50
270.0
 51
0.0000000000065138
  0
ARC
  5
A98F
  8
0
 10
3634.3789072753320397
 20
327.2705711665092281
 30
0.0
 40
0.2012602141691901
 50
5.8506235481725088
 51
45.2602202759731327
  0
ARC
  5
A990
  8
0
 10
3634.1185919348608877
 20
326.8984856686947751
 30
0.0
 40
0.6533429689489419
 50
52.0287178252784983
 51
75.0349767702940511
  0
ARC
  5
A991
  8
0
 10
3634.0048415604310321
 20
326.5946217059428136
 30
0.0
 40
0.9767803166486757
 50
73.1912912794722388
 51
90.0356218429730291
  0
ARC
  5
A992
  8
0
 10
3632.8034571826788124
 20
324.8359062521611236
 30
0.0
 40
0.0393803862489377
 50
180.0149966362602925
 51
270.0
  0
LINE
  5
A993
  8
0
 10
3632.7640767977800351
 20
324.8358959447122061
 30
0.0
 11
3632.764060310178138
 21
324.8988880685545269
 31
0.0
  0
ARC
  5
A994
  8
0
 10
3632.8624597597899992
 20
324.8989138236938174
 30
0.0
 40
0.098399452982309
 50
89.9754076347706757
 51
180.0149966362602925
  0
ARC
  5
A995
  8
0
 10
3632.8802185301219652
 20
325.3358959445706091
 30
0.0
 40
0.3385826770584159
 50
269.9999999929651153
 51
0.0000000239576681
  0
LINE
  5
A996
  8
0
 10
3633.2188012071801495
 20
325.3358959447122061
 30
0.0
 11
3633.218801206974149
 21
325.8284853445122167
 31
0.0
  0
ARC
  5
A997
  8
0
 10
3632.9335338198798127
 20
325.8584853445121894
 30
0.0
 40
0.0300000000000031
 50
215.3209208651040001
 51
270.0
  0
ARC
  5
A998
  8
0
 10
3633.6492485546477837
 20
326.3656320722905093
 30
0.0
 40
0.9071803606219715
 50
206.7712376089093027
 51
215.3209208651040001
  0
ARC
  5
A999
  8
0
 10
3633.0867240941179261
 20
326.0818348716376249
 30
0.0
 40
0.2771211413466659
 50
133.3554224694408106
 51
206.7712376089093027
  0
ARC
  5
A99A
  8
0
 10
3634.0219548016848421
 20
324.9448171493144173
 30
0.0
 40
1.748807795753184
 50
117.1266396979503952
 51
130.0585536265604958
  0
ARC
  5
A99B
  8
0
 10
3633.1300157147329628
 20
326.7153408651071231
 30
0.0
 40
0.2340346885045233
 50
293.8297708550693983
 51
344.5648553954263207
  0
ARC
  5
A99C
  8
0
 10
3633.1987649733418948
 20
326.6829382098233054
 30
0.0
 40
0.1596661087827182
 50
349.2121900751265002
 51
48.8433224382563935
  0
ARC
  5
A99D
  8
0
 10
3633.4614593981218604
 20
326.9839189910061918
 30
0.0
 40
0.2398308869810055
 50
212.8645029848615877
 51
228.9139413949982043
  0
ARC
  5
A99E
  8
0
 10
3633.3165929164811132
 20
326.8801530193015878
 30
0.0
 40
0.0624281248829922
 50
89.8702504675472937
 51
204.9959423790631945
  0
LINE
  5
A99F
  8
0
 10
3633.4491216968058325
 20
327.2305186009190265
 30
0.0
 11
3633.4491161678788558
 21
327.2662835336121816
 31
0.0
  0
LINE
  5
A9A0
  8
0
 10
3633.4924232544790357
 20
327.2662835336121816
 30
0.0
 11
3633.4924232544790357
 21
327.2714016438122258
 31
0.0
  0
ARC
  5
A9A1
  8
0
 10
3633.4490344640798867
 20
327.2910866832121997
 30
0.0
 40
0.019685039400001
 50
173.3607704361079129
 51
270.0
  0
ARC
  5
A9A2
  8
0
 10
3633.6303921113221804
 20
327.2699770422731262
 30
0.0
 40
0.2022671117781657
 50
134.7884879235633093
 51
173.3607704361079129
  0
ARC
  5
A9A3
  8
0
 10
3633.8898766213987983
 20
326.8984856686947751
 30
0.0
 40
0.6533429689489419
 50
104.9650232297059063
 51
127.9712821747214946
  0
ARC
  5
A9A4
  8
0
 10
3634.0036269958281991
 20
326.5946217059428136
 30
0.0
 40
0.9767803166486757
 50
89.9643781570269994
 51
106.8087087205277044
  0
ARC
  5
A9A5
  8
0
 10
3633.5227615788489857
 20
327.7736765896769953
 30
0.0
 40
0.5481272051075626
 50
237.4715436876759895
 51
265.2687268932021993
  0
ARC
  5
A9A6
  8
0
 10
3629.7918210646689658
 20
321.1039983485027278
 30
0.0
 40
7.095140920262069
 50
61.0331425471655322
 51
67.6650563508899552
  0
ARC
  5
A9A7
  8
0
 10
3630.371027111345029
 20
322.5526369206318122
 30
0.0
 40
5.5350915217412471
 50
67.5122779616886959
 51
74.2528991319138214
  0
ARC
  5
A9A8
  8
0
 10
3631.4244754641640611
 20
326.0582863192678928
 30
0.0
 40
1.8761571115974189
 50
76.1621484473173496
 51
99.0545193047802854
  0
ARC
  5
A9A9
  8
0
 10
3631.2758655406560138
 20
326.9858388403591221
 30
0.0
 40
0.9367757439894052
 50
99.0064914799193332
 51
133.3792068140161007
  0
ARC
  5
A9AA
  8
0
 10
3630.8663964290331023
 20
327.4264139492063919
 30
0.0
 40
0.3353591272965011
 50
134.2310054617688877
 51
165.2564646250679061
  0
ARC
  5
A9AB
  8
0
 10
3630.6957353599877933
 20
327.4959374313270928
 30
0.0
 40
0.1544687971211455
 50
174.1205933315879122
 51
199.3781988784388943
  0
ARC
  5
A9AC
  8
0
 10
3630.6103287719520267
 20
327.466163851880026
 30
0.0
 40
0.0640221330474718
 50
199.6030246155476959
 51
267.5193113356359049
  0
ARC
  5
A9AD
  8
0
 10
3630.6342454929899759
 20
328.0978661139898236
 30
0.0
 40
0.6961761210353719
 50
267.8030396939385014
 51
281.5705999406866908
  0
ARC
  5
A9AE
  8
0
 10
3619.8933290765371567
 20
388.2337169095458194
 30
0.0
 40
61.7835000071775227
 50
280.1431277536721041
 51
280.5510777786926155
  0
ARC
  5
A9AF
  8
0
 10
3631.5607189093830129
 20
325.4935867768215871
 30
0.0
 40
2.0323456263920701
 50
87.650273592752896
 51
100.0336792915973945
  0
ARC
  5
A9B0
  8
0
 10
3631.4431821783550731
 20
324.6290093465045175
 30
0.0
 40
2.902173417525554
 50
69.2298952196927218
 51
86.03135915885548
  0
ARC
  5
A9B1
  8
0
 10
3631.4197050385328112
 20
324.2926808489360155
 30
0.0
 40
3.2264376436213249
 50
59.5491211997946124
 51
70.9583363537749108
  0
ARC
  5
A9B2
  8
0
 10
3639.7571697879438943
 20
337.7037259871685251
 30
0.0
 40
12.5662396389907798
 50
237.767358317772505
 51
238.5264663059197972
  0
ARC
  5
A9B3
  8
0
 10
3633.3924876393280101
 20
327.3398025698569995
 30
0.0
 40
0.4043804623672517
 50
240.9736700940520109
 51
259.2028836576117214
  0
ARC
  5
A9B4
  8
0
 10
3637.9991836555432201
 20
331.1220009416625771
 30
0.0
 40
1.0406426027896289
 50
89.7219213433477165
 51
110.904020450135306
  0
ARC
  5
A9B5
  8
0
 10
3637.8454876281621182
 20
331.5244063215275787
 30
0.0
 40
0.6098844820567786
 50
110.904020450135306
 51
127.6160428017924033
  0
ARC
  5
A9B6
  8
0
 10
3637.6883591809710197
 20
331.6897899532737028
 30
0.0
 40
0.3836965156731086
 50
124.1017445545371061
 51
179.4976145366480864
  0
ARC
  5
A9B7
  8
0
 10
3637.7077438831220206
 20
331.7100733004745052
 30
0.0
 40
0.4034214066422802
 50
182.4036243183209081
 51
234.4578408657972943
  0
ARC
  5
A9B8
  8
0
 10
3637.9223200002638805
 20
332.0029014942222148
 30
0.0
 40
0.7664381824575873
 50
234.1306738963380099
 51
258.8384676405564733
  0
ARC
  5
A9B9
  8
0
 10
3638.0024540851159145
 20
332.3228836010545137
 30
0.0
 40
1.0960068453857339
 50
257.9665809880187908
 51
270.0930629169984059
  0
ARC
  5
A9BA
  8
0
 10
3637.9901603035859807
 20
331.0353055596597756
 30
0.0
 40
0.7439445088975746
 50
88.9160112847098958
 51
113.3349127273862962
  0
ARC
  5
A9BB
  8
0
 10
3637.8342617996900117
 20
331.396691523667414
 30
0.0
 40
0.350365852846788
 50
113.3349127273862962
 51
137.3185150169649091
  0
ARC
  5
A9BC
  8
0
 10
3637.6898841795250519
 20
331.5335820677302081
 30
0.0
 40
0.1514529454789396
 50
138.3612129435296083
 51
171.8997258342836858
  0
ARC
  5
A9BD
  8
0
 10
3637.7115013860989166
 20
331.5675049843076749
 30
0.0
 40
0.1720198828117802
 50
184.1946118273355921
 51
233.0148849520265912
  0
ARC
  5
A9BE
  8
0
 10
3637.9253840887308797
 20
331.8397189099595721
 30
0.0
 40
0.5181839800523476
 50
232.2318224850617128
 51
260.230986812285721
  0
ARC
  5
A9BF
  8
0
 10
3638.0027337946380612
 20
332.153865548219926
 30
0.0
 40
0.8412122949268225
 50
258.6693629735630111
 51
270.1021994331902079
  0
LINE
  5
A9C0
  8
0
 10
3635.1974733307788483
 20
326.1095786633948137
 30
0.0
 11
3635.1974733307788483
 21
326.054091079880493
 31
0.0
  0
LINE
  5
A9C1
  8
0
 10
3639.1592342781800653
 20
324.8965258659122242
 30
0.0
 11
3639.1592342781800653
 21
324.8365258659122219
 31
0.0
  0
LINE
  5
A9C2
  8
0
 10
3638.5352342781798143
 20
334.1755104304122028
 30
0.0
 11
3638.5352342781798143
 21
332.0075072684120983
 31
0.0
  0
LINE
  5
A9C3
  8
0
 10
3638.5352342781798143
 20
326.3965258659122242
 30
0.0
 11
3638.5352342781798143
 21
331.3818141398600119
 31
0.0
  0
ARC
  5
A9C4
  8
0
 10
3639.2902837068800181
 20
326.1165258659121946
 30
0.0
 40
0.6899999999999999
 50
213.0557311509037959
 51
237.6355450513962921
  0
ARC
  5
A9C5
  8
0
 10
3638.7389217567788364
 20
325.2465258659121901
 30
0.0
 40
0.34
 50
334.6230664749058974
 51
57.6355502134939002
  0
ARC
  5
A9C6
  8
0
 10
3638.9215019285788912
 20
325.8765258659121855
 30
0.0
 40
0.25
 50
139.0243896572912092
 51
213.0557311508044052
  0
ARC
  5
A9C7
  8
0
 10
3638.5536608849802178
 20
326.256525865912181
 30
0.0
 40
0.14
 50
337.8658703079019006
 51
90.0
  0
ARC
  5
A9C8
  8
0
 10
3639.0592342781801563
 20
324.8965258659122242
 30
0.0
 40
0.1
 50
0.0
 51
70.8118635463102919
  0
ARC
  5
A9C9
  8
0
 10
3639.1183950759800609
 20
325.0665258659121832
 30
0.0
 40
0.08
 50
154.623066474696401
 51
250.8118635462010957
  0
ARC
  5
A9CA
  8
0
 10
3638.7389217567788364
 20
326.181170644612223
 30
0.0
 40
0.06
 50
157.8658703086975947
 51
245.4990779165906929
  0
ARC
  5
A9CB
  8
0
 10
3638.6912303497801986
 20
326.0765258659121741
 30
0.0
 40
0.055
 50
319.024389657798622
 51
65.4990779161025358
  0
ARC
  5
A9CC
  8
0
 10
3639.1192342781801017
 20
324.8365258659122219
 30
0.0
 40
0.04
 50
269.9999748342870021
 51
0.0
  0
ARC
  5
A9CD
  8
0
 10
3638.0042342781789557
 20
334.1765258659121969
 30
0.0
 40
0.5310000000000001
 50
0.0
 51
90.0
  0
LINE
  5
A9CE
  8
0
 10
3643.2050113736800085
 20
324.7965258659122014
 30
0.0
 11
3640.8034571827788568
 21
324.7965258659122014
 31
0.0
  0
ARC
  5
A9CF
  8
0
 10
3640.8034571827788568
 20
324.8359062521611236
 30
0.0
 40
0.0393803862489377
 50
180.0149966362602925
 51
270.0
  0
LINE
  5
A9D0
  8
0
 10
3640.7640767978800795
 20
324.8358959447122061
 30
0.0
 11
3640.7640767978800795
 21
324.8989616001068157
 31
0.0
  0
ARC
  5
A9D1
  8
0
 10
3640.8624481108058717
 20
324.8989419674848023
 30
0.0
 40
0.0983713148850528
 50
89.9686156607192657
 51
179.9885650976164868
  0
LINE
  5
A9D2
  8
0
 10
3640.8625019946798602
 20
324.997313267612185
 30
0.0
 11
3643.1459665617799146
 21
324.997313267612185
 31
0.0
  0
ARC
  5
A9D3
  8
0
 10
3640.8802185302220096
 20
325.3358959445706091
 30
0.0
 40
0.3385826770584159
 50
269.9999999929651153
 51
0.0000000239576681
  0
LINE
  5
A9D4
  8
0
 10
3641.2188012072801939
 20
325.3358959447122061
 30
0.0
 11
3641.2188012070741934
 21
325.8284853445122167
 31
0.0
  0
LINE
  5
A9D5
  8
0
 10
3643.0749347363789639
 20
325.8284853445122167
 30
0.0
 11
3640.9335338199798571
 21
325.8284853445122167
 31
0.0
  0
ARC
  5
A9D6
  8
0
 10
3640.9335338199798571
 20
325.8584853445121894
 30
0.0
 40
0.0300000000000031
 50
215.3209208651040001
 51
270.0
  0
ARC
  5
A9D7
  8
0
 10
3641.6492485547478282
 20
326.3656320722905093
 30
0.0
 40
0.9071803606219715
 50
206.7712376089093027
 51
215.3209208651040001
  0
ARC
  5
A9D8
  8
0
 10
3641.0867240942170611
 20
326.0818348716376249
 30
0.0
 40
0.2771211413466659
 50
185.745752971123494
 51
206.7712376089093027
  0
ARC
  5
A9D9
  8
0
 10
3641.0867240942170611
 20
326.0818348716376249
 30
0.0
 40
0.2771211413466659
 50
133.3554224694408106
 51
174.254247028876506
  0
ARC
  5
A9DA
  8
0
 10
3642.0219548017848865
 20
324.9448171493144173
 30
0.0
 40
1.748807795753184
 50
117.1266396979503952
 51
130.0585536265604958
  0
ARC
  5
A9DB
  8
0
 10
3641.1300157148320977
 20
326.7153408651071231
 30
0.0
 40
0.2340346885045233
 50
293.8297708550693983
 51
344.5648553954263207
  0
ARC
  5
A9DC
  8
0
 10
3641.1987649734419392
 20
326.6829382098233054
 30
0.0
 40
0.1596661087827182
 50
349.2121900751265002
 51
48.8433224382563935
  0
ARC
  5
A9DD
  8
0
 10
3641.3564104089350622
 20
326.8914927941473252
 30
0.0
 40
0.1027964992152258
 50
186.2978009071512986
 51
239.2456028800274908
  0
ARC
  5
A9DE
  8
0
 10
3641.3165441153610118
 20
326.8802714041747777
 30
0.0
 40
0.062309870147462
 50
89.8251298875404984
 51
180.0505662307585055
  0
LINE
  5
A9DF
  8
0
 10
3641.3167342884798927
 20
326.9425809841122259
 30
0.0
 11
3642.6917342678789282
 21
326.9425809841122259
 31
0.0
  0
ARC
  5
A9E0
  8
0
 10
3641.4560234237787881
 20
327.0670909614121911
 30
0.0
 40
0.1598204623999997
 50
92.4748366065941667
 51
231.1747320683087139
  0
LINE
  5
A9E1
  8
0
 10
3641.4491222775859569
 20
327.2267623564176233
 30
0.0
 11
3642.5309178685802181
 21
327.2274171199122179
 31
0.0
  0
LINE
  5
A9E2
  8
0
 10
3641.4491222775859569
 20
327.2267623564176233
 30
0.0
 11
3641.4491161679789002
 21
327.2662835336121816
 31
0.0
  0
LINE
  5
A9E3
  8
0
 10
3641.4491161679789002
 20
327.2662835336121816
 30
0.0
 11
3642.5593523883799207
 21
327.2662835336121816
 31
0.0
  0
LINE
  5
A9E4
  8
0
 10
3641.4924232545790801
 20
327.2662835336121816
 30
0.0
 11
3641.4924232545790801
 21
327.2714016438122258
 31
0.0
  0
LINE
  5
A9E5
  8
0
 10
3642.5594340921797993
 20
327.2714016438122258
 30
0.0
 11
3641.4490344641799311
 21
327.2714016438122258
 31
0.0
  0
ARC
  5
A9E6
  8
0
 10
3641.4490344641799311
 20
327.2910866832121997
 30
0.0
 40
0.0196850393999997
 50
179.9999999999934914
 51
270.0
  0
ARC
  5
A9E7
  8
0
 10
3641.6295612810267812
 20
327.2705711665092281
 30
0.0
 40
0.2012602141691901
 50
134.7397797240269028
 51
174.1493764518274929
  0
ARC
  5
A9E8
  8
0
 10
3641.8898766214988427
 20
326.8984856686947751
 30
0.0
 40
0.6533429689489419
 50
104.9650232297059063
 51
127.9712821747214946
  0
ARC
  5
A9E9
  8
0
 10
3642.0036269959277888
 20
326.5946217059428136
 30
0.0
 40
0.9767803166486757
 50
89.9643781570269994
 51
106.8087087205277044
  0
ARC
  5
A9EA
  8
0
 10
3643.2050113736800085
 20
324.8359062521611236
 30
0.0
 40
0.0393803862489377
 50
270.0
 51
359.9850033637396223
  0
LINE
  5
A9EB
  8
0
 10
3643.2443917585787858
 20
324.8358959447122061
 30
0.0
 11
3643.2444082461811377
 21
324.8988880685545269
 31
0.0
  0
ARC
  5
A9EC
  8
0
 10
3643.146008796570186
 20
324.8989138236938174
 30
0.0
 40
0.098399452982309
 50
359.9850033637396223
 51
90.0245923652293101
  0
ARC
  5
A9ED
  8
0
 10
3643.12825002623822
 20
325.3358959445706091
 30
0.0
 40
0.3385826770584159
 50
179.9999999760422895
 51
270.0000000070348847
  0
LINE
  5
A9EE
  8
0
 10
3642.7896673491791262
 20
325.3358959447122061
 30
0.0
 11
3642.7896673493860362
 21
325.8284853445122167
 31
0.0
  0
ARC
  5
A9EF
  8
0
 10
3643.0749347364799178
 20
325.8584853445121894
 30
0.0
 40
0.0300000000000031
 50
270.0
 51
324.6790791348960283
  0
ARC
  5
A9F0
  8
0
 10
3642.3592200017110372
 20
326.3656320722905093
 30
0.0
 40
0.9071803606219715
 50
324.6790791348960283
 51
333.2287623910905836
  0
ARC
  5
A9F1
  8
0
 10
3642.9217444622418043
 20
326.0818348716376249
 30
0.0
 40
0.2771211413466659
 50
333.2287623910905836
 51
46.6445775305591113
  0
ARC
  5
A9F2
  8
0
 10
3641.9865137546739788
 20
324.9448171493144173
 30
0.0
 40
1.748807795753184
 50
49.9414463734394403
 51
62.8733603020495835
  0
ARC
  5
A9F3
  8
0
 10
3642.8784528416272224
 20
326.7153408651071231
 30
0.0
 40
0.2340346885045233
 50
195.4351446045737077
 51
246.1702291449306017
  0
ARC
  5
A9F4
  8
0
 10
3642.8097035830178356
 20
326.6829382098233054
 30
0.0
 40
0.1596661087827182
 50
131.1566775617436065
 51
190.7878099248734998
  0
ARC
  5
A9F5
  8
0
 10
3642.5470091582369605
 20
326.9839189910061918
 30
0.0
 40
0.2398308869810055
 50
311.0860586050018242
 51
327.1354970151384123
  0
ARC
  5
A9F6
  8
0
 10
3642.6918756398767982
 20
326.8801530193015878
 30
0.0
 40
0.0624281248829922
 50
335.0040576209368055
 51
90.1297495324526921
  0
LINE
  5
A9F7
  8
0
 10
3642.559346859553898
 20
327.2305186009190265
 30
0.0
 11
3642.5593523884799652
 21
327.2662835336121816
 31
0.0
  0
LINE
  5
A9F8
  8
0
 10
3642.5160453018797853
 20
327.2662835336121816
 30
0.0
 11
3642.5160453018797853
 21
327.2714016438122258
 31
0.0
  0
ARC
  5
A9F9
  8
0
 10
3642.5594340922789343
 20
327.2910866832121997
 30
0.0
 40
0.019685039400001
 50
270.0
 51
6.6392295638921217
  0
ARC
  5
A9FA
  8
0
 10
3642.3780764450370953
 20
327.2699770422731262
 30
0.0
 40
0.2022671117781657
 50
6.6392295638921217
 51
45.2115120764366409
  0
ARC
  5
A9FB
  8
0
 10
3642.1185919349609321
 20
326.8984856686947751
 30
0.0
 40
0.6533429689489419
 50
52.0287178252784983
 51
75.0349767702940511
  0
ARC
  5
A9FC
  8
0
 10
3642.0048415605310765
 20
326.5946217059428136
 30
0.0
 40
0.9767803166486757
 50
73.1912912794722388
 51
90.0356218429730291
  0
ARC
  5
A9FD
  8
0
 10
3642.4857069775098353
 20
327.7736765896769953
 30
0.0
 40
0.5481272051075626
 50
274.7312731067978007
 51
302.5284563123240105
  0
ARC
  5
A9FE
  8
0
 10
3646.2166474916912193
 20
321.1039983485027278
 30
0.0
 40
7.095140920262069
 50
112.3349436491100022
 51
118.9668574528345033
  0
ARC
  5
A9FF
  8
0
 10
3645.637441445013792
 20
322.5526369206318122
 30
0.0
 40
5.5350915217412471
 50
105.747100868086207
 51
112.4877220383113041
  0
ARC
  5
AA00
  8
0
 10
3644.5839930921961241
 20
326.0582863192678928
 30
0.0
 40
1.8761571115974189
 50
80.9454806952197146
 51
103.8378515526825936
  0
ARC
  5
AA01
  8
0
 10
3644.7326030157041714
 20
326.9858388403591221
 30
0.0
 40
0.9367757439894052
 50
46.6207931859838922
 51
80.9935085200806526
  0
ARC
  5
AA02
  8
0
 10
3645.1420721273270829
 20
327.4264139492063919
 30
0.0
 40
0.3353591272965011
 50
14.7435353749320797
 51
45.7689945382310697
  0
ARC
  5
AA03
  8
0
 10
3645.3127331963719371
 20
327.4959374313270928
 30
0.0
 40
0.1544687971211455
 50
340.6218011215610204
 51
5.8794066684121216
  0
ARC
  5
AA04
  8
0
 10
3645.3981397844081584
 20
327.466163851880026
 30
0.0
 40
0.0640221330474718
 50
272.4806886643642088
 51
340.3969753844522756
  0
ARC
  5
AA05
  8
0
 10
3645.374223063368845
 20
328.0978661139898236
 30
0.0
 40
0.6961761210353719
 50
258.4294000593133092
 51
272.1969603060613849
  0
ARC
  5
AA06
  8
0
 10
3656.1151394798230285
 20
388.2337169095458194
 30
0.0
 40
61.7835000071775227
 50
259.4489222213073845
 51
259.8568722463280096
  0
ARC
  5
AA07
  8
0
 10
3644.4477496469748985
 20
325.4935867768215871
 30
0.0
 40
2.0323456263920701
 50
79.9663207084025629
 51
92.349726407247104
  0
ARC
  5
AA08
  8
0
 10
3644.5652863780051121
 20
324.6290093465045175
 30
0.0
 40
2.902173417525554
 50
93.9686408411445342
 51
110.7701047803073067
  0
ARC
  5
AA09
  8
0
 10
3644.5887635178260098
 20
324.2926808489360155
 30
0.0
 40
3.2264376436213249
 50
109.0416636462251034
 51
120.4508788002054018
  0
ARC
  5
AA0A
  8
0
 10
3636.2512987684158361
 20
337.7037259871685251
 30
0.0
 40
12.5662396389907798
 50
301.4735336940801744
 51
302.232641682227495
  0
ARC
  5
AA0B
  8
0
 10
3642.6159809170321751
 20
327.3398025698569995
 30
0.0
 40
0.4043804623672517
 50
280.7971163423883922
 51
299.0263299059479891
  0
ARC
  5
AA0C
  8
0
 10
3638.0092849008160556
 20
331.1220009416625771
 30
0.0
 40
1.0406426027896289
 50
69.095979549864623
 51
90.2780786566522835
  0
ARC
  5
AA0D
  8
0
 10
3638.162980928198067
 20
331.5244063215275787
 30
0.0
 40
0.6098844820567786
 50
52.3839571982075469
 51
69.095979549864623
  0
ARC
  5
AA0E
  8
0
 10
3638.3201093753878013
 20
331.6897899532737028
 30
0.0
 40
0.3836965156731086
 50
0.5023854633518806
 51
55.8982554454628584
  0
ARC
  5
AA0F
  8
0
 10
3638.3007246732381645
 20
331.7100733004745052
 30
0.0
 40
0.4034214066422802
 50
305.5421591342026773
 51
357.5963756816789783
  0
ARC
  5
AA10
  8
0
 10
3638.0861485560949404
 20
332.0029014942222148
 30
0.0
 40
0.7664381824575873
 50
281.161532359443413
 51
305.8693261036621038
  0
ARC
  5
AA11
  8
0
 10
3638.0060144712429064
 20
332.3228836010545137
 30
0.0
 40
1.0960068453857339
 50
269.9069370830015941
 51
282.0334190119812092
  0
ARC
  5
AA12
  8
0
 10
3638.0183082527742044
 20
331.0353055596597756
 30
0.0
 40
0.7439445088975746
 50
66.6650872726136186
 51
91.0839887152901042
  0
ARC
  5
AA13
  8
0
 10
3638.1742067566688092
 20
331.396691523667414
 30
0.0
 40
0.350365852846788
 50
42.6814849830350909
 51
66.6650872726136186
  0
ARC
  5
AA14
  8
0
 10
3638.3185843768328596
 20
331.5335820677302081
 30
0.0
 40
0.1514529454789396
 50
8.1002741657162822
 51
41.6387870564703491
  0
ARC
  5
AA15
  8
0
 10
3638.2969671702599044
 20
331.5675049843076749
 30
0.0
 40
0.1720198828117802
 50
306.9851150479734088
 51
355.8053881726643795
  0
ARC
  5
AA16
  8
0
 10
3638.0830844676279412
 20
331.8397189099595721
 30
0.0
 40
0.5181839800523476
 50
279.769013187714279
 51
307.7681775149383157
  0
ARC
  5
AA17
  8
0
 10
3638.0057347617212145
 20
332.153865548219926
 30
0.0
 40
0.8412122949268225
 50
269.8978005668096785
 51
281.3306370264369889
  0
LINE
  5
AA18
  8
0
 10
3640.8109952255799726
 20
326.1095786633948137
 30
0.0
 11
3640.8109952255799726
 21
326.054091079880493
 31
0.0
  0
LINE
  5
AA1A
  8
0
 10
3637.29442927279797
 20
326.1265733687959028
 30
0.0
 11
3638.7140392835531202
 21
326.1265733687483248
 31
0.0
  0
LINE
  5
AA1B
  8
0
 10
3636.9163671682917993
 20
324.9909703103523952
 30
0.0
 11
3639.092101388086121
 21
324.9909703103567153
 31
0.0
  0
ARC
  5
AA1C
  8
0
 10
3638.0084628768568109
 20
332.0295034264850074
 30
0.0
 40
0.7004305568143172
 50
229.6884001063307892
 51
308.7615816615273729
  0
ENDSEC
  0
EOF
