  0
SECTION
  2
HEADER
  9
$ACADVER
  1
AC1009
  9
$INSBASE
 10
3637.5669096490428274
 20
226.5367903129885008
 30
0.0
  9
$EXTMIN
 10
3607.5669096490428274
 20
205.4100455267123095
 30
0.0
  9
$EXTMAX
 10
3667.5669096490428274
 20
247.663445526957787
 30
0.0
  9
$LIMMIN
 10
0.0
 20
0.0
  9
$LIMMAX
 10
11.6929133858000007
 20
8.2677165353999982
  9
$ORTHOMODE
 70
     1
  9
$REGENMODE
 70
     1
  9
$FILLMODE
 70
     1
  9
$QTEXTMODE
 70
     0
  9
$MIRRTEXT
 70
     0
  9
$DRAGMODE
 70
     2
  9
$LTSCALE
 40
0.6431102362
  9
$OSMODE
 70
  4095
  9
$ATTMODE
 70
     1
  9
$TEXTSIZE
 40
0.2
  9
$TRACEWID
 40
0.05
  9
$TEXTSTYLE
  7
STANDARD
  9
$CLAYER
  8
0
  9
$CELTYPE
  6
BYLAYER
  9
$CECOLOR
 62
   256
  9
$DIMSCALE
 40
1.0
  9
$DIMASZ
 40
0.1875
  9
$DIMEXO
 40
0.0625
  9
$DIMDLI
 40
0.4443307087
  9
$DIMRND
 40
0.0
  9
$DIMDLE
 40
0.0
  9
$DIMEXE
 40
0.125
  9
$DIMTP
 40
0.01
  9
$DIMTM
 40
0.01
  9
$DIMTXT
 40
2.0
  9
$DIMCEN
 40
0.1052362205
  9
$DIMTSZ
 40
0.0
  9
$DIMTOL
 70
     1
  9
$DIMLIM
 70
     0
  9
$DIMTIH
 70
     1
  9
$DIMTOH
 70
     1
  9
$DIMSE1
 70
     0
  9
$DIMSE2
 70
     0
  9
$DIMTAD
 70
     0
  9
$DIMZIN
 70
     0
  9
$DIMBLK
  1

  9
$DIMASO
 70
     1
  9
$DIMSHO
 70
     1
  9
$DIMPOST
  1
\X
  9
$DIMAPOST
  1

  9
$DIMALT
 70
     1
  9
$DIMALTD
 70
     2
  9
$DIMALTF
 40
25.3999999999999986
  9
$DIMLFAC
 40
1.0
  9
$DIMTOFL
 70
     0
  9
$DIMTVP
 40
0.0
  9
$DIMTIX
 70
     0
  9
$DIMSOXD
 70
     0
  9
$DIMSAH
 70
     0
  9
$DIMBLK1
  1

  9
$DIMBLK2
  1

  9
$DIMSTYLE
  2
STANDARD
  9
$DIMCLRD
 70
     0
  9
$DIMCLRE
 70
     0
  9
$DIMCLRT
 70
     0
  9
$DIMTFAC
 40
1.0
  9
$DIMGAP
 40
0.09
  9
$LUNITS
 70
     2
  9
$LUPREC
 70
     4
  9
$SKETCHINC
 40
0.1
  9
$FILLETRAD
 40
0.0
  9
$AUNITS
 70
     0
  9
$AUPREC
 70
     0
  9
$MENU
  1
.
  9
$ELEVATION
 40
0.0
  9
$PELEVATION
 40
0.0
  9
$THICKNESS
 40
0.0
  9
$LIMCHECK
 70
     0
  9
$BLIPMODE
 70
     0
  9
$CHAMFERA
 40
0.0
  9
$CHAMFERB
 40
0.0
  9
$SKPOLY
 70
     0
  9
$TDCREATE
 40
2458060.468368056230247
  9
$TDUPDATE
 40
2459777.7343402779661119
  9
$TDINDWG
 40
0.5928427083
  9
$TDUSRTIMER
 40
0.5928427083
  9
$USRTIMER
 70
     1
  9
$ANGBASE
 50
0.0
  9
$ANGDIR
 70
     0
  9
$PDMODE
 70
     0
  9
$PDSIZE
 40
0.3125
  9
$PLINEWID
 40
0.0
  9
$COORDS
 70
     1
  9
$SPLFRAME
 70
     0
  9
$SPLINETYPE
 70
     6
  9
$SPLINESEGS
 70
     8
  9
$ATTDIA
 70
     1
  9
$ATTREQ
 70
     1
  9
$HANDLING
 70
     1
  9
$HANDSEED
  5
145DA
  9
$SURFTAB1
 70
     6
  9
$SURFTAB2
 70
     6
  9
$SURFTYPE
 70
     6
  9
$SURFU
 70
     6
  9
$SURFV
 70
     6
  9
$UCSNAME
  2

  9
$UCSORG
 10
0.0
 20
0.0
 30
0.0
  9
$UCSXDIR
 10
1.0
 20
0.0
 30
0.0
  9
$UCSYDIR
 10
0.0
 20
1.0
 30
0.0
  9
$PUCSNAME
  2

  9
$PUCSORG
 10
0.0
 20
0.0
 30
0.0
  9
$PUCSXDIR
 10
1.0
 20
0.0
 30
0.0
  9
$PUCSYDIR
 10
0.0
 20
1.0
 30
0.0
  9
$USERI1
 70
     0
  9
$USERI2
 70
     0
  9
$USERI3
 70
     0
  9
$USERI4
 70
     0
  9
$USERI5
 70
     0
  9
$USERR1
 40
0.0
  9
$USERR2
 40
0.0
  9
$USERR3
 40
0.0
  9
$USERR4
 40
0.0
  9
$USERR5
 40
0.0
  9
$WORLDVIEW
 70
     1
  9
$SHADEDGE
 70
     3
  9
$SHADEDIF
 70
    70
  9
$TILEMODE
 70
     1
  9
$MAXACTVP
 70
    64
  9
$PLIMCHECK
 70
     0
  9
$PEXTMIN
 10
1.0000000000000000E+20
 20
1.0000000000000000E+20
 30
1.0000000000000000E+20
  9
$PEXTMAX
 10
-1.0000000000000000E+20
 20
-1.0000000000000000E+20
 30
-1.0000000000000000E+20
  9
$PLIMMIN
 10
0.0
 20
0.0
  9
$PLIMMAX
 10
12.0
 20
9.0
  9
$UNITMODE
 70
     0
  9
$VISRETAIN
 70
     1
  9
$PLINEGEN
 70
     0
  9
$PSLTSCALE
 70
     1
  0
ENDSEC
  0
SECTION
  2
TABLES
  0
TABLE
  2
VPORT
 70
     1
  0
VPORT
  2
*ACTIVE
 70
     0
 10
0.0
 20
0.0
 11
1.0
 21
1.0
 12
0.0
 22
0.0
 13
0.0
 23
0.0
 14
1.0
 24
1.0
 15
0.0
 25
0.0
 16
0.0
 26
0.0
 36
210.853297592553389
 17
3637.5672607421879547
 27
226.5367431640625
 37
0.0
 40
73.3825268020518564
 41
2.156179775280898
 42
50.0
 43
0.0
 44
0.0
 50
0.0
 51
0.0
 71
     0
 72
   100
 73
     1
 74
     1
 75
     0
 76
     0
 77
     0
 78
     0
  0
ENDTAB
  0
TABLE
  2
LTYPE
 70
     2
  0
LTYPE
  2
CONTINUOUS
 70
     0
  3
Solid line
 72
    65
 73
     0
 40
0.0
  0
LTYPE
  2
PHANTOM2
 70
     0
  3
___ _ _ ___ _ _ ___ _ _ ___ _ _
 72
    65
 73
     6
 40
1.25
 49
0.625
 49
-0.125
 49
0.125
 49
-0.125
 49
0.125
 49
-0.125
  0
ENDTAB
  0
TABLE
  2
LAYER
 70
     2
  0
LAYER
  2
0
 70
     0
 62
   255
  6
CONTINUOUS
  0
LAYER
  2
DEFPOINTS
 70
     0
 62
     7
  6
CONTINUOUS
  0
ENDTAB
  0
TABLE
  2
STYLE
 70
     1
  0
STYLE
  2
STANDARD
 70
     0
 40
0.0
 41
0.8
 50
0.0
 71
     0
 42
0.2
  3
txt
  4

  0
ENDTAB
  0
TABLE
  2
VIEW
 70
     0
  0
ENDTAB
  0
TABLE
  2
UCS
 70
     0
  0
ENDTAB
  0
TABLE
  2
APPID
 70
     9
  0
APPID
  2
ACAD
 70
     0
  0
APPID
  2
ACAD_MLEADERVER
 70
     0
  0
APPID
  2
ACAD_EXEMPT_FROM_CAD_STANDARDS
 70
     0
  0
APPID
  2
ACAD_NAV_VCDISPLAY
 70
     0
  0
APPID
  2
ACAECLAYERSTANDARD
 70
     0
  0
APPID
  2
ACCMTRANSPARENCY
 70
     0
  0
APPID
  2
ACAD_DSTYLE_DIMJAG
 70
     0
  0
APPID
  2
ACAD_DSTYLE_DIMTALN
 70
     0
  0
APPID
  2
ACDBATTR
 70
     0
  0
ENDTAB
  0
TABLE
  2
DIMSTYLE
 70
     1
  0
DIMSTYLE
  2
STANDARD
 70
     0
  3

  4

  5

  6

  7

 40
1.0
 41
0.1875
 42
0.0625
 43
0.38
 44
0.125
 45
0.0
 46
0.0
 47
0.01
 48
0.01
140
0.15625
141
0.09
142
0.0
143
25.3999999999999986
144
1.0
145
0.0
146
1.0
147
0.09
 71
     1
 72
     0
 73
     1
 74
     1
 75
     0
 76
     0
 77
     0
 78
     4
170
     0
171
     2
172
     0
173
     0
174
     0
175
     0
176
     0
177
     0
178
     0
  0
ENDTAB
  0
ENDSEC
  0
SECTION
  2
BLOCKS
  0
BLOCK
  8
0
  2
$MODEL_SPACE
 70
     0
 10
0.0
 20
0.0
 30
0.0
  3
$MODEL_SPACE
  1

  0
ENDBLK
  5
21
  8
0
  0
BLOCK
 67
     1
  8
0
  2
$PAPER_SPACE
 70
     0
 10
0.0
 20
0.0
 30
0.0
  3
$PAPER_SPACE
  1

  0
ENDBLK
  5
1D
 67
     1
  8
0
  0
ENDSEC
  0
SECTION
  2
ENTITIES
  0
ATTDEF
  5
12BEB
  8
DEFPOINTS
 10
3637.5624641247982254
 20
226.5411471317815142
 30
0.0
 40
0.001
  1
K-1337T-G1
  3

  2
MODELNUMBER
 70
     0
1001
ACDBATTR
1070
     0
1070
     1
  0
ATTDEF
  5
12BEC
  8
DEFPOINTS
 10
3637.5624641247982254
 20
226.5394804651147922
 30
0.0
 40
0.001
  1
SERIF
  3

  2
TRADENAME
 70
     0
1001
ACDBATTR
1070
     0
1070
     1
  0
ATTDEF
  5
12BED
  8
DEFPOINTS
 10
3637.5624641247982254
 20
226.5378137984482123
 30
0.0
 40
0.001
  1
BATH
  3

  2
PRODUCT
 70
     0
1001
ACDBATTR
1070
     0
1070
     1
  0
CIRCLE
  5
143FD
  8
0
 10
3656.5669096490419179
 20
226.5367903129885008
 30
0.0
 40
1.0236220471999991
  0
CIRCLE
  5
143FE
  8
0
 10
3656.5669096490419179
 20
226.5367903129885008
 30
0.0
 40
1.4199999999999979
  0
ARC
  5
143FF
  8
0
 10
3662.7813355395919643
 20
226.5365307374659096
 30
0.0
 40
1.1323536040022311
 50
350.0020997716475222
 51
10.0243069276878405
  0
ARC
  5
14400
  8
0
 10
3665.0227663926029891
 20
226.5370472571113112
 30
0.0
 40
1.1433905921305101
 50
170.0997164813759923
 51
189.9266902177587042
  0
ARC
  5
14401
  8
0
 10
3648.8352831066390536
 20
225.8107879182813065
 30
0.0
 40
18.9389768454251488
 50
19.4031171640688811
 51
52.8059938563888807
  0
ARC
  5
14402
  8
0
 10
3641.4370593180810829
 20
215.6450298477872991
 30
0.0
 40
31.5103008523235317
 50
53.2641910095009621
 51
76.5500534804557446
  0
ARC
  5
14403
  8
0
 10
3635.2602773802468619
 20
211.9143356327656988
 30
0.0
 40
35.5123088638955835
 50
99.1884648747156206
 51
121.1613057886951026
  0
ARC
  5
14404
  8
0
 10
3627.3472575206192232
 20
224.8878331163778057
 30
0.0
 40
20.3162038172084394
 50
120.9972970465618971
 51
152.3540026043700095
  0
ARC
  5
14405
  8
0
 10
3624.3888684225871657
 20
226.8249241258936877
 30
0.0
 40
16.8002518506496088
 50
153.5246114784791018
 51
169.8829709433113919
  0
ARC
  5
14406
  8
0
 10
3663.8805462403761339
 20
228.8990459134247999
 30
0.0
 40
0.0250068579293245
 50
15.3542396840342406
 51
156.4524093126422883
  0
ARC
  5
14407
  8
0
 10
3665.6021215740329353
 20
228.3340199975556004
 30
0.0
 40
1.836824313183949
 50
161.7569128013030024
 51
176.4824248348380138
  0
ARC
  5
14408
  8
0
 10
3662.0280253046548751
 20
228.2988835389421922
 30
0.0
 40
1.9722947070021259
 50
3.5259808023689718
 51
17.9178906685278392
  0
ARC
  5
14409
  8
0
 10
3647.8811531855499197
 20
225.8559850233114901
 30
0.0
 40
14.7797597280312303
 50
20.1537758490376291
 51
56.9374160998772822
  0
ARC
  5
1440A
  8
0
 10
3639.5110314142721109
 20
214.2901360491962066
 30
0.0
 40
29.0477267192204707
 50
55.5467138075914093
 51
73.0442319157434952
  0
ARC
  5
1440B
  8
0
 10
3638.2705852282560954
 20
210.6102335092737974
 30
0.0
 40
32.929615102023341
 50
72.8470226807480259
 51
85.3960042537498367
  0
ARC
  5
1440C
  8
0
 10
3638.2287673069617995
 20
210.6200397423367008
 30
0.0
 40
32.9232245628336315
 50
85.3220941429638486
 51
96.1792138830876553
  0
ARC
  5
1440D
  8
0
 10
3638.0466037962119117
 20
212.1531532277610097
 30
0.0
 40
31.3794146261173701
 50
96.1498481759442711
 51
114.6710174062400966
  0
ARC
  5
1440E
  8
0
 10
3635.8076912872638786
 20
216.3352880899574018
 30
0.0
 40
26.6460546847904496
 50
114.0498205196555972
 51
132.56575047652629
  0
ARC
  5
1440F
  8
0
 10
3626.72699576364721
 20
226.2120090824492138
 30
0.0
 40
13.2293281590202998
 50
132.5355268134443918
 51
166.121309862583189
  0
ARC
  5
14410
  8
0
 10
3641.4746191242588793
 20
212.7095735274263859
 30
0.0
 40
30.008659631113229
 50
75.8930406008671241
 51
85.699765143974787
  0
ARC
  5
14411
  8
0
 10
3642.438716539465986
 20
222.8835477459385004
 30
0.0
 40
19.7920317142135396
 50
86.2744399140182878
 51
99.8540024475619248
  0
ARC
  5
14412
  8
0
 10
3651.150149534646971
 20
172.1473902109655967
 30
0.0
 40
71.2706094945827857
 50
99.773626085807777
 51
103.9423836959333016
  0
ARC
  5
14413
  8
0
 10
3601.0178852670251217
 20
381.6782951604646996
 30
0.0
 40
144.1779927096816039
 50
280.3070967178254023
 51
283.2149898221475155
  0
ARC
  5
14414
  8
0
 10
3630.7138568053451309
 20
217.9503362003501081
 30
0.0
 40
22.2213307777192703
 50
100.1056963190460039
 51
115.0091266288514049
  0
ARC
  5
14415
  8
0
 10
3629.820523565431813
 20
220.3457110476539071
 30
0.0
 40
19.6739256414155186
 50
115.6006197941724025
 51
128.7126960002451028
  0
ARC
  5
14416
  8
0
 10
3648.2979717874618473
 20
225.7620229374041116
 30
0.0
 40
10.8166413268536505
 50
17.9982893687374208
 51
49.6472464629197034
  0
ARC
  5
14417
  8
0
 10
3642.1348379323690096
 20
218.9425458681581915
 30
0.0
 40
20.0061316276222101
 50
48.841888473238761
 51
69.040621975448687
  0
ARC
  5
14418
  8
0
 10
3640.0842916290848734
 20
214.565016820479002
 30
0.0
 40
24.8299637643660382
 50
68.2352639857480341
 51
78.8220396079948245
  0
ARC
  5
14419
  8
0
 10
3642.6249812658847986
 20
227.1834453584781102
 30
0.0
 40
11.9584686147190293
 50
79.0439773953875431
 51
104.3687618060272939
  0
ARC
  5
1441A
  8
0
 10
3670.2914797597040888
 20
123.4251212172722063
 30
0.0
 40
119.3414934683926987
 50
104.8739301397763057
 51
107.7548727187100042
  0
ARC
  5
1441B
  8
0
 10
3607.3113691398489209
 20
339.3352420451864191
 30
0.0
 40
105.6529479869232944
 50
280.8472237417292945
 51
284.5751270228450949
  0
ARC
  5
1441C
  8
0
 10
3628.9006987436760028
 20
225.5251184439910048
 30
0.0
 40
10.1888419271417199
 50
99.6412364189509674
 51
140.2904313356409034
  0
ARC
  5
1441D
  8
0
 10
3648.8352831066390536
 20
227.2627927076956951
 30
0.0
 40
18.9389768454251488
 50
307.1940061436110909
 51
340.596882835931126
  0
ARC
  5
1441E
  8
0
 10
3641.4370593180810829
 20
237.4285507781895888
 30
0.0
 40
31.5103008523235317
 50
283.4499465195443122
 51
306.7358089904990948
  0
ARC
  5
1441F
  8
0
 10
3637.5715506619421831
 20
251.7530189487061989
 30
0.0
 40
46.3429734219939533
 50
260.0821027977061135
 51
283.9787127764835191
  0
ARC
  5
14420
  8
0
 10
3635.2602773802468619
 20
241.159244993211189
 30
0.0
 40
35.5123088638955835
 50
238.8386942113039879
 51
260.8115351252844221
  0
ARC
  5
14421
  8
0
 10
3627.3472575206192232
 20
228.1857475095991106
 30
0.0
 40
20.3162038172084394
 50
207.6459973956299052
 51
239.0027029534381029
  0
ARC
  5
14422
  8
0
 10
3624.3888684225871657
 20
226.2486565000832002
 30
0.0
 40
16.8002518506496088
 50
190.1170290566886081
 51
206.4753885215208982
  0
ARC
  5
14423
  8
0
 10
3663.8805462403761339
 20
224.174534712552088
 30
0.0
 40
0.0250068579293245
 50
203.5475906873562053
 51
344.6457603159657879
  0
ARC
  5
14424
  8
0
 10
3665.6021215740329353
 20
224.7395606284212874
 30
0.0
 40
1.836824313183949
 50
183.5175751651619009
 51
198.2430871986969123
  0
ARC
  5
14425
  8
0
 10
3662.0280253046548751
 20
224.7746970870348093
 30
0.0
 40
1.9722947070021259
 50
342.0821093314722248
 51
356.4740191976309802
  0
ARC
  5
14426
  8
0
 10
3647.8811531855499197
 20
227.2175956026653978
 30
0.0
 40
14.7797597280312303
 50
303.0625839001227178
 51
339.8462241509624278
  0
ARC
  5
14427
  8
0
 10
3639.5110314142721109
 20
238.7834445767807097
 30
0.0
 40
29.0477267192204707
 50
286.955768084231579
 51
304.4532861924075746
  0
ARC
  5
14428
  8
0
 10
3638.2705852282560954
 20
242.4633471167030905
 30
0.0
 40
32.929615102023341
 50
274.6039957462501775
 51
287.1529773192519883
  0
ARC
  5
14429
  8
0
 10
3638.2287673069617995
 20
242.4535408836401871
 30
0.0
 40
32.9232245628336315
 50
263.8207861168864952
 51
274.6779058570360803
  0
ARC
  5
1442A
  8
0
 10
3638.0466037962119117
 20
240.9204273982159066
 30
0.0
 40
31.3794146261173701
 50
245.3289825937598891
 51
263.850151824055672
  0
ARC
  5
1442B
  8
0
 10
3635.8076912872638786
 20
236.7382925360194861
 30
0.0
 40
26.6460546847904496
 50
227.4342495234735964
 51
245.9501794803437065
  0
ARC
  5
1442C
  8
0
 10
3626.72699576364721
 20
226.8615715435277025
 30
0.0
 40
13.2293281590202998
 50
193.878690137416811
 51
227.4644731865556082
  0
ARC
  5
1442D
  8
0
 10
3641.4746191242588793
 20
240.364007098550502
 30
0.0
 40
30.008659631113229
 50
274.300234856025213
 51
284.1069593991329043
  0
ARC
  5
1442E
  8
0
 10
3642.438716539465986
 20
230.1900328800383875
 30
0.0
 40
19.7920317142135396
 50
260.1459975524380752
 51
273.7255600859817264
  0
ARC
  5
1442F
  8
0
 10
3651.150149534646971
 20
280.9261904150113196
 30
0.0
 40
71.2706094945827857
 50
256.0576163040665847
 51
260.2263739141922088
  0
ARC
  5
14430
  8
0
 10
3601.0178852670251217
 20
71.3952854655123019
 30
0.0
 40
144.1779927096816039
 50
76.7850101778525698
 51
79.6929032821743135
  0
ARC
  5
14431
  8
0
 10
3630.7138568053451309
 20
235.1232444256268082
 30
0.0
 40
22.2213307777192703
 50
244.9908733711486093
 51
259.8943036809540104
  0
ARC
  5
14432
  8
0
 10
3629.820523565431813
 20
232.7278695783230091
 30
0.0
 40
19.6739256414155186
 50
231.2873039997548972
 51
244.399380205827498
  0
ARC
  5
14433
  8
0
 10
3648.2979717874618473
 20
227.3115576885728046
 30
0.0
 40
10.8166413268536505
 50
310.3527535370802752
 51
342.001710631262597
  0
ARC
  5
14434
  8
0
 10
3642.1348379323690096
 20
234.13103475781881
 30
0.0
 40
20.0061316276222101
 50
290.959378024551313
 51
311.1581115267612745
  0
ARC
  5
14435
  8
0
 10
3640.0842916290848734
 20
238.5085638054979995
 30
0.0
 40
24.8299637643660382
 50
281.1779603919795818
 51
291.7647360142519801
  0
ARC
  5
14436
  8
0
 10
3642.6249812658847986
 20
225.8901352674988914
 30
0.0
 40
11.9584686147190293
 50
255.6312381939727061
 51
280.9560226046124853
  0
ARC
  5
14437
  8
0
 10
3670.2914797597040888
 20
329.6484594087046958
 30
0.0
 40
119.3414934683926987
 50
252.2451272812899106
 51
255.1260698602237085
  0
ARC
  5
14438
  8
0
 10
3607.3113691398489209
 20
113.7383385807905967
 30
0.0
 40
105.6529479869232944
 50
75.4248729771544362
 51
79.1527762582707197
  0
ARC
  5
14439
  8
0
 10
3628.9006987436760028
 20
227.5484621819859967
 30
0.0
 40
10.1888419271417199
 50
219.7095686643590966
 51
260.3587635810490042
  0
ARC
  5
1443A
  8
0
 10
3649.2945620011810206
 20
226.5367903129885008
 30
0.0
 40
18.2723476478613307
 50
342.2658850815602136
 51
17.7341149184398006
  0
ARC
  5
1443B
  8
0
 10
3638.4709777734419731
 20
226.5367903129885008
 30
0.0
 40
25.5949968538012911
 50
355.780112370505492
 51
4.2198876294945
  0
ARC
  5
1443C
  8
0
 10
3698.3268975080391101
 20
226.5367903129885008
 30
0.0
 40
34.6108775348971278
 50
176.8366476627585087
 51
183.1633523372414061
  0
ARC
  5
1443D
  8
0
 10
3647.913567881821109
 20
226.5367903129885008
 30
0.0
 40
14.5283416439211308
 50
342.3234667555431088
 51
17.6765332444568983
  0
ARC
  5
1443E
  8
0
 10
3650.075456503579062
 20
226.5367903129885008
 30
0.0
 40
8.8887228065633472
 50
343.2112580228842944
 51
16.7887419771156985
  0
ARC
  5
1443F
  8
0
 10
3626.7063505962901218
 20
226.5367903129885008
 30
0.0
 40
7.8791156681017753
 50
135.7503064437123896
 51
224.2496935562876104
  0
ARC
  5
14440
  8
0
 10
3626.5243030404571982
 20
226.5367903129885008
 30
0.0
 40
12.9573932046120106
 50
167.3006156399715962
 51
192.6993843600284038
  0
ARC
  5
14441
  8
0
 10
3626.2511801402661149
 20
226.5367903129885008
 30
0.0
 40
18.6842704912236997
 50
170.0162998706423139
 51
189.9837001293576009
  0
ARC
  5
14442
  8
0
 10
3661.3756466644058492
 20
226.5365622004354975
 30
0.0
 40
0.4253684312112337
 50
173.6254119593500036
 51
186.3119867767925086
  0
ARC
  5
14443
  8
0
 10
3660.5661062476410734
 20
226.5370044516685937
 30
0.0
 40
0.389621131347788
 50
353.0406911344867922
 51
6.8967076016563098
  0
ARC
  5
14444
  8
0
 10
3661.4569177957368993
 20
226.5366945559730141
 30
0.0
 40
0.4253684312112337
 50
173.6254119593500036
 51
186.3119867767925086
  0
ARC
  5
14445
  8
0
 10
3660.6473773789721236
 20
226.5371368072061102
 30
0.0
 40
0.389621131347788
 50
353.0406911344867922
 51
6.8967076016563098
  0
ARC
  5
14446
  8
0
 10
3661.2638504155897863
 20
228.0576546300218865
 30
0.0
 40
0.3721573654573365
 50
180.1250734304965988
 51
194.5968722782428131
  0
ARC
  5
14447
  8
0
 10
3660.557347445556843
 20
227.9663852254556957
 30
0.0
 40
0.346366924402228
 50
359.5830728382953225
 51
15.1388728704447999
  0
ARC
  5
14448
  8
0
 10
3660.3516273778777759
 20
229.3881144439428112
 30
0.0
 40
0.3158772334297049
 50
6.8219117782397669
 51
23.8475381152841095
  0
ARC
  5
14449
  8
0
 10
3660.9439195500499409
 20
229.5505331432071898
 30
0.0
 40
0.3053620244965121
 50
186.5264796107356062
 51
204.1429702809111006
  0
ARC
  5
1444A
  8
0
 10
3660.9632958886882079
 20
229.556724818956809
 30
0.0
 40
0.4103136008589548
 50
188.9113652581058886
 51
202.0256644519988924
  0
ARC
  5
1444B
  8
0
 10
3660.2328754105528787
 20
229.354593477037298
 30
0.0
 40
0.3533635229607221
 50
7.8487461259946576
 51
23.0882835841321992
  0
ARC
  5
1444C
  8
0
 10
3659.8177178831037963
 20
230.7229787435798869
 30
0.0
 40
0.3380694241495634
 50
15.1426037878680901
 51
31.0626579348945207
  0
ARC
  5
1444D
  8
0
 10
3660.4218785832008507
 20
230.980707909325389
 30
0.0
 40
0.3254099705867101
 50
194.8308061330947112
 51
211.374455589676586
  0
ARC
  5
1444E
  8
0
 10
3659.7653687975939647
 20
232.3504492077188957
 30
0.0
 40
0.3979717278145301
 50
203.4494648605198961
 51
216.9874214528429093
  0
ARC
  5
1444F
  8
0
 10
3659.1269636094179987
 20
231.978613354599787
 30
0.0
 40
0.3467878137611924
 50
22.4446305789018403
 51
37.9922557344373502
  0
ARC
  5
14450
  8
0
 10
3659.7766232739318184
 20
232.3572624251958985
 30
0.0
 40
0.323425110451816
 50
201.8809777205449052
 51
218.4902354461528091
  0
ARC
  5
14451
  8
0
 10
3659.2697379143169201
 20
232.0624185459163868
 30
0.0
 40
0.2704321522691771
 50
20.238477277944849
 51
40.1327358887576793
  0
ARC
  5
14452
  8
0
 10
3658.9342406767991633
 20
233.622849687825493
 30
0.0
 40
0.3754944804422525
 50
209.8677681432135103
 51
224.1626216140334975
  0
ARC
  5
14453
  8
0
 10
3658.4130095967529996
 20
233.2298571283266142
 30
0.0
 40
0.2840741117624973
 50
27.5490708590972702
 51
46.4813190398083123
  0
ARC
  5
14454
  8
0
 10
3657.9907133751189576
 20
234.808156227989997
 30
0.0
 40
0.4574426926731929
 50
216.7795555060997117
 51
228.5429814973853979
  0
ARC
  5
14455
  8
0
 10
3657.3959388646881052
 20
234.2600580656207967
 30
0.0
 40
0.3568643637489363
 50
35.113280540477831
 51
50.2092566035380798
  0
ARC
  5
14456
  8
0
 10
3657.9640140101078032
 20
234.7850633785004959
 30
0.0
 40
0.3390081694896561
 50
214.8487367581089131
 51
230.7019735021966937
  0
ARC
  5
14457
  8
0
 10
3657.513882610429846
 20
234.3685966308219122
 30
0.0
 40
0.2813814458757038
 50
33.2114544173153377
 51
52.3392559838493128
  0
ARC
  5
14458
  8
0
 10
3656.8973004075578501
 20
235.8535183047569888
 30
0.0
 40
0.4017068527556449
 50
221.1531888553406873
 51
234.5130666807704074
  0
ARC
  5
14459
  8
0
 10
3656.4114080986441877
 20
235.3170307170942976
 30
0.0
 40
0.3281803020375886
 50
39.6472854438829714
 51
56.0189702313849835
  0
ARC
  5
1445A
  8
0
 10
3655.7313140317160105
 20
236.8079146797977899
 30
0.0
 40
0.3530021579046236
 50
224.7773581729792909
 51
239.9848275232756976
  0
ARC
  5
1445B
  8
0
 10
3655.3378154828537845
 20
236.2972950529212994
 30
0.0
 40
0.2984298421119335
 50
43.376255490325299
 51
61.3859303426232401
  0
ARC
  5
1445C
  8
0
 10
3655.7470096054948954
 20
236.8275405432395075
 30
0.0
 40
0.4572679626512253
 50
226.4889803941973128
 51
238.2461744375086994
  0
ARC
  5
1445D
  8
0
 10
3655.2434948040699965
 20
236.1744780540597048
 30
0.0
 40
0.3727227599443421
 50
45.149096444906057
 51
59.5860585231354634
  0
ARC
  5
1445E
  8
0
 10
3654.5074144094842268
 20
237.6799625772461013
 30
0.0
 40
0.3998403009375939
 50
229.7373709114260123
 51
243.1496438629984027
  0
ARC
  5
1445F
  8
0
 10
3654.1083257225968737
 20
237.0782951156047886
 30
0.0
 40
0.3282275568061364
 50
48.2651208243838425
 51
64.621894083791716
  0
ARC
  5
14460
  8
0
 10
3653.2181189295779404
 20
238.447479169603497
 30
0.0
 40
0.3405496977850059
 50
232.2466085629768031
 51
248.0017718621353993
  0
ARC
  5
14461
  8
0
 10
3652.9063136604659121
 20
237.9047030223264017
 30
0.0
 40
0.2923756583224378
 50
50.9382166505476732
 51
69.3101639050735798
  0
ARC
  5
14462
  8
0
 10
3653.200888258060786
 20
238.4188095196226129
 30
0.0
 40
0.3918017902564294
 50
233.4615874800362008
 51
247.1821110923704907
  0
ARC
  5
14463
  8
0
 10
3652.840623815905019
 20
237.7866386843139992
 30
0.0
 40
0.3418417947968657
 50
52.4530250053416509
 51
68.1906736970327216
  0
ARC
  5
14464
  8
0
 10
3651.8713386274562254
 20
239.1041875865788882
 30
0.0
 40
0.3401339410341353
 50
235.8759283991186066
 51
251.6465911544831897
  0
ARC
  5
14465
  8
0
 10
3651.5893362804040407
 20
238.5320599811668956
 30
0.0
 40
0.3045306199219029
 50
54.9470893825580831
 51
72.5754302977805992
  0
ARC
  5
14466
  8
0
 10
3650.4644100377918221
 20
239.6249328465196982
 30
0.0
 40
0.2826717174372133
 50
238.5605764838861944
 51
257.1778080472415127
  0
ARC
  5
14467
  8
0
 10
3650.2354665864240815
 20
239.0619816699656042
 30
0.0
 40
0.3319393322538767
 50
59.9518482551176106
 51
75.7865364003866659
  0
ARC
  5
14468
  8
0
 10
3650.4744804078500238
 20
239.6466877599683869
 30
0.0
 40
0.2113360193886206
 50
235.3093185050325928
 51
260.124711673628326
  0
ARC
  5
14469
  8
0
 10
3650.2824922723048076
 20
239.178176057201199
 30
0.0
 40
0.3033407924994873
 50
59.1076801499789966
 51
76.3263501541261462
  0
ARC
  5
1446A
  8
0
 10
3649.0998036191599567
 20
240.2111278650116049
 30
0.0
 40
0.2917868119584486
 50
240.9624188640297007
 51
259.3575329268290943
  0
ARC
  5
1446B
  8
0
 10
3648.9106007603859325
 20
239.6867463348193041
 30
0.0
 40
0.2734422619781183
 50
60.3394620320192132
 51
79.9804898777780977
  0
ARC
  5
1446C
  8
0
 10
3647.6922666159612163
 20
240.7016587929117009
 30
0.0
 40
0.2659492385129254
 50
242.8912200008786897
 51
263.0863689264581922
  0
ARC
  5
1446D
  8
0
 10
3647.5441160026289253
 20
240.2174187095372133
 30
0.0
 40
0.2489715003101196
 50
62.1946617354161475
 51
83.7829273069448845
  0
ARC
  5
1446E
  8
0
 10
3647.649297466509779
 20
240.5763583462482984
 30
0.0
 40
0.2424852557896646
 50
243.1500981555527119
 51
264.9083528839259998
  0
ARC
  5
1446F
  8
0
 10
3647.5049816494388324
 20
240.0720986571880928
 30
0.0
 40
0.2900111232619001
 50
64.9495308871733528
 51
83.1089202679301451
  0
ARC
  5
14470
  8
0
 10
3646.2333214520731417
 20
241.0174704355765982
 30
0.0
 40
0.2479305978789066
 50
245.3792358373665934
 51
266.955185044719201
  0
ARC
  5
14471
  8
0
 10
3646.1137163177959337
 20
240.5317257540646949
 30
0.0
 40
0.2608653134914707
 50
65.9200792789787897
 51
86.4143417138494669
  0
ARC
  5
14472
  8
0
 10
3644.7508069869750216
 20
241.2359823811248134
 30
0.0
 40
0.2306744698974318
 50
249.9200933444911072
 51
272.9347956507594972
  0
ARC
  5
14473
  8
0
 10
3644.6761731221749869
 20
240.7408851152634099
 30
0.0
 40
0.2784818061334301
 50
71.9159004720054611
 51
90.9389886261197375
  0
ARC
  5
14474
  8
0
 10
3644.7769555552267775
 20
241.3804090342439963
 30
0.0
 40
0.2627623091666247
 50
250.581373905161513
 51
271.0133610776616138
  0
ARC
  5
14475
  8
0
 10
3644.6991737827938778
 20
240.9003096344144979
 30
0.0
 40
0.2324818170571677
 50
69.2334883320203289
 51
92.3612467534996568
  0
ARC
  5
14476
  8
0
 10
3643.2711402591148726
 20
241.4626413177203972
 30
0.0
 40
0.2355054191014869
 50
255.4388228683123998
 51
278.0131957678211734
  0
ARC
  5
14477
  8
0
 10
3643.242450940379058
 20
240.9611165503227994
 30
0.0
 40
0.2752809211529439
 50
77.0866434419823463
 51
96.3653752871546629
  0
ARC
  5
14478
  8
0
 10
3616.1262192723402222
 20
226.537601599398414
 30
0.0
 40
0.0645197537382099
 50
313.280902574058814
 51
46.7954800325986966
  0
ARC
  5
14479
  8
0
 10
3616.2170349747239015
 20
226.5376621338841971
 30
0.0
 40
0.0661955174103698
 50
134.8018973105266127
 51
225.2744852961436948
  0
ARC
  5
1447A
  8
0
 10
3615.7625090328920123
 20
226.5368575795920947
 30
0.0
 40
0.1329343402305171
 50
339.3276230139795757
 51
20.7349782498830884
  0
ARC
  5
1447B
  8
0
 10
3616.0813646379911006
 20
226.5370317701348029
 30
0.0
 40
0.2001032442661915
 50
166.4477302581123865
 51
193.614871005754793
  0
ARC
  5
1447C
  8
0
 10
3615.9782125925621585
 20
228.0475768068396007
 30
0.0
 40
0.1220298031231406
 50
329.6001554480117193
 51
14.6836205704621392
  0
ARC
  5
1447D
  8
0
 10
3616.2215455682307947
 20
228.013992869968888
 30
0.0
 40
0.1409240403864062
 50
152.7542155088301001
 51
191.5295605096422094
  0
ARC
  5
1447E
  8
0
 10
3616.470807014914044
 20
229.4762211134139136
 30
0.0
 40
0.154478766251829
 50
145.0846943185640896
 51
180.3183375778733932
  0
ARC
  5
1447F
  8
0
 10
3616.1674608874868682
 20
229.5706941062778128
 30
0.0
 40
0.1767774131108161
 50
327.3658403469408995
 51
358.037191551387707
  0
ARC
  5
14480
  8
0
 10
3616.5512312865139393
 20
229.4522036854843918
 30
0.0
 40
0.0643985897660543
 50
299.5602908013148067
 51
32.6637792210146287
  0
ARC
  5
14481
  8
0
 10
3616.6394925878121285
 20
229.4303808953901012
 30
0.0
 40
0.0660334980906241
 50
121.0379117241206046
 51
211.1861582982130869
  0
ARC
  5
14482
  8
0
 10
3617.0732721399990623
 20
230.8378189864997125
 30
0.0
 40
0.1495046930659823
 50
138.0765268284808087
 51
174.4246306159523101
  0
ARC
  5
14483
  8
0
 10
3616.8400332650148812
 20
230.9404437357497102
 30
0.0
 40
0.1220323734931194
 50
313.7854146075177937
 51
358.7157428368997785
  0
ARC
  5
14484
  8
0
 10
3617.7657732832199144
 20
232.1384579492429907
 30
0.0
 40
0.060461451321311
 50
280.3483908975017016
 51
21.2134695166077307
  0
ARC
  5
14485
  8
0
 10
3617.8476048638058273
 20
232.0926880748417886
 30
0.0
 40
0.0722824475088501
 50
110.6297230494920996
 51
190.9321373646446034
  0
ARC
  5
14486
  8
0
 10
3617.4210415986922271
 20
232.3555269546862121
 30
0.0
 40
0.1955850098037043
 50
313.652413051863789
 51
341.2539214188013261
  0
ARC
  5
14487
  8
0
 10
3617.730178076969878
 20
232.1582298749970903
 30
0.0
 40
0.1828448724860366
 50
132.6696567631298933
 51
162.2366777075463915
  0
ARC
  5
14488
  8
0
 10
3618.6009568077129188
 20
233.3557763307055097
 30
0.0
 40
0.1361666340070173
 50
121.2111408762442011
 51
161.2407454562502096
  0
ARC
  5
14489
  8
0
 10
3618.3914325724567789
 20
233.5240819973467126
 30
0.0
 40
0.1483206815414395
 50
302.9124294618596878
 51
339.5394567286812162
  0
ARC
  5
1448A
  8
0
 10
3619.5664652404211665
 20
234.4763174611366878
 30
0.0
 40
0.066588209462213
 50
271.4147474094390873
 51
1.208129667821715
  0
ARC
  5
1448B
  8
0
 10
3619.6373469379241214
 20
234.4086085080188013
 30
0.0
 40
0.0692470700706047
 50
93.5670301294901634
 51
179.0558468078669137
  0
ARC
  5
1448C
  8
0
 10
3619.6081139206748958
 20
234.4344395323660137
 30
0.0
 40
0.2526191152541487
 50
125.4539939761162941
 51
146.6944477937281874
  0
ARC
  5
1448D
  8
0
 10
3619.2864414947530349
 20
234.7442707051083062
 30
0.0
 40
0.2037185127736062
 50
302.8632476002616727
 51
329.28519402844978
  0
ARC
  5
1448E
  8
0
 10
3620.6625426880209488
 20
235.4591812272425955
 30
0.0
 40
0.1579862896610355
 50
111.697961442886097
 51
146.0226289412042888
  0
ARC
  5
1448F
  8
0
 10
3620.4749559677397883
 20
235.6919899328314898
 30
0.0
 40
0.1551951295022434
 50
291.3794491913865272
 51
326.3411410549593938
  0
ARC
  5
14490
  8
0
 10
3621.5744516027580175
 20
236.7620630943393962
 30
0.0
 40
0.3136722775338505
 50
294.1728269586703846
 51
311.2739254327767071
  0
ARC
  5
14491
  8
0
 10
3621.8889851959579573
 20
236.2725660795939007
 30
0.0
 40
0.2756292144044071
 50
112.9818710640290931
 51
132.464881194206697
  0
ARC
  5
14492
  8
0
 10
3621.8206011829001909
 20
236.3715062734650019
 30
0.0
 40
0.0686580628873257
 50
267.5187319135015969
 51
350.3924030738102147
  0
ARC
  5
14493
  8
0
 10
3621.8838586953547747
 20
236.2932657679210138
 30
0.0
 40
0.0669287827859917
 50
86.1983567505099586
 51
171.7127780954500054
  0
ARC
  5
14494
  8
0
 10
3623.0036918786699971
 20
237.3421479213654095
 30
0.0
 40
0.1909188915665274
 50
280.0411614349162051
 51
308.3791402373117876
  0
ARC
  5
14495
  8
0
 10
3623.1761544844389391
 20
236.9585829795445022
 30
0.0
 40
0.2400362764448341
 50
102.9832999842384993
 51
125.4370015637250049
  0
ARC
  5
14496
  8
0
 10
3624.5763430268648335
 20
237.3619311085525965
 30
0.0
 40
0.3999459812812642
 50
100.8997792596365031
 51
114.334249499776206
  0
ARC
  5
14497
  8
0
 10
3624.3443657868201626
 20
238.0924632684495066
 30
0.0
 40
0.3722302705147769
 50
280.3970535119016745
 51
294.8369751320042269
  0
ARC
  5
14498
  8
0
 10
3624.4860759038888318
 20
237.6516723350858058
 30
0.0
 40
0.0804239913893829
 50
252.7181882827802042
 51
324.2398016758531867
  0
ARC
  5
14499
  8
0
 10
3624.5287350655021328
 20
237.5240220381135998
 30
0.0
 40
0.083758312127215
 50
74.3444369525957427
 51
142.6135528898753932
  0
ARC
  5
1449A
  8
0
 10
3625.8107167700300124
 20
238.4733964700901083
 30
0.0
 40
0.3905501540062532
 50
276.0537220025057081
 51
289.8418873612301923
  0
ARC
  5
1449B
  8
0
 10
3625.990195395639148
 20
237.6927452667239038
 30
0.0
 40
0.4159412839266386
 50
96.476429274466156
 51
109.4191799811022037
  0
ARC
  5
1449C
  8
0
 10
3627.2834739781292228
 20
238.7046620381337902
 30
0.0
 40
0.2860967691396726
 50
271.7250047593867066
 51
290.1429949668042241
  0
ARC
  5
1449D
  8
0
 10
3627.4051608438398944
 20
238.0747643628116919
 30
0.0
 40
0.3620415806602131
 50
93.6685959711609257
 51
108.1994036475480954
  0
ARC
  5
1449E
  8
0
 10
3627.3461770785338558
 20
238.3867539054523945
 30
0.0
 40
0.0969534007281782
 50
251.7655881758448118
 51
309.7602619575044969
  0
ARC
  5
1449F
  8
0
 10
3627.379147553896928
 20
238.2133069347320884
 30
0.0
 40
0.1030905785708905
 50
73.6394405243725458
 51
127.8864095045565961
  0
ARC
  5
144A0
  8
0
 10
3628.765268406746145
 20
238.8835730886380873
 30
0.0
 40
0.262158433534091
 50
268.2338258932018107
 51
288.2421901526549846
  0
ARC
  5
144A1
  8
0
 10
3628.854169303332128
 20
238.2695292885385925
 30
0.0
 40
0.3651249806988135
 50
91.0728219250440958
 51
105.4031940174475039
  0
ARC
  5
144A2
  8
0
 10
3630.1778986051231186
 20
239.1480064580536009
 30
0.0
 40
0.2659492385129254
 50
276.9136310735419215
 51
297.108779999121225
  0
ARC
  5
144A3
  8
0
 10
3630.3260492184558643
 20
238.6637663746789997
 30
0.0
 40
0.2489715003101196
 50
96.2170726930551297
 51
117.8053382645837956
  0
ARC
  5
144A4
  8
0
 10
3630.2208677545731916
 20
239.0227060113901132
 30
0.0
 40
0.2424852557896646
 50
275.0916471160740002
 51
296.8499018444472881
  0
ARC
  5
144A5
  8
0
 10
3630.3651835716459573
 20
238.5184463223299076
 30
0.0
 40
0.2900111232619001
 50
96.8910797320698549
 51
115.0504691128266046
  0
ARC
  5
144A6
  8
0
 10
3631.6438639083248745
 20
239.3599407091165858
 30
0.0
 40
0.2479305978789066
 50
273.0448149552806854
 51
294.6207641626334066
  0
ARC
  5
144A7
  8
0
 10
3631.7634690426020825
 20
238.8741960276047962
 30
0.0
 40
0.2608653134914707
 50
93.5856582861505331
 51
114.0799207210211961
  0
ARC
  5
144A8
  8
0
 10
3633.1263783734229946
 20
239.5784526546648863
 30
0.0
 40
0.2306744698974318
 50
267.0652043492406165
 51
290.0799066555089212
  0
ARC
  5
144A9
  8
0
 10
3633.2010122382239388
 20
239.0833553888035112
 30
0.0
 40
0.2784818061334301
 50
89.0610113738802767
 51
108.0840995279939989
  0
ARC
  5
144AA
  8
0
 10
3633.1002298051707839
 20
239.7228793077840976
 30
0.0
 40
0.2627623091666247
 50
268.9866389223383862
 51
289.4186260948138738
  0
ARC
  5
144AB
  8
0
 10
3633.1780115776041384
 20
239.2427799079545991
 30
0.0
 40
0.2324818170571677
 50
87.6387532465003716
 51
110.7665116679796995
  0
ARC
  5
144AC
  8
0
 10
3634.5088862047869043
 20
240.0091719835180015
 30
0.0
 40
0.2304428001897906
 50
272.9050232883116109
 51
296.3782242749155103
  0
ARC
  5
144AD
  8
0
 10
3634.6230145565541534
 20
239.5723277486127074
 30
0.0
 40
0.2306940943104399
 50
92.9179894184982658
 51
116.3652580339241069
  0
ARC
  5
144AE
  8
0
 10
3635.9157781354952022
 20
240.4466546892334975
 30
0.0
 40
0.2304428001897906
 50
272.9050232883116109
 51
296.3782242749155103
  0
ARC
  5
144AF
  8
0
 10
3636.029906487262906
 20
240.0098104543282034
 30
0.0
 40
0.2306940943104399
 50
92.9179894184982658
 51
116.3652580339241069
  0
ARC
  5
144B0
  8
0
 10
3635.9479619148000893
 20
240.3257659352657072
 30
0.0
 40
0.2304428001897906
 50
272.9050232883116109
 51
296.3782242749155103
  0
ARC
  5
144B1
  8
0
 10
3636.0620902665668837
 20
239.8889217003604983
 30
0.0
 40
0.2306940943104399
 50
92.9179894184982658
 51
116.3652580339241069
  0
ARC
  5
144B2
  8
0
 10
3637.3597567604169853
 20
240.7511932317848107
 30
0.0
 40
0.2304428001897906
 50
272.9050232883116109
 51
296.3782242749155103
  0
ARC
  5
144B3
  8
0
 10
3637.4738851121828702
 20
240.3143489968794881
 30
0.0
 40
0.2306940943104399
 50
92.9179894184982658
 51
116.3652580339241069
  0
ARC
  5
144B4
  8
0
 10
3638.7863081558639351
 20
241.133788787864404
 30
0.0
 40
0.2304428001897906
 50
272.9050232883116109
 51
296.3782242749155103
  0
ARC
  5
144B5
  8
0
 10
3638.9004365076330032
 20
240.6969445529591951
 30
0.0
 40
0.2306940943104399
 50
92.9179894184982658
 51
116.3652580339241069
  0
ARC
  5
144B6
  8
0
 10
3638.8090839614160359
 20
241.0225229580848065
 30
0.0
 40
0.2304428001897906
 50
272.9050232883116109
 51
296.3782242749155103
  0
ARC
  5
144B7
  8
0
 10
3638.9232123131841945
 20
240.5856787231795124
 30
0.0
 40
0.2306940943104399
 50
92.9179894184982658
 51
116.3652580339241069
  0
ARC
  5
144B8
  8
0
 10
3640.2520513508170552
 20
241.3302474146285022
 30
0.0
 40
0.2304428001897906
 50
272.9050232883116109
 51
296.3782242749155103
  0
ARC
  5
144B9
  8
0
 10
3640.3661797025838496
 20
240.893403179723208
 30
0.0
 40
0.2306940943104399
 50
92.9179894184982658
 51
116.3652580339241069
  0
ARC
  5
144BA
  8
0
 10
3641.7854598237609025
 20
241.1429487267992045
 30
0.0
 40
0.1643131841394776
 50
76.8007426221384577
 51
107.0174204613184941
  0
ARC
  5
144BB
  8
0
 10
3641.7751929621449563
 20
241.4509660262932016
 30
0.0
 40
0.1555660581256455
 50
255.9291586947252881
 51
287.8890042915288063
  0
ARC
  5
144BC
  8
0
 10
3641.7719528036891461
 20
241.4562063032844037
 30
0.0
 40
0.2704347683455528
 50
262.4076444189187782
 51
282.461279257964577
  0
ARC
  5
144BD
  8
0
 10
3641.7950848609821151
 20
240.9121141497338954
 30
0.0
 40
0.2822347314800083
 50
82.8309159733783247
 51
102.0380076140992998
  0
ARC
  5
144BE
  8
0
 10
3661.2638504155897863
 20
225.0159259959550013
 30
0.0
 40
0.3721573654573365
 50
165.4031277217571017
 51
179.8749265695016959
  0
ARC
  5
144BF
  8
0
 10
3660.557347445556843
 20
225.1071954005213058
 30
0.0
 40
0.346366924402228
 50
344.8611271295552001
 51
0.4169271617046995
  0
ARC
  5
144C0
  8
0
 10
3660.3516273778777759
 20
223.685466182034105
 30
0.0
 40
0.3158772334297049
 50
336.1524618847158763
 51
353.1780882217602198
  0
ARC
  5
144C1
  8
0
 10
3660.9439195500499409
 20
223.523047482769698
 30
0.0
 40
0.3053620244965121
 50
155.8570297190888994
 51
173.4735203892643085
  0
ARC
  5
144C2
  8
0
 10
3660.9632958886882079
 20
223.5168558070201072
 30
0.0
 40
0.4103136008589548
 50
157.9743355480011076
 51
171.088634741895703
  0
ARC
  5
144C3
  8
0
 10
3660.2328754105528787
 20
223.7189871489397035
 30
0.0
 40
0.3533635229607221
 50
336.9117164158677724
 51
352.1512538740068976
  0
ARC
  5
144C4
  8
0
 10
3659.8177178831037963
 20
222.3506018823970862
 30
0.0
 40
0.3380694241495634
 50
328.9373420651053834
 51
344.8573962121319028
  0
ARC
  5
144C5
  8
0
 10
3660.4218785832008507
 20
222.0928727166514989
 30
0.0
 40
0.3254099705867101
 50
148.625544410323414
 51
165.1691938669052888
  0
ARC
  5
144C6
  8
0
 10
3659.7653687975939647
 20
220.7231314182581059
 30
0.0
 40
0.3979717278145301
 50
143.0125785471570907
 51
156.5505351394801039
  0
ARC
  5
144C7
  8
0
 10
3659.1269636094179987
 20
221.0949672713771008
 30
0.0
 40
0.3467878137611924
 50
322.0077442655626214
 51
337.5553694210981917
  0
ARC
  5
144C8
  8
0
 10
3659.7766232739318184
 20
220.7163182007809894
 30
0.0
 40
0.323425110451816
 50
141.5097645538471909
 51
158.1190222794550948
  0
ARC
  5
144C9
  8
0
 10
3659.2697379143169201
 20
221.011162080060501
 30
0.0
 40
0.2704321522691771
 50
319.8672641112423207
 51
339.7615227220551901
  0
ARC
  5
144CA
  8
0
 10
3658.9342406767991633
 20
219.4507309381513949
 30
0.0
 40
0.3754944804422525
 50
135.8373783859663888
 51
150.1322318567864897
  0
ARC
  5
144CB
  8
0
 10
3658.4130095967529996
 20
219.8437234976503021
 30
0.0
 40
0.2840741117624973
 50
313.5186809601905793
 51
332.4509291409027014
  0
ARC
  5
144CC
  8
0
 10
3657.9907133751189576
 20
218.2654243979870046
 30
0.0
 40
0.4574426926731929
 50
131.4570185026146021
 51
143.2204444939002883
  0
ARC
  5
144CD
  8
0
 10
3657.3959388646881052
 20
218.8135225603560059
 30
0.0
 40
0.3568643637489363
 50
309.7907433964618917
 51
324.8867194595222259
  0
ARC
  5
144CE
  8
0
 10
3657.9640140101078032
 20
218.2885172474765056
 30
0.0
 40
0.3390081694896561
 50
129.2980264978033063
 51
145.1512632418910016
  0
ARC
  5
144CF
  8
0
 10
3657.513882610429846
 20
218.7049839951550041
 30
0.0
 40
0.2813814458757038
 50
307.6607440161507157
 51
326.7885455826847192
  0
ARC
  5
144D0
  8
0
 10
3656.8973004075578501
 20
217.2200623212198991
 30
0.0
 40
0.4017068527556449
 50
125.4869333192296068
 51
138.8468111446593127
  0
ARC
  5
144D1
  8
0
 10
3656.4114080986441877
 20
217.7565499088827039
 30
0.0
 40
0.3281803020375886
 50
303.9810297686149738
 51
320.352714556118201
  0
ARC
  5
144D2
  8
0
 10
3655.7313140317160105
 20
216.2656659461792117
 30
0.0
 40
0.3530021579046236
 50
120.015172476724203
 51
135.2226418270207091
  0
ARC
  5
144D3
  8
0
 10
3655.3378154828537845
 20
216.7762855730555884
 30
0.0
 40
0.2984298421119335
 50
298.6140696573767741
 51
316.6237445096746796
  0
ARC
  5
144D4
  8
0
 10
3655.7470096054948954
 20
216.246040082737494
 30
0.0
 40
0.4572679626512253
 50
121.7538255624913006
 51
133.5110196058026872
  0
ARC
  5
144D5
  8
0
 10
3655.2434948040699965
 20
216.8991025719172114
 30
0.0
 40
0.3727227599443421
 50
300.4139414768645793
 51
314.8509035550940212
  0
ARC
  5
144D6
  8
0
 10
3654.5074144094842268
 20
215.3936180487307865
 30
0.0
 40
0.3998403009375939
 50
116.8503561370014978
 51
130.2626290885739877
  0
ARC
  5
144D7
  8
0
 10
3654.1083257225968737
 20
215.9952855103720992
 30
0.0
 40
0.3282275568061364
 50
295.3781059162081988
 51
311.7348791756151059
  0
ARC
  5
144D8
  8
0
 10
3653.2181189295779404
 20
214.6261014563733909
 30
0.0
 40
0.3405496977850059
 50
111.9982281378646007
 51
127.7533914370231969
  0
ARC
  5
144D9
  8
0
 10
3652.9063136604659121
 20
215.1688776036504862
 30
0.0
 40
0.2923756583224378
 50
290.6898360949257949
 51
309.061783349452412
  0
ARC
  5
144DA
  8
0
 10
3653.200888258060786
 20
214.6547711063543034
 30
0.0
 40
0.3918017902564294
 50
112.8178889076294951
 51
126.5384125199637992
  0
ARC
  5
144DB
  8
0
 10
3652.840623815905019
 20
215.2869419416628887
 30
0.0
 40
0.3418417947968657
 50
291.8093263029672926
 51
307.5469749946582851
  0
ARC
  5
144DC
  8
0
 10
3651.8713386274562254
 20
213.9693930393979997
 30
0.0
 40
0.3401339410341353
 50
108.3534088455167961
 51
124.1240716008813934
  0
ARC
  5
144DD
  8
0
 10
3651.5893362804040407
 20
214.5415206448099923
 30
0.0
 40
0.3045306199219029
 50
287.4245697022194008
 51
305.0529106174419098
  0
ARC
  5
144DE
  8
0
 10
3650.4644100377918221
 20
213.4486477794573034
 30
0.0
 40
0.2826717174372133
 50
102.8221919527585015
 51
121.4394235161128961
  0
ARC
  5
144DF
  8
0
 10
3650.2354665864240815
 20
214.0115989560113974
 30
0.0
 40
0.3319393322538767
 50
284.213463599588124
 51
300.0481517448823752
  0
ARC
  5
144E0
  8
0
 10
3650.4744804078500238
 20
213.426892866008501
 30
0.0
 40
0.2113360193886206
 50
99.875288326371674
 51
124.6906814949664977
  0
ARC
  5
144E1
  8
0
 10
3650.2824922723048076
 20
213.8954045687756889
 30
0.0
 40
0.3033407924994873
 50
283.6736498458737969
 51
300.8923198500210106
  0
ARC
  5
144E2
  8
0
 10
3649.0998036191599567
 20
212.8624527609653114
 30
0.0
 40
0.2917868119584486
 50
100.6424670731709057
 51
119.0375811359702993
  0
ARC
  5
144E3
  8
0
 10
3648.9106007603859325
 20
213.3868342911574985
 30
0.0
 40
0.2734422619781183
 50
280.0195101222219023
 51
299.6605379679824068
  0
ARC
  5
144E4
  8
0
 10
3647.6922666159612163
 20
212.371921833065187
 30
0.0
 40
0.2659492385129254
 50
96.9136310735418647
 51
117.1087799991212961
  0
ARC
  5
144E5
  8
0
 10
3647.5441160026289253
 20
212.856161916439703
 30
0.0
 40
0.2489715003101196
 50
276.2170726930551155
 51
297.8053382645829856
  0
ARC
  5
144E6
  8
0
 10
3647.649297466509779
 20
212.4972222797285895
 30
0.0
 40
0.2424852557896646
 50
95.0916471160739434
 51
116.8499018444473023
  0
ARC
  5
144E7
  8
0
 10
3647.5049816494388324
 20
213.001481968788795
 30
0.0
 40
0.2900111232619001
 50
276.8910797320697839
 51
295.0504691128267041
  0
ARC
  5
144E8
  8
0
 10
3646.2333214520731417
 20
212.0561101904002896
 30
0.0
 40
0.2479305978789066
 50
93.0448149552807564
 51
114.6207641626334066
  0
ARC
  5
144E9
  8
0
 10
3646.1137163177959337
 20
212.5418548719121077
 30
0.0
 40
0.2608653134914707
 50
273.5856582861504762
 51
294.0799207210210966
  0
ARC
  5
144EA
  8
0
 10
3644.7508069869750216
 20
211.8375982448521029
 30
0.0
 40
0.2306744698974318
 50
87.0652043492405454
 51
110.079906655508907
  0
ARC
  5
144EB
  8
0
 10
3644.6761731221749869
 20
212.3326955107135063
 30
0.0
 40
0.2784818061334301
 50
269.0610113738803193
 51
288.0840995279945105
  0
ARC
  5
144EC
  8
0
 10
3644.7769555552267775
 20
211.6931715917328916
 30
0.0
 40
0.2627623091666247
 50
88.986638922338372
 51
109.4186260948139022
  0
ARC
  5
144ED
  8
0
 10
3644.6991737827938778
 20
212.17327099156239
 30
0.0
 40
0.2324818170571677
 50
267.6387532465004142
 51
290.7665116679797279
  0
ARC
  5
144EE
  8
0
 10
3643.2711402591148726
 20
211.6109393082564907
 30
0.0
 40
0.2355054191014869
 50
81.9868042321787556
 51
104.5611771316875007
  0
ARC
  5
144EF
  8
0
 10
3643.242450940379058
 20
212.1124640756540884
 30
0.0
 40
0.2752809211529439
 50
263.6346247128453797
 51
282.9133565580177105
  0
ARC
  5
144F0
  8
0
 10
3615.9782125925621585
 20
225.0260038191374008
 30
0.0
 40
0.1220298031231406
 50
345.3163794295363118
 51
30.3998445519896592
  0
ARC
  5
144F1
  8
0
 10
3616.2215455682307947
 20
225.0595877560081135
 30
0.0
 40
0.1409240403864062
 50
168.4704394903577906
 51
207.2457844911698999
  0
ARC
  5
144F2
  8
0
 10
3616.470807014914044
 20
223.5973595125630027
 30
0.0
 40
0.154478766251829
 50
179.6816624221264931
 51
214.9153056814359104
  0
ARC
  5
144F3
  8
0
 10
3616.1674608874868682
 20
223.5028865196991035
 30
0.0
 40
0.1767774131108161
 50
1.962808448612325
 51
32.6341596530590792
  0
ARC
  5
144F4
  8
0
 10
3616.5512312865139393
 20
223.621376940492496
 30
0.0
 40
0.0643985897660543
 50
327.336220778985421
 51
60.439709198685172
  0
ARC
  5
144F5
  8
0
 10
3616.6394925878121285
 20
223.6431997305869004
 30
0.0
 40
0.0660334980906241
 50
148.8138417017869131
 51
238.9620882758794096
  0
ARC
  5
144F6
  8
0
 10
3617.0732721399990623
 20
222.2357616394772037
 30
0.0
 40
0.1495046930659823
 50
185.5753693840460983
 51
221.9234731715191913
  0
ARC
  5
144F7
  8
0
 10
3616.8400332650148812
 20
222.1331368902272914
 30
0.0
 40
0.1220323734931194
 50
1.2842571630985
 51
46.2145853924821921
  0
ARC
  5
144F8
  8
0
 10
3617.7657732832199144
 20
220.9351226767338972
 30
0.0
 40
0.060461451321311
 50
338.7865304833907203
 51
79.65160910249827
  0
ARC
  5
144F9
  8
0
 10
3617.8476048638058273
 20
220.9808925511350992
 30
0.0
 40
0.0722824475088501
 50
169.067862635353805
 51
249.3702769505079004
  0
ARC
  5
144FA
  8
0
 10
3617.4210415986922271
 20
220.7180536712907895
 30
0.0
 40
0.1955850098037043
 50
18.7460785811986987
 51
46.3475869481361897
  0
ARC
  5
144FB
  8
0
 10
3617.730178076969878
 20
220.9153507509797976
 30
0.0
 40
0.1828448724860366
 50
197.7633222924534948
 51
227.3303432368701067
  0
ARC
  5
144FC
  8
0
 10
3618.6009568077129188
 20
219.7178042952714065
 30
0.0
 40
0.1361666340070173
 50
198.7592545437497904
 51
238.7888591237557989
  0
ARC
  5
144FD
  8
0
 10
3618.3914325724567789
 20
219.5494986286302037
 30
0.0
 40
0.1483206815414395
 50
20.4605432713188584
 51
57.0875705381402909
  0
ARC
  5
144FE
  8
0
 10
3619.5664652404211665
 20
218.5972631648402
 30
0.0
 40
0.066588209462213
 50
358.7918703321765861
 51
88.5852525905608843
  0
ARC
  5
144FF
  8
0
 10
3619.6373469379241214
 20
218.6649721179580865
 30
0.0
 40
0.0692470700706047
 50
180.9441531921314095
 51
266.4329698705099077
  0
ARC
  5
14500
  8
0
 10
3619.6081139206748958
 20
218.6391410936109878
 30
0.0
 40
0.2526191152541487
 50
213.3055522062718126
 51
234.5460060238837059
  0
ARC
  5
14501
  8
0
 10
3619.2864414947530349
 20
218.3293099208686101
 30
0.0
 40
0.2037185127736062
 50
30.7148059715501915
 51
57.1367523997382492
  0
ARC
  5
14502
  8
0
 10
3620.6625426880209488
 20
217.6143993987344061
 30
0.0
 40
0.1579862896610355
 50
213.9773710587957112
 51
248.3020385571138888
  0
ARC
  5
14503
  8
0
 10
3620.4749559677397883
 20
217.3815906931453981
 30
0.0
 40
0.1551951295022434
 50
33.6588589450405706
 51
68.620550808613487
  0
ARC
  5
14504
  8
0
 10
3621.5744516027580175
 20
216.3115175316374916
 30
0.0
 40
0.3136722775338505
 50
48.7260745672233071
 51
65.8271730413296012
  0
ARC
  5
14505
  8
0
 10
3621.8889851959579573
 20
216.8010145463829872
 30
0.0
 40
0.2756292144044071
 50
227.5351188057931893
 51
247.0181289359709069
  0
ARC
  5
14506
  8
0
 10
3621.8206011829001909
 20
216.7020743525119997
 30
0.0
 40
0.0686580628873257
 50
9.6075969261898297
 51
92.4812680864983463
  0
ARC
  5
14507
  8
0
 10
3621.8838586953547747
 20
216.7803148580559878
 30
0.0
 40
0.0669287827859917
 50
188.2872219045499094
 51
273.8016432494899846
  0
ARC
  5
14508
  8
0
 10
3623.0036918786699971
 20
215.7314327046115068
 30
0.0
 40
0.1909188915665274
 50
51.6208597626882266
 51
79.9588385650838376
  0
ARC
  5
14509
  8
0
 10
3623.1761544844389391
 20
216.1149976464324993
 30
0.0
 40
0.2400362764448341
 50
234.5629984362749951
 51
257.0167000157615007
  0
ARC
  5
1450A
  8
0
 10
3624.5763430268648335
 20
215.7116495174242914
 30
0.0
 40
0.3999459812812642
 50
245.665750500223794
 51
259.1002207403635111
  0
ARC
  5
1450B
  8
0
 10
3624.3443657868201626
 20
214.9811173575274097
 30
0.0
 40
0.3722302705147769
 50
65.1630248679958441
 51
79.6029464880983539
  0
ARC
  5
1450C
  8
0
 10
3624.4860759038888318
 20
215.4219082908911105
 30
0.0
 40
0.0804239913893829
 50
35.7601983241468631
 51
107.2818117172196963
  0
ARC
  5
1450D
  8
0
 10
3624.5287350655021328
 20
215.5495585878634017
 30
0.0
 40
0.083758312127215
 50
217.3864471101246068
 51
285.6555630474039162
  0
ARC
  5
1450E
  8
0
 10
3625.8107167700300124
 20
214.600184155886808
 30
0.0
 40
0.3905501540062532
 50
70.1581126387697509
 51
83.946277997494235
  0
ARC
  5
1450F
  8
0
 10
3625.990195395639148
 20
215.3808353592530125
 30
0.0
 40
0.4159412839266386
 50
250.5808200188976969
 51
263.5235707255076818
  0
ARC
  5
14510
  8
0
 10
3627.2834739781292228
 20
214.3689185878430976
 30
0.0
 40
0.2860967691396726
 50
69.857005033195847
 51
88.2749952405873017
  0
ARC
  5
14511
  8
0
 10
3627.4051608438398944
 20
214.998816263165196
 30
0.0
 40
0.3620415806602131
 50
251.8005963524518904
 51
266.3314040288390743
  0
ARC
  5
14512
  8
0
 10
3627.3461770785338558
 20
214.686826720524607
 30
0.0
 40
0.0969534007281782
 50
50.2397380424955031
 51
108.2344118241552025
  0
ARC
  5
14513
  8
0
 10
3627.379147553896928
 20
214.8602736912447995
 30
0.0
 40
0.1030905785708905
 50
232.1135904954433897
 51
286.3605594756274968
  0
ARC
  5
14514
  8
0
 10
3628.765268406746145
 20
214.1900075373388859
 30
0.0
 40
0.262158433534091
 50
71.7578098473450439
 51
91.7661741067981751
  0
ARC
  5
14515
  8
0
 10
3628.854169303332128
 20
214.8040513374382954
 30
0.0
 40
0.3651249806988135
 50
254.5968059825524108
 51
268.9271780749559184
  0
ARC
  5
14516
  8
0
 10
3630.1778986051231186
 20
213.9255741679234006
 30
0.0
 40
0.2659492385129254
 50
62.8912200008787323
 51
83.0863689264581353
  0
ARC
  5
14517
  8
0
 10
3630.3260492184558643
 20
214.4098142512980019
 30
0.0
 40
0.2489715003101196
 50
242.1946617354169859
 51
263.7829273069448845
  0
ARC
  5
14518
  8
0
 10
3630.2208677545731916
 20
214.0508746145868031
 30
0.0
 40
0.2424852557896646
 50
63.150098155552719
 51
84.9083528839260424
  0
ARC
  5
14519
  8
0
 10
3630.3651835716459573
 20
214.5551343036470087
 30
0.0
 40
0.2900111232619001
 50
244.9495308871734096
 51
263.1089202679301025
  0
ARC
  5
1451A
  8
0
 10
3631.6438639083248745
 20
213.713639916860302
 30
0.0
 40
0.2479305978789066
 50
65.3792358373665792
 51
86.9551850447192436
  0
ARC
  5
1451B
  8
0
 10
3631.7634690426020825
 20
214.1993845983722053
 30
0.0
 40
0.2608653134914707
 50
245.9200792789787897
 51
266.4143417138495238
  0
ARC
  5
1451C
  8
0
 10
3633.1263783734229946
 20
213.4951279713120016
 30
0.0
 40
0.2306744698974318
 50
69.9200933444911215
 51
92.9347956507594546
  0
ARC
  5
1451D
  8
0
 10
3633.2010122382239388
 20
213.990225237173405
 30
0.0
 40
0.2784818061334301
 50
251.9159004720054895
 51
270.9389886261197944
  0
ARC
  5
1451E
  8
0
 10
3633.1002298051707839
 20
213.3507013181927903
 30
0.0
 40
0.2627623091666247
 50
70.5813739051860836
 51
91.013361077661628
  0
ARC
  5
1451F
  8
0
 10
3633.1780115776041384
 20
213.8308007180222887
 30
0.0
 40
0.2324818170571677
 50
249.2334883320203005
 51
272.3612467534995858
  0
ARC
  5
14520
  8
0
 10
3634.5088862047869043
 20
213.0644086424588863
 30
0.0
 40
0.2304428001897906
 50
63.6217757250846034
 51
87.0949767116884175
  0
ARC
  5
14521
  8
0
 10
3634.6230145565541534
 20
213.5012528773642089
 30
0.0
 40
0.2306940943104399
 50
243.6347419660758931
 51
267.08201058150172
  0
ARC
  5
14522
  8
0
 10
3635.9157781354952022
 20
212.6269259367433904
 30
0.0
 40
0.2304428001897906
 50
63.6217757250846034
 51
87.0949767116884175
  0
ARC
  5
14523
  8
0
 10
3636.029906487262906
 20
213.0637701716487129
 30
0.0
 40
0.2306940943104399
 50
243.6347419660758931
 51
267.08201058150172
  0
ARC
  5
14524
  8
0
 10
3635.9479619148000893
 20
212.7478146907110954
 30
0.0
 40
0.2304428001897906
 50
63.6217757250846034
 51
87.0949767116884175
  0
ARC
  5
14525
  8
0
 10
3636.0620902665668837
 20
213.1846589256165032
 30
0.0
 40
0.2306940943104399
 50
243.6347419660758931
 51
267.08201058150172
  0
ARC
  5
14526
  8
0
 10
3637.3597567604169853
 20
212.3223873941921056
 30
0.0
 40
0.2304428001897906
 50
63.6217757250846034
 51
87.0949767116884175
  0
ARC
  5
14527
  8
0
 10
3637.4738851121828702
 20
212.7592316290973997
 30
0.0
 40
0.2306940943104399
 50
243.6347419660758931
 51
267.08201058150172
  0
ARC
  5
14528
  8
0
 10
3638.7863081558639351
 20
211.9397918381125123
 30
0.0
 40
0.2304428001897906
 50
63.6217757250846034
 51
87.0949767116884175
  0
ARC
  5
14529
  8
0
 10
3638.9004365076330032
 20
212.3766360730178064
 30
0.0
 40
0.2306940943104399
 50
243.6347419660758931
 51
267.08201058150172
  0
ARC
  5
1452A
  8
0
 10
3638.8090839614160359
 20
212.0510576678921097
 30
0.0
 40
0.2304428001897906
 50
63.6217757250846034
 51
87.0949767116884175
  0
ARC
  5
1452B
  8
0
 10
3638.9232123131841945
 20
212.4879019027974039
 30
0.0
 40
0.2306940943104399
 50
243.6347419660758931
 51
267.08201058150172
  0
ARC
  5
1452C
  8
0
 10
3640.2520513508170552
 20
211.7433332113484141
 30
0.0
 40
0.2304428001897906
 50
63.6217757250846034
 51
87.0949767116884175
  0
ARC
  5
1452D
  8
0
 10
3640.3661797025838496
 20
212.1801774462537082
 30
0.0
 40
0.2306940943104399
 50
243.6347419660758931
 51
267.08201058150172
  0
ARC
  5
1452E
  8
0
 10
3641.7854598237609025
 20
211.9306318991777118
 30
0.0
 40
0.1643131841394776
 50
252.9825795386815059
 51
283.1992573778616133
  0
ARC
  5
1452F
  8
0
 10
3641.7751929621449563
 20
211.6226145996836863
 30
0.0
 40
0.1555660581256455
 50
72.1109957084711937
 51
104.0708413052746977
  0
ARC
  5
14530
  8
0
 10
3641.7719528036891461
 20
211.6173743226925126
 30
0.0
 40
0.2704347683455528
 50
77.5387207420349966
 51
97.592355581081236
  0
ARC
  5
14531
  8
0
 10
3641.7950848609821151
 20
212.1614664762429925
 30
0.0
 40
0.2822347314800083
 50
257.9619923859007145
 51
277.1690840266217037
  0
ARC
  5
14532
  8
0
 10
3637.5713997955122068
 20
201.3163061818426911
 30
0.0
 40
46.3471393451151386
 50
76.0223770413558526
 51
99.9168073844309532
  0
ARC
  5
14533
  8
0
 10
3638.5205688727210145
 20
244.140310200747507
 30
0.0
 40
1.39710636740381
 50
94.7412462955352481
 51
109.4095574523944947
  0
ARC
  5
14534
  8
0
 10
3638.2942803423011355
 20
244.7825493489310986
 30
0.0
 40
0.7161675871459784
 50
109.4095574523944947
 51
131.9247363806227042
  0
ARC
  5
14535
  8
0
 10
3637.9348630136091742
 20
245.1827787567198129
 30
0.0
 40
0.1782415745543499
 50
131.9247363806227042
 51
198.7725308022525894
  0
ARC
  5
14536
  8
0
 10
3638.1339334681329092
 20
245.364460605771086
 30
0.0
 40
0.4386800646234758
 50
213.0186597370374955
 51
255.5004381463720051
  0
ARC
  5
14537
  8
0
 10
3638.5457046711539988
 20
246.5115660513079945
 30
0.0
 40
1.656100436593992
 50
251.6416272669135878
 51
265.346004469539821
  0
ARC
  5
14538
  8
0
 10
3638.6242167280411195
 20
247.119441419128492
 30
0.0
 40
2.268526375390735
 50
264.6152731656052879
 51
277.5830279955188757
  0
ARC
  5
14539
  8
0
 10
3638.7882510726999499
 20
246.0308283660465918
 30
0.0
 40
1.1679408091295971
 50
276.6536782652746069
 51
293.3653812978835731
  0
ARC
  5
1453A
  8
0
 10
3639.119861784672139
 20
245.2831425562293077
 30
0.0
 40
0.3501437188466005
 50
292.074257193641472
 51
324.320317273549108
  0
ARC
  5
1453B
  8
0
 10
3639.2714782060761536
 20
245.1590336297956014
 30
0.0
 40
0.1550952510619029
 50
328.8992863061272942
 51
39.0710797258446405
  0
ARC
  5
1453C
  8
0
 10
3638.8953083589631206
 20
244.8235720619645122
 30
0.0
 40
0.658989976244322
 50
41.1013762121360884
 51
72.089455556161667
  0
ARC
  5
1453D
  8
0
 10
3638.603695009770945
 20
244.0742288494176933
 30
0.0
 40
1.4624552816590579
 50
70.2464369912305244
 51
83.2061482547620272
  0
ARC
  5
1453E
  8
0
 10
3638.7384806745058086
 20
245.5360309157842948
 30
0.0
 40
0.0394101193718078
 50
345.8775966872649974
 51
11.8936484930740392
  0
ARC
  5
1453F
  8
0
 10
3638.6831304601000738
 20
245.5065807714055097
 30
0.0
 40
0.1011512511162782
 50
21.8049292834090203
 51
73.4414228273555239
  0
ARC
  5
14540
  8
0
 10
3638.5870110863211266
 20
245.2770500940061993
 30
0.0
 40
0.3495791268369237
 50
69.0580874275276102
 51
112.8727538752705044
  0
ARC
  5
14541
  8
0
 10
3638.4835280163838434
 20
245.5213686931149084
 30
0.0
 40
0.0842496810256484
 50
112.6122522915601962
 51
157.8642599107969033
  0
ARC
  5
14542
  8
0
 10
3638.4436339547260104
 20
245.5421291230157124
 30
0.0
 40
0.039696095981453
 50
163.9349681109108872
 51
193.8362778867291922
  0
ARC
  5
14543
  8
0
 10
3639.0926113012969836
 20
245.4118327901969963
 30
0.0
 40
0.3969504471435458
 50
289.5851723662286759
 51
326.3516703784654851
  0
ARC
  5
14544
  8
0
 10
3638.6833004986638116
 20
246.5622530828754861
 30
0.0
 40
1.6180164498472001
 50
277.2373973688464162
 51
289.5851723662286759
  0
ARC
  5
14545
  8
0
 10
3638.6232047594821779
 20
247.035475613153011
 30
0.0
 40
2.095039574056242
 50
257.2550962136842259
 51
277.2373973688464162
  0
ARC
  5
14546
  8
0
 10
3638.3983403212801022
 20
246.0413069964236001
 30
0.0
 40
1.0757578396680429
 50
241.830770350047203
 51
257.2550962136842259
  0
ARC
  5
14547
  8
0
 10
3638.0337819926080556
 20
245.3605309493059963
 30
0.0
 40
0.3035151308429399
 50
206.3762385766422938
 51
241.830770350047203
  0
ENDSEC
  0
EOF
