  0
SECTION
  2
HEADER
  9
$ACADVER
  1
AC1009
  9
$INSBASE
 10
3908.1199620937950385
 20
48.9985641522749589
 30
0.0
  9
$EXTMIN
 10
3892.4591107494929929
 20
45.3354738059477071
 30
0.0
  9
$EXTMAX
 10
3912.4014581567957975
 20
55.4242506855759132
 30
0.0
  9
$LIMMIN
 10
0.0
 20
0.0
  9
$LIMMAX
 10
11.6929133858000007
 20
8.2677165353999982
  9
$ORTHOMODE
 70
     0
  9
$REGENMODE
 70
     1
  9
$FILLMODE
 70
     1
  9
$QTEXTMODE
 70
     0
  9
$MIRRTEXT
 70
     0
  9
$DRAGMODE
 70
     2
  9
$LTSCALE
 40
0.6431102362
  9
$OSMODE
 70
  4095
  9
$ATTMODE
 70
     1
  9
$TEXTSIZE
 40
0.2
  9
$TRACEWID
 40
0.05
  9
$TEXTSTYLE
  7
STANDARD
  9
$CLAYER
  8
0
  9
$CELTYPE
  6
BYLAYER
  9
$CECOLOR
 62
   256
  9
$DIMSCALE
 40
1.0
  9
$DIMASZ
 40
0.1875
  9
$DIMEXO
 40
0.0625
  9
$DIMDLI
 40
0.4443307087
  9
$DIMRND
 40
0.0
  9
$DIMDLE
 40
0.0
  9
$DIMEXE
 40
0.125
  9
$DIMTP
 40
0.01
  9
$DIMTM
 40
0.01
  9
$DIMTXT
 40
2.0
  9
$DIMCEN
 40
0.1052362205
  9
$DIMTSZ
 40
0.0
  9
$DIMTOL
 70
     1
  9
$DIMLIM
 70
     0
  9
$DIMTIH
 70
     1
  9
$DIMTOH
 70
     1
  9
$DIMSE1
 70
     0
  9
$DIMSE2
 70
     0
  9
$DIMTAD
 70
     0
  9
$DIMZIN
 70
     0
  9
$DIMBLK
  1

  9
$DIMASO
 70
     1
  9
$DIMSHO
 70
     1
  9
$DIMPOST
  1
\X
  9
$DIMAPOST
  1

  9
$DIMALT
 70
     1
  9
$DIMALTD
 70
     2
  9
$DIMALTF
 40
25.3999999999999986
  9
$DIMLFAC
 40
1.0
  9
$DIMTOFL
 70
     0
  9
$DIMTVP
 40
0.0
  9
$DIMTIX
 70
     0
  9
$DIMSOXD
 70
     0
  9
$DIMSAH
 70
     0
  9
$DIMBLK1
  1

  9
$DIMBLK2
  1

  9
$DIMSTYLE
  2
STANDARD
  9
$DIMCLRD
 70
     0
  9
$DIMCLRE
 70
     0
  9
$DIMCLRT
 70
     0
  9
$DIMTFAC
 40
1.0
  9
$DIMGAP
 40
0.09
  9
$LUNITS
 70
     2
  9
$LUPREC
 70
     4
  9
$SKETCHINC
 40
0.1
  9
$FILLETRAD
 40
0.0
  9
$AUNITS
 70
     0
  9
$AUPREC
 70
     0
  9
$MENU
  1
.
  9
$ELEVATION
 40
0.0
  9
$PELEVATION
 40
0.0
  9
$THICKNESS
 40
0.0
  9
$LIMCHECK
 70
     0
  9
$BLIPMODE
 70
     0
  9
$CHAMFERA
 40
0.0
  9
$CHAMFERB
 40
0.0
  9
$SKPOLY
 70
     0
  9
$TDCREATE
 40
2458060.468368056230247
  9
$TDUPDATE
 40
2459069.7072800928726792
  9
$TDINDWG
 40
0.4136413194
  9
$TDUSRTIMER
 40
0.4136413194
  9
$USRTIMER
 70
     1
  9
$ANGBASE
 50
0.0
  9
$ANGDIR
 70
     0
  9
$PDMODE
 70
     0
  9
$PDSIZE
 40
0.3125
  9
$PLINEWID
 40
0.0
  9
$COORDS
 70
     1
  9
$SPLFRAME
 70
     0
  9
$SPLINETYPE
 70
     6
  9
$SPLINESEGS
 70
     8
  9
$ATTDIA
 70
     1
  9
$ATTREQ
 70
     1
  9
$HANDLING
 70
     1
  9
$HANDSEED
  5
750D
  9
$SURFTAB1
 70
     6
  9
$SURFTAB2
 70
     6
  9
$SURFTYPE
 70
     6
  9
$SURFU
 70
     6
  9
$SURFV
 70
     6
  9
$UCSNAME
  2

  9
$UCSORG
 10
0.0
 20
0.0
 30
0.0
  9
$UCSXDIR
 10
1.0
 20
0.0
 30
0.0
  9
$UCSYDIR
 10
0.0
 20
1.0
 30
0.0
  9
$PUCSNAME
  2

  9
$PUCSORG
 10
0.0
 20
0.0
 30
0.0
  9
$PUCSXDIR
 10
1.0
 20
0.0
 30
0.0
  9
$PUCSYDIR
 10
0.0
 20
1.0
 30
0.0
  9
$USERI1
 70
     0
  9
$USERI2
 70
     0
  9
$USERI3
 70
     0
  9
$USERI4
 70
     0
  9
$USERI5
 70
     0
  9
$USERR1
 40
0.0
  9
$USERR2
 40
0.0
  9
$USERR3
 40
0.0
  9
$USERR4
 40
0.0
  9
$USERR5
 40
0.0
  9
$WORLDVIEW
 70
     1
  9
$SHADEDGE
 70
     3
  9
$SHADEDIF
 70
    70
  9
$TILEMODE
 70
     1
  9
$MAXACTVP
 70
    64
  9
$PLIMCHECK
 70
     0
  9
$PEXTMIN
 10
1.0000000000000000E+20
 20
1.0000000000000000E+20
 30
1.0000000000000000E+20
  9
$PEXTMAX
 10
-1.0000000000000000E+20
 20
-1.0000000000000000E+20
 30
-1.0000000000000000E+20
  9
$PLIMMIN
 10
0.0
 20
0.0
  9
$PLIMMAX
 10
12.0
 20
9.0
  9
$UNITMODE
 70
     0
  9
$VISRETAIN
 70
     1
  9
$PLINEGEN
 70
     0
  9
$PSLTSCALE
 70
     1
  0
ENDSEC
  0
SECTION
  2
TABLES
  0
TABLE
  2
VPORT
 70
     1
  0
VPORT
  2
*ACTIVE
 70
     0
 10
0.0
 20
0.0
 11
1.0
 21
1.0
 12
143.7089477988739077
 22
-77.6357781643157665
 13
0.0
 23
0.0
 14
1.0
 24
1.0
 15
0.0
 25
0.0
 16
0.0
 26
0.0
 36
5.1040778033513332
 17
3792.35791015625
 27
120.1806564331053977
 37
0.0
 40
94.2302957894379745
 41
2.005224660397074
 42
50.0
 43
0.0
 44
0.0
 50
0.0
 51
0.0
 71
     0
 72
   100
 73
     1
 74
     1
 75
     0
 76
     0
 77
     0
 78
     0
  0
ENDTAB
  0
TABLE
  2
LTYPE
 70
     2
  0
LTYPE
  2
CONTINUOUS
 70
     0
  3
Solid line
 72
    65
 73
     0
 40
0.0
  0
LTYPE
  2
PHANTOM2
 70
     0
  3
___ _ _ ___ _ _ ___ _ _ ___ _ _
 72
    65
 73
     6
 40
1.25
 49
0.625
 49
-0.125
 49
0.125
 49
-0.125
 49
0.125
 49
-0.125
  0
ENDTAB
  0
TABLE
  2
LAYER
 70
     2
  0
LAYER
  2
0
 70
     0
 62
   255
  6
CONTINUOUS
  0
LAYER
  2
DEFPOINTS
 70
     0
 62
     7
  6
CONTINUOUS
  0
ENDTAB
  0
TABLE
  2
STYLE
 70
     1
  0
STYLE
  2
STANDARD
 70
     0
 40
0.0
 41
0.8
 50
0.0
 71
     0
 42
0.2
  3
txt
  4

  0
ENDTAB
  0
TABLE
  2
VIEW
 70
     0
  0
ENDTAB
  0
TABLE
  2
UCS
 70
     0
  0
ENDTAB
  0
TABLE
  2
APPID
 70
     9
  0
APPID
  2
ACAD
 70
     0
  0
APPID
  2
ACAD_MLEADERVER
 70
     0
  0
APPID
  2
ACAD_EXEMPT_FROM_CAD_STANDARDS
 70
     0
  0
APPID
  2
ACAD_NAV_VCDISPLAY
 70
     0
  0
APPID
  2
ACAECLAYERSTANDARD
 70
     0
  0
APPID
  2
ACCMTRANSPARENCY
 70
     0
  0
APPID
  2
ACAD_DSTYLE_DIMJAG
 70
     0
  0
APPID
  2
ACAD_DSTYLE_DIMTALN
 70
     0
  0
APPID
  2
ACDBATTR
 70
     0
  0
ENDTAB
  0
TABLE
  2
DIMSTYLE
 70
     1
  0
DIMSTYLE
  2
STANDARD
 70
     0
  3

  4

  5

  6

  7

 40
1.0
 41
0.1875
 42
0.0625
 43
0.38
 44
0.125
 45
0.0
 46
0.0
 47
0.01
 48
0.01
140
0.15625
141
0.09
142
0.0
143
25.3999999999999986
144
1.0
145
0.0
146
1.0
147
0.09
 71
     1
 72
     0
 73
     1
 74
     1
 75
     0
 76
     0
 77
     0
 78
     4
170
     0
171
     2
172
     0
173
     0
174
     0
175
     0
176
     0
177
     0
178
     0
  0
ENDTAB
  0
ENDSEC
  0
SECTION
  2
BLOCKS
  0
BLOCK
  8
0
  2
$MODEL_SPACE
 70
     0
 10
0.0
 20
0.0
 30
0.0
  3
$MODEL_SPACE
  1

  0
ENDBLK
  5
21
  8
0
  0
BLOCK
 67
     1
  8
0
  2
$PAPER_SPACE
 70
     0
 10
0.0
 20
0.0
 30
0.0
  3
$PAPER_SPACE
  1

  0
ENDBLK
  5
1D
 67
     1
  8
0
  0
BLOCK
  8
0
  2
_FILLED
 70
     0
 10
0.0
 20
0.0
 30
0.0
  3
_FILLED
  1

  0
SOLID
  5
69B4
  8
0
  6
BYBLOCK
 62
     0
 10
0.0
 20
0.0
 30
0.0
 11
-1.0
 21
0.1666666667
 31
0.0
 12
-1.0
 22
-0.1666666667
 32
0.0
 13
-1.0
 23
-0.1666666667
 33
0.0
  0
ENDBLK
  5
69B5
  8
0
  6
BYBLOCK
 62
     0
  0
BLOCK
  8
0
  2
A$CDFAF6206
 70
     0
 10
0.0
 20
0.0
 30
0.0
  3
A$CDFAF6206
  1

  0
LINE
  5
6A0E
  8
0
 10
7.4646650085734834
 20
10.9287685970688493
 30
0.0
 11
7.4646650085734896
 21
10.8905784766688498
 31
0.0
  0
ARC
  5
6A0F
  8
0
 10
7.7269027075262349
 20
10.8926811525838598
 30
0.0
 40
0.2622461286616791
 50
180.4593995232625048
 51
217.0214027758331099
  0
LINE
  5
6A10
  8
0
 10
9.767814609867095
 20
10.9287685970688493
 30
0.0
 11
9.767814609867095
 21
10.8905433757650094
 31
0.0
  0
ARC
  5
6A11
  8
0
 10
9.5068669568548287
 20
10.8922438613003703
 30
0.0
 40
0.2609531936261092
 50
322.8847083717149076
 51
359.6266329125650145
  0
LINE
  5
6A12
  8
0
 10
7.517522606271406
 20
10.7347792678688396
 30
0.0
 11
9.7149570120691777
 21
10.7347792678688396
 31
0.0
  0
LINE
  5
6A13
  8
0
 10
7.4646650085734834
 20
10.9287685970688493
 30
0.0
 11
9.7678146123202936
 21
10.9287685970688493
 31
0.0
  0
ARC
  5
6A14
  8
0
 10
4.0826771419203629
 20
8.527951346868889
 30
0.0
 40
4.0826771653999172
 50
13.3117747050523896
 51
32.7200330051415591
  0
ARC
  5
6A15
  8
0
 10
4.0826771460567306
 20
8.5279513475907933
 30
0.0
 40
4.0826771612084691
 50
359.6656501984817851
 51
13.3117747085593798
  0
ARC
  5
6A16
  8
0
 10
13.1498041284835097
 20
8.5279508235212234
 30
0.0
 40
4.0826788382043553
 50
147.2799733478981068
 51
166.6882233021349862
  0
ARC
  5
6A17
  8
0
 10
13.1498064934207992
 20
8.5279506557033251
 30
0.0
 40
4.0826811782395342
 50
166.688228652086309
 51
180.3343397625230011
  0
LINE
  5
6A18
  8
0
 10
8.1652847935202928
 20
8.504127000268852
 30
0.0
 11
9.0671948248202892
 21
8.5041270002687881
 31
0.0
  0
LINE
  5
6A19
  8
0
 10
8.1652847935202786
 20
8.5041270002667204
 30
0.0
 11
8.1652847935202928
 21
8.3607006934688481
 31
0.0
  0
ARC
  5
6A1A
  8
0
 10
5.6196779630382627
 20
8.3631022096452732
 30
0.0
 40
2.545607963272567
 50
342.0511668832173768
 51
359.945947387132378
  0
LINE
  5
6A1B
  8
0
 10
9.0671948248202892
 20
8.5041270002687881
 30
0.0
 11
9.0671948248202892
 21
8.2885990108688503
 31
0.0
  0
ARC
  5
6A1C
  8
0
 10
9.4521885297801163
 20
7.9614488056228501
 30
0.0
 40
0.5052201595850959
 50
139.6436242991769916
 51
174.6757930071850069
  0
ARC
  5
6A1D
  8
0
 10
9.9238413395551746
 20
8.1492417579399508
 30
0.0
 40
0.9848265662939324
 50
188.2263441834095943
 51
209.5593615864376034
  0
ARC
  5
6A1E
  8
0
 10
8.0788764238271256
 20
7.5665710856463297
 30
0.0
 40
0.0393715937169877
 50
162.1669117288323037
 51
227.2023190037006088
  0
ARC
  5
6A1F
  8
0
 10
8.7223682141740682
 20
8.2079667397440517
 30
0.0
 40
0.947895137885075
 50
225.0018610752970858
 51
261.4598823366255829
  0
ARC
  5
6A20
  8
0
 10
8.6645157662702701
 20
8.1695128573935332
 30
0.0
 40
0.9027466462812931
 50
264.7303071214498118
 51
281.8608311947915013
  0
ARC
  5
6A21
  8
0
 10
8.6645157662698935
 20
8.1695128573999671
 30
0.0
 40
0.9027466462876658
 50
299.1741886792128753
 51
299.1743179154552195
  0
ARC
  5
6A22
  8
0
 10
9.0843330931590316
 20
7.4150554710086141
 30
0.0
 40
0.0393703053609601
 50
251.9700352025496954
 51
252.4698971938937859
  0
ARC
  5
6A23
  8
0
 10
9.0843330931590316
 20
7.4150554710086141
 30
0.0
 40
0.0393703053609601
 50
297.2453716727138726
 51
6.8376113572703074
  0
LINE
  5
6A24
  8
0
 10
9.0671948248202892
 20
7.663402160468852
 30
0.0
 11
9.1234233799329516
 21
7.419742732911689
 31
0.0
  0
ARC
  5
6A25
  8
0
 10
8.8843741880892395
 20
9.8961379890094676
 30
0.0
 40
2.5255097382132701
 50
263.792800240752797
 51
274.9514951129821156
  0
ARC
  5
6A26
  8
0
 10
8.8258167405968848
 20
9.2763025889666508
 30
0.0
 40
1.9029970832759311
 50
246.0108363320686067
 51
263.5276935074397215
  0
ARC
  5
6A27
  8
0
 10
8.607491361665744
 20
8.3225444804829642
 30
0.0
 40
1.064510137163637
 50
283.1717405874071005
 51
297.7022170607311864
  0
LINE
  5
6A28
  8
0
 10
9.0671948248202892
 20
8.2885990108688503
 30
0.0
 11
26.2014378595979593
 21
8.2885990108689942
 31
0.0
  0
LINE
  5
6A29
  8
0
 10
26.2014378595979913
 20
7.6634021604689053
 30
0.0
 11
9.0671948248202892
 21
7.6634021604688618
 31
0.0
  0
LINE
  5
6A2A
  8
0
 10
27.8039676758446994
 20
10.9287685970690802
 30
0.0
 11
27.8039676758446888
 21
10.8905784766690807
 31
0.0
  0
ARC
  5
6A2B
  8
0
 10
27.5417299768919399
 20
10.8926811525840801
 30
0.0
 40
0.2622461286616791
 50
322.9785972241680838
 51
359.5406004767386889
  0
LINE
  5
6A2C
  8
0
 10
25.5008180745510913
 20
10.9287685970690305
 30
0.0
 11
25.5008180745510913
 21
10.8905433757651799
 31
0.0
  0
ARC
  5
6A2D
  8
0
 10
25.7617657275633505
 20
10.8922438613005497
 30
0.0
 40
0.2609531936261092
 50
180.3733670874362929
 51
217.1152916282862861
  0
LINE
  5
6A2E
  8
0
 10
27.7511100781467803
 20
10.7347792678690706
 30
0.0
 11
25.5536756723490015
 21
10.7347792678690208
 31
0.0
  0
LINE
  5
6A2F
  8
0
 10
27.8039676758446888
 20
10.9287685970686006
 30
0.0
 11
25.5008180745510806
 21
10.9287685970686006
 31
0.0
  0
ARC
  5
6A30
  8
0
 10
31.1859555424978616
 20
8.5279513468691981
 30
0.0
 40
4.0826771653999172
 50
147.2799669948597057
 51
166.6882252949490066
  0
ARC
  5
6A31
  8
0
 10
31.185955538361501
 20
8.5279513475911024
 30
0.0
 40
4.0826771612084691
 50
166.6882252914419098
 51
180.3343498015194086
  0
ARC
  5
6A32
  8
0
 10
22.1188285559344706
 20
8.5279508235212251
 30
0.0
 40
4.0826788382046102
 50
13.3117766978667795
 51
32.7200266521023977
  0
ARC
  5
6A33
  8
0
 10
22.1188261909974315
 20
8.5279506557034264
 30
0.0
 40
4.0826811782395342
 50
359.665660237478221
 51
13.31177134791497
  0
LINE
  5
6A34
  8
0
 10
27.1033478908979397
 20
8.5041270002690652
 30
0.0
 11
26.2014378595979416
 21
8.5041270002689835
 31
0.0
  0
LINE
  5
6A35
  8
0
 10
27.1033478908979504
 20
8.5041270002669354
 30
0.0
 11
27.1033478908979397
 21
8.3607006934690649
 31
0.0
  0
ARC
  5
6A36
  8
0
 10
29.6489547213799689
 20
8.3631022096455467
 30
0.0
 40
2.545607963272567
 50
180.0540526128687873
 51
197.9488331167837032
  0
LINE
  5
6A37
  8
0
 10
26.2014378595979416
 20
8.5041270002689835
 30
0.0
 11
26.2014378595979487
 21
8.2885990108690457
 31
0.0
  0
ARC
  5
6A38
  8
0
 10
25.8164441546381305
 20
7.9614488056230366
 30
0.0
 40
0.5052201595850959
 50
5.324206992816312
 51
40.3563757008241879
  0
ARC
  5
6A39
  8
0
 10
25.3447913448601803
 20
8.149241757940846
 30
0.0
 40
0.9848265662968968
 50
330.4406384136033807
 51
351.7736558165743759
  0
ARC
  5
6A3A
  8
0
 10
27.1897562605911212
 20
7.5665710856465473
 30
0.0
 40
0.0393715937169877
 50
312.7976809963004143
 51
17.8330882711689185
  0
ARC
  5
6A3B
  8
0
 10
26.5462644702441715
 20
8.2079667397442542
 30
0.0
 40
0.947895137885075
 50
278.5401176633754972
 51
314.9981389247041079
  0
ARC
  5
6A3C
  8
0
 10
26.6041169181479695
 20
8.1695128573937392
 30
0.0
 40
0.9027466462812931
 50
258.139168805210204
 51
275.2696928785518935
  0
ARC
  5
6A3D
  8
0
 10
26.6041169181483497
 20
8.1695128574001732
 30
0.0
 40
0.9027466462876658
 50
240.8256820845460027
 51
240.8258113207880058
  0
ARC
  5
6A3E
  8
0
 10
26.1842995912592293
 20
7.4150554710088086
 30
0.0
 40
0.0393703053609601
 50
287.5301028061073794
 51
288.0299647974517825
  0
ARC
  5
6A3F
  8
0
 10
26.1842995912592293
 20
7.4150554710088086
 30
0.0
 40
0.0393703053609601
 50
173.1623886427310026
 51
242.7546283272870085
  0
LINE
  5
6A40
  8
0
 10
26.2014378595981192
 20
7.6634021604690448
 30
0.0
 11
26.1452093044853093
 21
7.4197427329118826
 31
0.0
  0
ARC
  5
6A41
  8
0
 10
26.384258496328961
 20
9.8961379890096666
 30
0.0
 40
2.5255097382132701
 50
265.0485048870193054
 51
276.2071997592482262
  0
ARC
  5
6A42
  8
0
 10
26.4428159438213299
 20
9.2763025889668516
 30
0.0
 40
1.9029970832759311
 50
276.4723064925619838
 51
293.9891636679327007
  0
ARC
  5
6A43
  8
0
 10
26.6611413227524885
 20
8.3225444804831703
 30
0.0
 40
1.064510137163637
 50
242.2977829392704052
 51
256.8282594125943774
  0
LINE
  5
6A44
  8
0
 62
     4
 10
17.9031473532159602
 20
10.9287685970686006
 30
0.0
 11
24.6329820359843588
 21
20.0952817181593808
 31
0.0
  0
LINE
  5
6A45
  8
0
 62
     4
 10
17.9031473532159602
 20
-0.0000000300842942
 30
0.0
 11
22.3963351323106608
 21
4.993614497796286
 31
0.0
  0
ENDBLK
  5
6A49
  8
0
  0
ENDSEC
  0
SECTION
  2
ENTITIES
  0
ATTDEF
  5
3930
  8
DEFPOINTS
 10
3908.1202402219660144
 20
49.0001094051426378
 30
0.0
 40
0.001
  1
K-13434T
  3

  2
MODELNUMBER
 70
     0
1001
ACDBATTR
1070
     0
1070
     1
  0
ATTDEF
  5
3931
  8
DEFPOINTS
 10
3908.1202402219660144
 20
48.9984427384759798
 30
0.0
 40
0.001
  1
CORALAIS
  3

  2
TRADENAME
 70
     0
1001
ACDBATTR
1070
     0
1070
     1
  0
ATTDEF
  5
3932
  8
DEFPOINTS
 10
3908.1202402219660144
 20
48.9967760718093075
 30
0.0
 40
0.001
  1
TOILET TISSUE HOLDER
  3

  2
PRODUCT
 70
     0
1001
ACDBATTR
1070
     0
1070
     1
  0
ARC
  5
741D
  8
0
 10
3906.2239561410178794
 20
45.812933617333961
 30
0.0
 40
0.9576202021820691
 50
145.0480750862008961
 51
154.9395525164981962
  0
ARC
  5
741E
  8
0
 10
3905.6731773019510001
 20
46.0692366629433891
 30
0.0
 40
0.3501293414612414
 50
154.7561655382949937
 51
185.1486205639237141
  0
ARC
  5
741F
  8
0
 10
3905.9981336735090736
 20
46.1676912127845824
 30
0.0
 40
0.6860778894161622
 50
190.9119728546164936
 51
219.6348175937843052
  0
LINE
  5
7420
  8
0
 10
3905.4390589971158079
 20
46.3615436109746994
 30
0.0
 11
3905.4920518165949943
 21
46.3615436109746994
 31
0.0
  0
LINE
  5
7421
  8
0
 10
3905.5290733354950135
 20
46.370678055422907
 30
0.0
 11
3905.6179324585959876
 21
46.4173695326669176
 31
0.0
  0
LINE
  5
7422
  8
0
 10
3905.4697674245890084
 20
45.7300475479749693
 30
0.0
 11
3905.4920518165949943
 21
45.7300475479749693
 31
0.0
  0
LINE
  5
7423
  8
0
 10
3905.5290733354950135
 20
45.7209131035749721
 30
0.0
 11
3905.6179324585959876
 21
45.6742253295116285
 31
0.0
  0
ARC
  5
7424
  8
0
 10
3905.4920518165067733
 20
45.6504569960461026
 30
0.0
 40
0.0795905519288638
 50
62.2800911171496381
 51
89.9999999362171081
  0
ARC
  5
7425
  8
0
 10
3905.4920518166068177
 20
46.4411341621268008
 30
0.0
 40
0.0795905511520934
 50
269.9999999918446747
 51
297.7199090954198937
  0
ARC
  5
7426
  8
0
 10
3905.6549538065128218
 20
46.3469164195751873
 30
0.0
 40
0.0795878215935393
 50
90.0049227893353248
 51
117.7208025922585932
  0
ARC
  5
7427
  8
0
 10
3905.6549469665001197
 20
45.7446184848634516
 30
0.0
 40
0.0795315667884795
 50
242.2634669883134961
 51
270.0000014284190115
  0
LINE
  5
7428
  8
0
 10
3905.5290733354950135
 20
46.370678055422907
 30
0.0
 11
3905.5290733354950135
 21
45.7209131035749721
 31
0.0
  0
LINE
  5
7429
  8
0
 10
3905.6549469684828182
 20
46.4265042408749622
 30
0.0
 11
3905.6549469684828182
 21
45.6650869180749694
 31
0.0
  0
LINE
  5
742A
  8
0
 10
3905.6549469684828182
 20
46.4265042408749622
 30
0.0
 11
3908.1199620937950385
 21
46.4265042408749693
 31
0.0
  0
LINE
  5
742B
  8
0
 10
3905.6549469684828182
 20
45.6650869180749694
 30
0.0
 11
3908.1199620937950385
 21
45.6650869180749694
 31
0.0
  0
LINE
  5
742C
  8
0
 10
3910.5849772191068041
 20
45.637921563674972
 30
0.0
 11
3908.1199620937950385
 21
45.637921563674972
 31
0.0
  0
LINE
  5
742D
  8
0
 10
3908.1199620937950385
 20
45.637921563674972
 30
0.0
 11
3908.1199620937950385
 21
46.4536695951749721
 31
0.0
  0
LINE
  5
742E
  8
0
 10
3908.1199620937950385
 20
46.4536695951749721
 30
0.0
 11
3910.5849772191068041
 21
46.4536695951749721
 31
0.0
  0
LINE
  5
742F
  8
0
 10
3906.1416007398947841
 20
48.9985641522749589
 30
0.0
 11
3903.8384660307960985
 21
48.9985641522749589
 31
0.0
  0
ARC
  5
7430
  8
0
 10
3909.5236035010962041
 20
46.5977469020749666
 30
0.0
 40
4.082677165399998
 50
147.2799669931956998
 51
179.7067470100043067
  0
ARC
  5
7431
  8
0
 10
3906.0788211664298615
 20
48.810959091341303
 30
0.0
 40
0.0118110233657942
 50
327.2799532655203052
 51
359.9999996782344738
  0
ARC
  5
7432
  8
0
 10
3906.0955155993428889
 20
48.8370091285061321
 30
0.0
 40
0.0118591828008899
 50
269.3926978017556166
 51
329.8596840795690923
  0
ARC
  5
7433
  8
0
 10
3905.8904124171572221
 20
48.9603740284732609
 30
0.0
 40
0.2512032191505513
 50
329.0158569684865029
 51
0.0000007758774348
  0
LINE
  5
7434
  8
0
 10
3905.4409681334759625
 20
46.5792728137749705
 30
0.0
 11
3905.4243261499950677
 21
46.5989578530749569
 31
0.0
  0
LINE
  5
7435
  8
0
 10
3905.4243261499950677
 20
46.5989578530749569
 30
0.0
 11
3905.4409798110559677
 21
46.6186428924749734
 31
0.0
  0
LINE
  5
7436
  8
0
 10
3905.4409798110559677
 20
46.6186428924749734
 30
0.0
 11
3904.5391018567338506
 21
46.6186428924749734
 31
0.0
  0
LINE
  5
7437
  8
0
 10
3904.5391018567338506
 20
46.6186428924749734
 30
0.0
 11
3904.5557555177952054
 21
46.5989578530749569
 31
0.0
  0
LINE
  5
7438
  8
0
 10
3904.5557555177952054
 20
46.5989578530749569
 30
0.0
 11
3904.53911353431522
 21
46.5792728137749705
 31
0.0
  0
LINE
  5
7439
  8
0
 10
3904.53911353431522
 20
46.5792728137749705
 30
0.0
 11
3905.4409681334759625
 21
46.5792728137749705
 31
0.0
  0
ARC
  5
743A
  8
0
 10
3900.4564781666967974
 20
46.5977469020750021
 30
0.0
 40
4.0826771653986338
 50
0.2932529893524096
 51
2.6898489572129032
  0
ARC
  5
743B
  8
0
 10
3904.1422660250650551
 20
46.8457584965757974
 30
0.0
 40
0.3964255641059884
 50
351.8187004486147771
 51
15.8804020194985398
  0
ARC
  5
743C
  8
0
 10
3900.5216853454130614
 20
46.6115321334708597
 30
0.0
 40
4.0165234032056052
 50
4.8945782506152611
 51
33.0959752801066927
  0
ARC
  5
743D
  8
0
 10
3903.8844359760669249
 20
48.8371347238451321
 30
0.0
 40
0.0118110238701682
 50
210.9841197959866861
 51
269.9999537380425068
  0
ARC
  5
743E
  8
0
 10
3904.0896692590449675
 20
48.9603740320040401
 30
0.0
 40
0.2512032282489249
 50
180.0000000294402014
 51
210.984142724729395
  0
LINE
  5
743F
  8
0
 10
3903.8846917665950969
 20
48.8109590918594733
 30
0.0
 11
3903.8846917665950969
 21
48.8253236799492569
 31
0.0
  0
LINE
  5
7440
  8
0
 10
3903.8844359665299635
 20
48.8253236999749731
 30
0.0
 11
3906.0953899012029069
 21
48.8251506118753369
 31
0.0
  0
LINE
  5
7441
  8
0
 10
3906.0906321898960414
 20
48.8109590912749667
 30
0.0
 11
3906.0906321898960414
 21
48.8251509843404534
 31
0.0
  0
LINE
  5
7442
  8
0
 10
3906.0906321897950875
 20
48.8109590912749667
 30
0.0
 11
3903.8846917665950969
 21
48.8109590918594733
 31
0.0
  0
LINE
  5
7443
  8
0
 10
3903.8384660307960985
 20
48.9603740320040401
 30
0.0
 11
3903.8384660307960985
 21
48.9985641522749589
 31
0.0
  0
LINE
  5
7444
  8
0
 10
3906.1416156363079608
 20
48.9603740318749701
 30
0.0
 11
3906.1416007398947841
 21
48.9985641522749589
 31
0.0
  0
LINE
  5
7445
  8
0
 10
3905.4243261499950677
 20
46.5989578530749569
 30
0.0
 11
3904.5557555177952054
 21
46.5989578530749569
 31
0.0
  0
ARC
  5
7446
  8
0
 10
3901.9931715901539064
 20
46.4329348906524899
 30
0.0
 40
2.5459153999852249
 50
342.0544835553433813
 51
359.9451183985049738
  0
LINE
  5
7447
  8
0
 10
3904.5390858221958297
 20
46.4304962486749631
 30
0.0
 11
3904.53911353431522
 21
46.5792728137151073
 31
0.0
  0
LINE
  5
7448
  8
0
 10
3905.4723916669950086
 20
45.7268985030749633
 30
0.0
 11
3905.4972245685330563
 21
45.4895383076410695
 31
0.0
  0
ARC
  5
7449
  8
0
 10
3905.4580878547772045
 20
45.4848495951858425
 30
0.0
 40
0.0394165750424554
 50
0.0020226631582897
 51
6.8316702706517276
  0
ARC
  5
744A
  8
0
 10
3904.9831074857697786
 20
46.4549398774103395
 30
0.0
 40
1.119511872526826
 50
270.5182777248339789
 51
296.1304280064122167
  0
ARC
  5
744B
  8
0
 10
3905.0933202341248034
 20
46.2718238263910209
 30
0.0
 40
0.9416839185064677
 50
224.8689546814966889
 51
263.8988371525438765
  0
ARC
  5
744C
  8
0
 10
3904.4550492158250563
 20
45.6338149965036379
 30
0.0
 40
0.0424448894706545
 50
159.7490075417381945
 51
178.8583000718024891
  0
ARC
  5
744D
  8
0
 10
3905.2990925154199431
 20
48.2299415090358892
 30
0.0
 40
2.747556371884976
 50
263.5415659741397008
 51
274.1353081765680031
  0
ARC
  5
744E
  8
0
 10
3905.1386580915627746
 20
47.2598252288281273
 30
0.0
 40
1.76626691149055
 50
245.821459190875288
 51
265.1733104423885266
  0
LINE
  5
744F
  8
0
 10
3905.4409681335951063
 20
46.5792728137749705
 30
0.0
 11
3905.4409958494961757
 21
46.4304962485984731
 31
0.0
  0
LINE
  5
7450
  8
0
 10
3905.4409958494961757
 20
46.4304962485984731
 30
0.0
 11
3905.4412702678750975
 21
46.3646937786137627
 31
0.0
  0
ARC
  5
7451
  8
0
 10
3905.4581359725530092
 20
45.4848499850085872
 30
0.0
 40
0.0393684572556555
 50
297.2454274603413751
 51
0.0014577979469119
  0
ARC
  5
7452
  8
0
 10
3904.447036534378185
 20
45.6346697900090703
 30
0.0
 40
0.034423782866734
 50
180.0151040864583081
 51
232.1788811583274992
  0
ARC
  5
7454
  8
0
 10
3905.5395080167149899
 20
45.785497584056877
 30
0.0
 40
0.0890980173265579
 50
218.4878532619470946
 51
221.1241119370122021
  0
ARC
  5
7455
  8
0
 10
3905.4099530592789051
 20
46.3843258101379519
 30
0.0
 40
0.0369619292795591
 50
321.9485150712769155
 51
327.9173550919414879
  0
ARC
  5
7456
  8
0
 10
3903.8965022198808583
 20
48.8110976049520175
 30
0.0
 40
0.0118112654990762
 50
180.6719345636531955
 51
212.6400762223042022
  0
ARC
  5
7457
  8
0
 10
3910.0159680465740166
 20
45.812933617333961
 30
0.0
 40
0.9576202021820691
 50
25.0604474835017683
 51
34.9519249137990471
  0
ARC
  5
7458
  8
0
 10
3910.5667468856408959
 20
46.0692366629433891
 30
0.0
 40
0.3501293414612414
 50
354.8513794360762859
 51
25.2438344617045587
  0
ARC
  5
7459
  8
0
 10
3910.241790514081913
 20
46.1676912127845824
 30
0.0
 40
0.6860778894161622
 50
320.3651824062152969
 51
349.0880271453830801
  0
LINE
  5
745A
  8
0
 10
3910.8008651904760882
 20
46.3615436109746994
 30
0.0
 11
3910.7478723709950827
 21
46.3615436109746994
 31
0.0
  0
LINE
  5
745B
  8
0
 10
3910.7108508520950636
 20
46.370678055422907
 30
0.0
 11
3910.6219917270118458
 21
46.444531183738313
 31
0.0
  0
LINE
  5
745C
  8
0
 10
3910.7701567630019781
 20
45.7300475479749622
 30
0.0
 11
3910.7478723709950827
 21
45.7300475479749622
 31
0.0
  0
LINE
  5
745D
  8
0
 10
3910.7108508520950636
 20
45.7209131035749579
 30
0.0
 11
3910.6219917166790765
 21
45.6470599751116382
 31
0.0
  0
ARC
  5
745E
  8
0
 10
3910.7478723710842132
 20
45.6504569960461026
 30
0.0
 40
0.0795905519288638
 50
90.0000000637828919
 51
117.7199088828503051
  0
ARC
  5
745F
  8
0
 10
3910.7478723709841688
 20
46.4411341621267795
 30
0.0
 40
0.0795905511520934
 50
242.2800909045801063
 51
270.0000000081553253
  0
ARC
  5
7460
  8
0
 10
3910.5849772087740348
 20
45.7174531304634471
 30
0.0
 40
0.0795315667884784
 50
270.0000074442558002
 51
297.7365330116865039
  0
LINE
  5
7461
  8
0
 10
3910.7108508520950636
 20
46.370678055422907
 30
0.0
 11
3910.7108508520950636
 21
45.7209131035749579
 31
0.0
  0
LINE
  5
7462
  8
0
 10
3910.5849772191068041
 20
46.4536695951749721
 30
0.0
 11
3910.5849772191068041
 21
45.637921563674972
 31
0.0
  0
LINE
  5
7463
  8
0
 10
3910.0983234476962025
 20
48.9985641522749589
 30
0.0
 11
3912.4014581567957975
 21
48.9985641522749589
 31
0.0
  0
ARC
  5
7464
  8
0
 10
3906.7163206864947824
 20
46.5977469020749666
 30
0.0
 40
4.082677165399998
 50
0.2932529899952294
 51
32.720033006803952
  0
ARC
  5
7465
  8
0
 10
3910.1611030211620346
 20
48.8109590913412887
 30
0.0
 40
0.0118110233657942
 50
180.0000003217654125
 51
212.7200467344794106
  0
ARC
  5
7466
  8
0
 10
3910.1444085882471882
 20
48.8370091285061179
 30
0.0
 40
0.0118591828008899
 50
210.1403159204305098
 51
270.6073021982443834
  0
ARC
  5
7467
  8
0
 10
3910.3495117704342192
 20
48.9603740284732609
 30
0.0
 40
0.2512032191505513
 50
179.9999992241224902
 51
210.9841430315130992
  0
LINE
  5
7468
  8
0
 10
3910.798956054115024
 20
46.5792728137749634
 30
0.0
 11
3910.8155980375950094
 21
46.5989578530749569
 31
0.0
  0
LINE
  5
7469
  8
0
 10
3910.8155980375950094
 20
46.5989578530749569
 30
0.0
 11
3910.7989443765341093
 21
46.6186428924749592
 31
0.0
  0
LINE
  5
746A
  8
0
 10
3910.7989443765341093
 20
46.6186428924749592
 30
0.0
 11
3911.700822330857136
 21
46.6186428924749592
 31
0.0
  0
LINE
  5
746B
  8
0
 10
3911.700822330857136
 20
46.6186428924749592
 30
0.0
 11
3911.6841686697948717
 21
46.5989578530749569
 31
0.0
  0
LINE
  5
746C
  8
0
 10
3911.6841686697948717
 20
46.5989578530749569
 30
0.0
 11
3911.700810653274857
 21
46.5792728137749634
 31
0.0
  0
LINE
  5
746D
  8
0
 10
3911.700810653274857
 20
46.5792728137749634
 30
0.0
 11
3910.798956054115024
 21
46.5792728137749634
 31
0.0
  0
ARC
  5
746E
  8
0
 10
3915.7834460208941891
 20
46.5977469020749808
 30
0.0
 40
4.0826771653986338
 50
177.310151042786714
 51
179.70674701064749
  0
ARC
  5
746F
  8
0
 10
3912.0976581625259314
 20
46.8457584965757903
 30
0.0
 40
0.3964255641059884
 50
164.1195979805013963
 51
188.1812995513851092
  0
ARC
  5
7470
  8
0
 10
3915.7182388421779251
 20
46.6115321334708383
 30
0.0
 40
4.0165234032056052
 50
146.9040247198933002
 51
175.1054217493847034
  0
ARC
  5
7471
  8
0
 10
3912.3554882115240616
 20
48.8371347238451321
 30
0.0
 40
0.0118110238701682
 50
270.0000462619573796
 51
329.0158802040132855
  0
ARC
  5
7472
  8
0
 10
3912.1502549285460191
 20
48.960374032004033
 30
0.0
 40
0.2512032282489249
 50
329.015857275270605
 51
359.999999970559827
  0
LINE
  5
7473
  8
0
 10
3912.3552324209958897
 20
48.8109590918594591
 30
0.0
 11
3912.3552324209958897
 21
48.8253236798612065
 31
0.0
  0
LINE
  5
7474
  8
0
 10
3912.3554882210610231
 20
48.8253236999749589
 30
0.0
 11
3910.1445342863880796
 21
48.8251506118753369
 31
0.0
  0
LINE
  5
7475
  8
0
 10
3910.1492919976949452
 20
48.8109590912749667
 30
0.0
 11
3910.1492919976949452
 21
48.8251509843404534
 31
0.0
  0
LINE
  5
7476
  8
0
 10
3910.1492919977949896
 20
48.8109590912749667
 30
0.0
 11
3912.3552324209958897
 21
48.8109590918590968
 31
0.0
  0
LINE
  5
7477
  8
0
 10
3912.4014581567957975
 20
48.960374032004033
 30
0.0
 11
3912.4014581567957975
 21
48.9985641522749589
 31
0.0
  0
LINE
  5
7478
  8
0
 10
3910.0983085512830257
 20
48.960374031874963
 30
0.0
 11
3910.0983234476962025
 21
48.9985641522749589
 31
0.0
  0
LINE
  5
7479
  8
0
 10
3910.8155980375950094
 20
46.5989578530749569
 30
0.0
 11
3911.6841686697948717
 21
46.5989578530749569
 31
0.0
  0
ARC
  5
747A
  8
0
 10
3914.2467525974361706
 20
46.4329348906524828
 30
0.0
 40
2.5459153999852249
 50
180.0548816014945999
 51
197.945516444656505
  0
LINE
  5
747B
  8
0
 10
3911.7008383653960664
 20
46.4304962486749631
 30
0.0
 11
3911.7008106532762213
 21
46.5792728137151002
 31
0.0
  0
LINE
  5
747C
  8
0
 10
3910.767532520595978
 20
45.7268985030749633
 30
0.0
 11
3910.7426996190579302
 21
45.4895383076410624
 31
0.0
  0
ARC
  5
747D
  8
0
 10
3910.7818363328128726
 20
45.4848495951858283
 30
0.0
 40
0.0394165750424554
 50
173.1683297293483008
 51
179.9979773368417
  0
ARC
  5
747E
  8
0
 10
3911.256816701821208
 20
46.4549398774103324
 30
0.0
 40
1.119511872526826
 50
243.869571993587698
 51
269.4817222751660211
  0
ARC
  5
747F
  8
0
 10
3911.1466039534648189
 20
46.2718238263910209
 30
0.0
 40
0.9416839185064677
 50
276.1011628474561235
 51
315.1310453185030269
  0
ARC
  5
7480
  8
0
 10
3911.7856367346971638
 20
45.6339588827914113
 30
0.0
 40
0.0416806094549093
 50
0.9648118009186166
 51
20.4278805855656991
  0
ARC
  5
7481
  8
0
 10
3910.9408316721710435
 20
48.2299415090358892
 30
0.0
 40
2.747556371884976
 50
265.8646918234321106
 51
276.4584340258604129
  0
ARC
  5
7482
  8
0
 10
3911.1012660960268477
 20
47.2598252288281273
 30
0.0
 40
1.76626691149055
 50
274.8266895576114734
 51
294.1785408091246836
  0
LINE
  5
7483
  8
0
 10
3910.7989560539958802
 20
46.5792728137749634
 30
0.0
 11
3910.7989283380948109
 21
46.4304962485984731
 31
0.0
  0
LINE
  5
7484
  8
0
 10
3910.7989283380948109
 20
46.4304962485984731
 30
0.0
 11
3910.7986539197149796
 21
46.3646937786137485
 31
0.0
  0
ARC
  5
7485
  8
0
 10
3910.7817882150379774
 20
45.4848499850085801
 30
0.0
 40
0.0393684572556555
 50
179.9985422020525903
 51
242.7545725396585965
  0
ARC
  5
7486
  8
0
 10
3911.7890090976829924
 20
45.6365696223243376
 30
0.0
 40
0.0383498756292237
 50
310.6591538182624959
 51
357.1468609369221099
  0
ARC
  5
7487
  8
0
 10
3910.7004161708759966
 20
45.785497584056877
 30
0.0
 40
0.0890980173265579
 50
318.8758880629878263
 51
321.5121467380525928
  0
ARC
  5
7488
  8
0
 10
3910.8299711283120814
 20
46.3843258101379519
 30
0.0
 40
0.0369619292795591
 50
212.0826449080585121
 51
218.0514849287231129
  0
ARC
  5
7489
  8
0
 10
3912.3434219677101282
 20
48.8110976049520104
 30
0.0
 40
0.0118112654990762
 50
327.3599237776958262
 51
359.3280654363463213
  0
ARC
  5
748A
  8
0
 10
3910.5849772191068041
 20
46.3741380283864828
 30
0.0
 40
0.079531566788491
 50
62.2634669883144625
 51
90.0
  0
ENDSEC
  0
EOF
