  0
SECTION
  2
HEADER
  9
$ACADVER
  1
AC1009
  9
$INSBASE
 10
482.703099034639024
 20
76.3618043429968907
 30
0.0
  9
$EXTMIN
 10
479.1086082844980751
 20
72.6984966417968934
 30
0.0
  9
$EXTMAX
 10
486.297589784779916
 20
76.3670021068016496
 30
0.0
  9
$LIMMIN
 10
0.0
 20
0.0
  9
$LIMMAX
 10
11.6929133858000007
 20
8.2677165353999982
  9
$ORTHOMODE
 70
     0
  9
$REGENMODE
 70
     1
  9
$FILLMODE
 70
     1
  9
$QTEXTMODE
 70
     0
  9
$MIRRTEXT
 70
     0
  9
$DRAGMODE
 70
     2
  9
$LTSCALE
 40
0.6431102362
  9
$OSMODE
 70
  4095
  9
$ATTMODE
 70
     1
  9
$TEXTSIZE
 40
0.2
  9
$TRACEWID
 40
0.05
  9
$TEXTSTYLE
  7
STANDARD
  9
$CLAYER
  8
0
  9
$CELTYPE
  6
BYLAYER
  9
$CECOLOR
 62
   256
  9
$DIMSCALE
 40
1.0
  9
$DIMASZ
 40
0.1875
  9
$DIMEXO
 40
0.0625
  9
$DIMDLI
 40
0.4443307087
  9
$DIMRND
 40
0.0
  9
$DIMDLE
 40
0.0
  9
$DIMEXE
 40
0.125
  9
$DIMTP
 40
0.01
  9
$DIMTM
 40
0.01
  9
$DIMTXT
 40
1.0
  9
$DIMCEN
 40
0.1052362205
  9
$DIMTSZ
 40
0.0
  9
$DIMTOL
 70
     1
  9
$DIMLIM
 70
     0
  9
$DIMTIH
 70
     0
  9
$DIMTOH
 70
     1
  9
$DIMSE1
 70
     0
  9
$DIMSE2
 70
     0
  9
$DIMTAD
 70
     0
  9
$DIMZIN
 70
     0
  9
$DIMBLK
  1

  9
$DIMASO
 70
     1
  9
$DIMSHO
 70
     1
  9
$DIMPOST
  1
\X
  9
$DIMAPOST
  1

  9
$DIMALT
 70
     1
  9
$DIMALTD
 70
     2
  9
$DIMALTF
 40
25.3999999999999986
  9
$DIMLFAC
 40
1.0
  9
$DIMTOFL
 70
     0
  9
$DIMTVP
 40
0.0
  9
$DIMTIX
 70
     0
  9
$DIMSOXD
 70
     0
  9
$DIMSAH
 70
     0
  9
$DIMBLK1
  1

  9
$DIMBLK2
  1

  9
$DIMSTYLE
  2
STANDARD
  9
$DIMCLRD
 70
     0
  9
$DIMCLRE
 70
     0
  9
$DIMCLRT
 70
     0
  9
$DIMTFAC
 40
1.0
  9
$DIMGAP
 40
0.09
  9
$LUNITS
 70
     2
  9
$LUPREC
 70
     4
  9
$SKETCHINC
 40
0.1
  9
$FILLETRAD
 40
0.0
  9
$AUNITS
 70
     0
  9
$AUPREC
 70
     0
  9
$MENU
  1
.
  9
$ELEVATION
 40
0.0
  9
$PELEVATION
 40
0.0
  9
$THICKNESS
 40
0.0
  9
$LIMCHECK
 70
     0
  9
$BLIPMODE
 70
     0
  9
$CHAMFERA
 40
0.0
  9
$CHAMFERB
 40
0.0
  9
$SKPOLY
 70
     0
  9
$TDCREATE
 40
2458172.5207638889551163
  9
$TDUPDATE
 40
2459069.5698263891972601
  9
$TDINDWG
 40
0.2690957176
  9
$TDUSRTIMER
 40
0.2690957176
  9
$USRTIMER
 70
     1
  9
$ANGBASE
 50
0.0
  9
$ANGDIR
 70
     0
  9
$PDMODE
 70
     0
  9
$PDSIZE
 40
0.3125
  9
$PLINEWID
 40
0.0
  9
$COORDS
 70
     1
  9
$SPLFRAME
 70
     0
  9
$SPLINETYPE
 70
     6
  9
$SPLINESEGS
 70
     8
  9
$ATTDIA
 70
     1
  9
$ATTREQ
 70
     1
  9
$HANDLING
 70
     1
  9
$HANDSEED
  5
845A
  9
$SURFTAB1
 70
     6
  9
$SURFTAB2
 70
     6
  9
$SURFTYPE
 70
     6
  9
$SURFU
 70
     6
  9
$SURFV
 70
     6
  9
$UCSNAME
  2

  9
$UCSORG
 10
0.0
 20
0.0
 30
0.0
  9
$UCSXDIR
 10
1.0
 20
0.0
 30
0.0
  9
$UCSYDIR
 10
0.0
 20
1.0
 30
0.0
  9
$PUCSNAME
  2

  9
$PUCSORG
 10
0.0
 20
0.0
 30
0.0
  9
$PUCSXDIR
 10
1.0
 20
0.0
 30
0.0
  9
$PUCSYDIR
 10
0.0
 20
1.0
 30
0.0
  9
$USERI1
 70
     0
  9
$USERI2
 70
     0
  9
$USERI3
 70
     0
  9
$USERI4
 70
     0
  9
$USERI5
 70
     0
  9
$USERR1
 40
0.0
  9
$USERR2
 40
0.0
  9
$USERR3
 40
0.0
  9
$USERR4
 40
0.0
  9
$USERR5
 40
0.0
  9
$WORLDVIEW
 70
     1
  9
$SHADEDGE
 70
     3
  9
$SHADEDIF
 70
    70
  9
$TILEMODE
 70
     1
  9
$MAXACTVP
 70
    64
  9
$PLIMCHECK
 70
     0
  9
$PEXTMIN
 10
1.0000000000000000E+20
 20
1.0000000000000000E+20
 30
1.0000000000000000E+20
  9
$PEXTMAX
 10
-1.0000000000000000E+20
 20
-1.0000000000000000E+20
 30
-1.0000000000000000E+20
  9
$PLIMMIN
 10
0.0
 20
0.0
  9
$PLIMMAX
 10
12.0
 20
9.0
  9
$UNITMODE
 70
     0
  9
$VISRETAIN
 70
     1
  9
$PLINEGEN
 70
     0
  9
$PSLTSCALE
 70
     1
  0
ENDSEC
  0
SECTION
  2
TABLES
  0
TABLE
  2
VPORT
 70
     1
  0
VPORT
  2
*ACTIVE
 70
     0
 10
0.0
 20
0.0
 11
1.0
 21
1.0
 12
0.0
 22
0.0
 13
0.0
 23
0.0
 14
1.0
 24
1.0
 15
0.0
 25
0.0
 16
0.0
 26
0.0
 36
29.2018340409324111
 17
482.7030944824218182
 27
74.5327480321605833
 37
0.0
 40
8.0691986474054946
 41
2.8398203592814371
 42
50.0
 43
0.0
 44
0.0
 50
0.0
 51
0.0
 71
     0
 72
   100
 73
     1
 74
     1
 75
     0
 76
     0
 77
     0
 78
     0
  0
ENDTAB
  0
TABLE
  2
LTYPE
 70
     2
  0
LTYPE
  2
CONTINUOUS
 70
     0
  3
Solid line
 72
    65
 73
     0
 40
0.0
  0
LTYPE
  2
PHANTOM2
 70
     0
  3
___ _ _ ___ _ _ ___ _ _ ___ _ _
 72
    65
 73
     6
 40
1.25
 49
0.625
 49
-0.125
 49
0.125
 49
-0.125
 49
0.125
 49
-0.125
  0
ENDTAB
  0
TABLE
  2
LAYER
 70
     2
  0
LAYER
  2
0
 70
     0
 62
   255
  6
CONTINUOUS
  0
LAYER
  2
DEFPOINTS
 70
     0
 62
     7
  6
CONTINUOUS
  0
ENDTAB
  0
TABLE
  2
STYLE
 70
     1
  0
STYLE
  2
STANDARD
 70
     0
 40
0.0
 41
0.8
 50
0.0
 71
     0
 42
0.2
  3
txt
  4

  0
ENDTAB
  0
TABLE
  2
VIEW
 70
     0
  0
ENDTAB
  0
TABLE
  2
UCS
 70
     0
  0
ENDTAB
  0
TABLE
  2
APPID
 70
    10
  0
APPID
  2
ACAD
 70
     0
  0
APPID
  2
ACAD_MLEADERVER
 70
     0
  0
APPID
  2
ACAD_EXEMPT_FROM_CAD_STANDARDS
 70
     0
  0
APPID
  2
ACAD_DSTYLE_DIMJAG
 70
     0
  0
APPID
  2
ACAD_DSTYLE_DIMTALN
 70
     0
  0
APPID
  2
ACAD_NAV_VCDISPLAY
 70
     0
  0
APPID
  2
ACAECLAYERSTANDARD
 70
     0
  0
APPID
  2
ACCMTRANSPARENCY
 70
     0
  0
APPID
  2
DCO15
 70
     0
  0
APPID
  2
ACDBATTR
 70
     0
  0
ENDTAB
  0
TABLE
  2
DIMSTYLE
 70
     1
  0
DIMSTYLE
  2
STANDARD
 70
     0
  3

  4

  5

  6

  7

 40
1.0
 41
0.1875
 42
0.0625
 43
0.38
 44
0.125
 45
0.0
 46
0.0
 47
0.01
 48
0.01
140
0.15625
141
0.09
142
0.0
143
25.3999999999999986
144
1.0
145
0.0
146
1.0
147
0.09
 71
     1
 72
     0
 73
     1
 74
     1
 75
     0
 76
     0
 77
     0
 78
     4
170
     0
171
     2
172
     0
173
     0
174
     0
175
     0
176
     0
177
     0
178
     0
  0
ENDTAB
  0
ENDSEC
  0
SECTION
  2
BLOCKS
  0
BLOCK
  8
0
  2
$MODEL_SPACE
 70
     0
 10
0.0
 20
0.0
 30
0.0
  3
$MODEL_SPACE
  1

  0
ENDBLK
  5
21
  8
0
  0
BLOCK
 67
     1
  8
0
  2
$PAPER_SPACE
 70
     0
 10
0.0
 20
0.0
 30
0.0
  3
$PAPER_SPACE
  1

  0
ENDBLK
  5
1D
 67
     1
  8
0
  0
BLOCK
  8
0
  2
A$C781A5BD3
 70
     2
 10
0.0
 20
0.0
 30
0.0
  3
A$C781A5BD3
  1

  0
ATTDEF
  5
7791
  8
DEFPOINTS
 10
0.0000000052162363
 20
-0.0000000019025492
 30
0.0
 40
0.001
  1
METAL
  3

  2
MATERIAL
 70
     0
1001
ACDBATTR
1070
     0
1070
     1
  0
ATTDEF
  5
7792
  8
DEFPOINTS
 10
0.0000000052162363
 20
0.0016666647641159
 30
0.0
 40
0.001
  1
ROBE HOOK
  3

  2
PRODUCT
 70
     0
1001
ACDBATTR
1070
     0
1070
     1
  0
ATTDEF
  5
7793
  8
DEFPOINTS
 10
0.0000000052162363
 20
0.0033333314307811
 30
0.0
 40
0.001
  1
ELLISTON
  3

  2
TRADENAME
 70
     0
1001
ACDBATTR
1070
     0
1070
     1
  0
ATTDEF
  5
7794
  8
DEFPOINTS
 10
0.0000000052162363
 20
0.0049999980974462
 30
0.0
 40
0.001
  1
K-R72788
  3

  2
MODELNUMBER
 70
     0
1001
ACDBATTR
1070
     0
1070
     1
  0
ENDBLK
  5
7798
  8
0
  0
BLOCK
  8
0
  2
_FILLED
 70
     0
 10
0.0
 20
0.0
 30
0.0
  3
_FILLED
  1

  0
SOLID
  5
7A7A
  8
0
  6
BYBLOCK
 62
     0
 10
0.0
 20
0.0
 30
0.0
 11
-1.0
 21
0.1666666667
 31
0.0
 12
-1.0
 22
-0.1666666667
 32
0.0
 13
-1.0
 23
-0.1666666667
 33
0.0
  0
ENDBLK
  5
7A7B
  8
0
  6
BYBLOCK
 62
     0
  0
BLOCK
  8
0
  2
A$C3E2D5EB2
 70
     0
 10
0.0
 20
0.0
 30
0.0
  3
A$C3E2D5EB2
  1

  0
LINE
  5
7A7D
  8
0
 10
44.3056466802266371
 20
17.2965146621302495
 30
0.0
 11
46.5686153659820619
 21
17.2965146621302495
 31
0.0
  0
LINE
  5
7A7E
  8
0
 10
47.5348039786712206
 20
17.2965146621302495
 30
0.0
 11
49.7977726644266383
 21
17.2965146621302495
 31
0.0
  0
ARC
  5
7A7F
  8
0
 10
49.7977726644266383
 20
17.4835225361802493
 30
0.0
 40
0.1870078740500016
 50
270.0
 51
90.0
  0
LINE
  5
7A80
  8
0
 10
49.7977726644266383
 20
17.6705304102302492
 30
0.0
 11
47.5732869067530189
 21
17.6705304102302492
 31
0.0
  0
LINE
  5
7A81
  8
0
 10
46.5301324379002565
 20
17.6705304102302492
 30
0.0
 11
44.3056466801232389
 21
17.6705304102302492
 31
0.0
  0
ARC
  5
7A82
  8
0
 10
44.3056466802266371
 20
17.4835225361802493
 30
0.0
 40
0.1870078740500016
 50
90.0
 51
270.0
  0
LINE
  5
7A83
  8
0
 10
46.175725170026638
 20
19.1764363999302496
 30
0.0
 11
47.9276941740266409
 21
19.1764363999302496
 31
0.0
  0
LINE
  5
7A84
  8
0
 10
47.9276941740266409
 20
19.1764363999302496
 30
0.0
 11
47.865468300726647
 21
18.9159565675302517
 31
0.0
  0
ARC
  5
7A85
  8
0
 10
47.8463220070541908
 20
18.9205304043490585
 30
0.0
 40
0.0196850335188108
 50
269.9999865309230813
 51
346.5644766460030723
  0
LINE
  5
7A86
  8
0
 10
47.8463220024266391
 20
18.9008453708302504
 30
0.0
 11
46.2570973422266789
 21
18.9008457444247711
 31
0.0
  0
ARC
  5
7A87
  8
0
 10
46.257097346854259
 20
18.9205309027569406
 30
0.0
 40
0.0196851583321683
 50
193.4369280629165075
 51
269.999986530924275
  0
LINE
  5
7A88
  8
0
 10
46.2379510439266426
 20
18.9159565675302517
 30
0.0
 11
46.175725170026638
 21
19.1764363999302496
 31
0.0
  0
ARC
  5
7A89
  8
0
 10
47.8349626145651996
 20
18.8811603278913793
 30
0.0
 40
0.0196850456092371
 50
90.000016120666146
 51
166.5644697307834861
  0
ARC
  5
7A8A
  8
0
 10
24.2036258863788305
 20
24.2036259228878912
 30
0.0
 40
24.2036259532262292
 50
345.8212281819882037
 51
347.3077250952965187
  0
ARC
  5
7A8B
  8
0
 10
54.7877249256421592
 20
16.8513694039826305
 30
0.0
 40
7.2587804865222703
 50
168.6895988320505069
 51
173.4282373067929086
  0
ARC
  5
7A8C
  8
0
 10
48.6206897737906871
 20
17.3737742240028084
 30
0.0
 40
1.0886307913810751
 50
163.5462620216599987
 51
184.7961560135306058
  0
ARC
  5
7A8D
  8
0
 10
59.7625096434941767
 20
16.2711202608188117
 30
0.0
 40
12.2684186560087696
 50
175.2701192688720937
 51
175.824163489756387
  0
ARC
  5
7A8E
  8
0
 10
47.4834548639402669
 20
17.1676265092924396
 30
0.0
 40
0.0433200408478704
 50
277.0787234465506117
 51
355.8306632603320736
  0
ARC
  5
7A8F
  8
0
 10
47.0517096584625918
 20
20.6567405594143914
 30
0.0
 40
3.5590448237491841
 50
262.9459276196433279
 51
277.0542608721796114
  0
ARC
  5
7A90
  8
0
 10
46.2684559662727111
 20
18.8811598398496798
 30
0.0
 40
0.0196859019197644
 50
13.4363953030812002
 51
89.9977607966115301
  0
ARC
  5
7A91
  8
0
 10
69.8997934582744591
 20
24.2036259228878912
 30
0.0
 40
24.2036259532262292
 50
192.6922749047035097
 51
194.1787718180117963
  0
ARC
  5
7A92
  8
0
 10
39.3156944190111304
 20
16.8513694039826305
 30
0.0
 40
7.2587804865222703
 50
6.571762693207102
 51
11.3104011679494505
  0
ARC
  5
7A93
  8
0
 10
45.4827295708625883
 20
17.3737742240028084
 30
0.0
 40
1.0886307913810751
 50
355.2038439864693942
 51
16.4537379783400084
  0
ARC
  5
7A94
  8
0
 10
34.3409097011591129
 20
16.2711202608188117
 30
0.0
 40
12.2684186560087696
 50
4.1758365102435313
 51
4.7298807311278992
  0
ARC
  5
7A95
  8
0
 10
46.6199644807130227
 20
17.1676265092924396
 30
0.0
 40
0.0433200408478704
 50
184.169336739667898
 51
262.9212765534493883
  0
LINE
  5
7A96
  8
0
 62
     1
 10
47.0517096723266377
 20
19.1764363999302496
 30
0.0
 11
47.9886616762962532
 21
20.4599080997519991
 31
0.0
  0
ENDBLK
  5
7A9A
  8
0
  0
ENDSEC
  0
SECTION
  2
ENTITIES
  0
ATTDEF
  5
829
  8
DEFPOINTS
 10
482.6995626869452849
 20
76.3660021068016164
 30
0.0
 40
0.001
  1
K-13435T
  3

  2
MODELNUMBER
 70
     0
1001
ACDBATTR
1070
     0
1070
     1
  0
ATTDEF
  5
82A
  8
DEFPOINTS
 10
482.6995626869452849
 20
76.3643354401349512
 30
0.0
 40
0.001
  1
CORALAIS 
  3

  2
TRADENAME
 70
     0
1001
ACDBATTR
1070
     0
1070
     1
  0
ATTDEF
  5
82B
  8
DEFPOINTS
 10
482.6995626869452849
 20
76.3626687734682861
 30
0.0
 40
0.001
  1
TOWEL RING
  3

  2
PRODUCT
 70
     0
1001
ACDBATTR
1070
     0
1070
     1
  0
LINE
  5
8119
  8
0
 10
483.1525517224990836
 20
73.7161350515968792
 30
0.0
 11
486.0484285511390112
 21
73.7161350515968792
 31
0.0
  0
ARC
  5
811A
  8
0
 10
486.0495570081229744
 20
73.4681048419832763
 30
0.0
 40
0.2480327766569004
 50
270.260081082733393
 51
90.2606754094034329
  0
LINE
  5
811B
  8
0
 10
486.0506828923001876
 20
73.220074620677579
 30
0.0
 11
483.1931889966122071
 21
73.220072058978019
 31
0.0
  0
LINE
  5
811C
  8
0
 10
481.5515242314389184
 20
76.3618043429968765
 30
0.0
 11
483.8546738377390284
 21
76.3618043429968907
 31
0.0
  0
LINE
  5
811D
  8
0
 10
482.2536463467787939
 20
73.7161350515968792
 30
0.0
 11
479.3577695181389231
 21
73.7161350515968792
 31
0.0
  0
ARC
  5
811E
  8
0
 10
479.3566410611550168
 20
73.4681048419832763
 30
0.0
 40
0.2480327766569018
 50
89.7393245905965671
 51
269.739918917266607
  0
LINE
  5
811F
  8
0
 10
479.3555151769778035
 20
73.220074620677579
 30
0.0
 11
482.2130090726657272
 21
73.220072058978019
 31
0.0
  0
LINE
  5
8120
  8
0
 10
483.8546738377390284
 20
76.3618043429968907
 30
0.0
 11
483.8546691640390236
 21
76.3236142224968859
 31
0.0
  0
ARC
  5
8121
  8
0
 10
483.6034143952272188
 20
76.3236449710097844
 30
0.0
 40
0.2512547706932724
 50
328.96559949665982
 51
359.9929881529602085
  0
ARC
  5
8122
  8
0
 10
483.8085870550696086
 20
76.2001970786960214
 30
0.0
 40
0.0118070677108996
 50
269.9891483149668829
 51
328.96559949665982
  0
LINE
  5
8123
  8
0
 10
483.8085848188389946
 20
76.188390011196887
 30
0.0
 11
481.597613250339009
 21
76.188390011196887
 31
0.0
  0
ARC
  5
8124
  8
0
 10
481.5976132626009871
 20
76.2002010565578303
 30
0.0
 40
0.0118110453609496
 50
211.0452104605872137
 51
269.9999405164061272
  0
ARC
  5
8125
  8
0
 10
481.8026408965728251
 20
76.3236143820740836
 30
0.0
 40
0.2511166650339359
 50
180.0000364097695069
 51
211.0452104605872137
  0
LINE
  5
8126
  8
0
 10
481.5515242315390196
 20
76.3236142224968859
 30
0.0
 11
481.5515242072701767
 21
76.3618043432828415
 31
0.0
  0
LINE
  5
8127
  8
0
 10
481.6025076786389718
 20
76.188390011196887
 30
0.0
 11
481.6025076786389718
 21
76.1741992819968914
 31
0.0
  0
ARC
  5
8128
  8
0
 10
481.6143187017789273
 20
76.1741992819968914
 30
0.0
 40
0.0118110231398463
 50
180.0000000000073044
 51
212.7200482094401934
  0
ARC
  5
8129
  8
0
 10
478.1695400881970954
 20
73.9609881955074684
 30
0.0
 40
4.0826734389077863
 50
0.2932377807450843
 51
32.7200482094402574
  0
LINE
  5
812A
  8
0
 10
482.2521600573389833
 20
73.9818830830968892
 30
0.0
 11
482.2688137184389916
 21
73.9621980437968887
 31
0.0
  0
LINE
  5
812B
  8
0
 10
482.2688137184389916
 20
73.9621980437968887
 30
0.0
 11
482.2521717349388837
 21
73.9425130043968863
 31
0.0
  0
LINE
  5
812C
  8
0
 10
482.2521717349388837
 20
73.9425130043968863
 30
0.0
 11
482.2521440189389068
 21
73.7937364392968789
 31
0.0
  0
LINE
  5
812D
  8
0
 10
482.2521440189389068
 20
73.7937364392968789
 30
0.0
 11
482.2514835685390153
 21
73.7200720594968857
 31
0.0
  0
ARC
  5
812E
  8
0
 10
481.8540384963944234
 20
73.4991747699506419
 30
0.0
 40
0.4547067163577263
 50
322.13462716826308
 51
29.065010067858239
  0
ARC
  5
812F
  8
0
 10
482.2228812483641036
 20
73.2137834225291044
 30
0.0
 40
0.0117049903872312
 50
147.5026104723582989
 51
175.5006960260886899
  0
ARC
  5
8130
  8
0
 10
478.1083264084825828
 20
73.8049363118310566
 30
0.0
 40
4.1451236222199448
 50
346.8641348600602896
 51
351.813684213832687
  0
ARC
  5
8131
  8
0
 10
482.1898751027143817
 20
72.8527084731418313
 30
0.0
 40
0.0460318170273576
 50
167.1937738687595925
 51
249.1837172040374924
  0
ARC
  5
8132
  8
0
 10
482.7056213319960989
 20
74.0273257465752152
 30
0.0
 40
1.328831498606925
 50
246.3949054230486126
 51
269.891244992179395
  0
ARC
  5
8133
  8
0
 10
482.6902313768521253
 20
71.8772974923417252
 30
0.0
 40
1.1357658492153799
 50
89.3508553213654011
 51
115.8031807342530044
  0
ARC
  5
8134
  8
0
 10
482.2953709495052976
 20
72.6907618628004997
 30
0.0
 40
0.2315372526361874
 50
115.4554838855098069
 51
127.7438935951926027
  0
ARC
  5
8135
  8
0
 10
482.1682881129535758
 20
72.853376245387949
 30
0.0
 40
0.0251754678419258
 50
125.581920872728702
 51
157.7432885799669009
  0
LINE
  5
8136
  8
0
 10
483.8036903906390194
 20
76.188390011196887
 30
0.0
 11
483.8036903906390194
 21
76.1741992819968914
 31
0.0
  0
ARC
  5
8137
  8
0
 10
483.7918793674991207
 20
76.1741992819968914
 30
0.0
 40
0.0118110231398463
 50
327.2799517905597213
 51
359.999999999992724
  0
ARC
  5
8138
  8
0
 10
487.2366579810807821
 20
73.9609881955074684
 30
0.0
 40
4.0826734389077863
 50
147.2799517905596929
 51
179.7067622175864869
  0
LINE
  5
8139
  8
0
 10
483.1540263343389938
 20
73.9425130043968863
 30
0.0
 11
483.1540540503389138
 21
73.7937364392968789
 31
0.0
  0
LINE
  5
813A
  8
0
 10
483.1540540503389138
 20
73.7937364392968789
 30
0.0
 11
483.154714500738919
 21
73.7200720594968857
 31
0.0
  0
ARC
  5
813B
  8
0
 10
483.5521595728835109
 20
73.4991747699506419
 30
0.0
 40
0.4547067163577263
 50
150.9349899321418036
 51
217.8653728317370053
  0
ARC
  5
813C
  8
0
 10
487.2978716606567104
 20
73.8049363118080635
 30
0.0
 40
4.1451236220795424
 50
188.1863157861253057
 51
193.1358651400882138
  0
ARC
  5
813D
  8
0
 10
483.2163229665634958
 20
72.8527084731418313
 30
0.0
 40
0.0460318170273576
 50
290.8162827959624792
 51
12.8062261312404395
  0
ARC
  5
813E
  8
0
 10
482.7005767372817786
 20
74.0273257465752152
 30
0.0
 40
1.328831498606925
 50
270.108755007820605
 51
293.6050945769512737
  0
ARC
  5
813F
  8
0
 10
482.7159666870786054
 20
71.8772974759124992
 30
0.0
 40
1.1357658663340531
 50
64.1968193836550824
 51
90.6491477436475748
  0
ARC
  5
8140
  8
0
 10
483.1108271197725799
 20
72.6907618628004997
 30
0.0
 40
0.2315372526361874
 50
52.2561064048073405
 51
64.5445161144901789
  0
ARC
  5
8141
  8
0
 10
483.2379099563243017
 20
72.853376245387949
 30
0.0
 40
0.0251754678419258
 50
22.25671142003306
 51
54.4180791272713122
  0
LINE
  5
8142
  8
0
 10
483.1540380119395763
 20
73.9818830832158056
 30
0.0
 11
483.137384350739012
 21
73.9621980437968887
 31
0.0
  0
LINE
  5
8143
  8
0
 10
483.137384350739012
 20
73.9621980437968887
 30
0.0
 11
483.1540263343389938
 21
73.9425130043968863
 31
0.0
  0
LINE
  5
8144
  8
0
 10
482.2688137184389916
 20
73.9621980437968887
 30
0.0
 11
483.137384350739012
 21
73.9621980437968887
 31
0.0
  0
LINE
  5
8145
  8
0
 10
483.8018162375390148
 20
76.167815013696881
 30
0.0
 11
481.604381831754381
 21
76.167815013696881
 31
0.0
  0
ARC
  5
8146
  8
0
 10
483.1854089918263071
 20
73.2144833859972834
 30
0.0
 40
0.0095792348167881
 50
1.3055666559022541
 51
35.6911268456209996
  0
LINE
  5
8147
  8
0
 10
482.2521717349586083
 20
73.9425130044370178
 30
0.0
 11
483.1540263342050139
 21
73.9425130044370178
 31
0.0
  0
LINE
  5
8148
  8
0
 10
482.2521600573389833
 20
73.9818830830968892
 30
0.0
 11
483.1540380119395763
 21
73.9818830832158056
 31
0.0
  0
ENDSEC
  0
EOF
