  0
SECTION
  2
HEADER
  9
$ACADVER
  1
AC1009
  9
$INSBASE
 10
488.0854480800971942
 20
-7.1475851100218
 30
0.0
  9
$EXTMIN
 10
483.2612593093523969
 20
-11.4307711573218995
 30
-0.0000000349181948
  9
$EXTMAX
 10
488.1112873423527958
 20
-5.9946539754653401
 30
0.0000000814935746
  9
$LIMMIN
 10
0.0
 20
0.0
  9
$LIMMAX
 10
11.6929133858000007
 20
8.2677165353999982
  9
$ORTHOMODE
 70
     0
  9
$REGENMODE
 70
     1
  9
$FILLMODE
 70
     1
  9
$QTEXTMODE
 70
     0
  9
$MIRRTEXT
 70
     0
  9
$DRAGMODE
 70
     2
  9
$LTSCALE
 40
0.6431102362
  9
$OSMODE
 70
  4095
  9
$ATTMODE
 70
     1
  9
$TEXTSIZE
 40
0.2
  9
$TRACEWID
 40
0.05
  9
$TEXTSTYLE
  7
STANDARD
  9
$CLAYER
  8
DEFPOINT
  9
$CELTYPE
  6
BYLAYER
  9
$CECOLOR
 62
   256
  9
$DIMSCALE
 40
1.0
  9
$DIMASZ
 40
0.1875
  9
$DIMEXO
 40
0.0625
  9
$DIMDLI
 40
0.4443307087
  9
$DIMRND
 40
0.0
  9
$DIMDLE
 40
0.0
  9
$DIMEXE
 40
0.125
  9
$DIMTP
 40
0.01
  9
$DIMTM
 40
0.01
  9
$DIMTXT
 40
1.0
  9
$DIMCEN
 40
0.1052362205
  9
$DIMTSZ
 40
0.0
  9
$DIMTOL
 70
     1
  9
$DIMLIM
 70
     0
  9
$DIMTIH
 70
     1
  9
$DIMTOH
 70
     1
  9
$DIMSE1
 70
     0
  9
$DIMSE2
 70
     0
  9
$DIMTAD
 70
     0
  9
$DIMZIN
 70
     0
  9
$DIMBLK
  1

  9
$DIMASO
 70
     1
  9
$DIMSHO
 70
     1
  9
$DIMPOST
  1
\X
  9
$DIMAPOST
  1

  9
$DIMALT
 70
     1
  9
$DIMALTD
 70
     2
  9
$DIMALTF
 40
25.3999999999999986
  9
$DIMLFAC
 40
1.0
  9
$DIMTOFL
 70
     0
  9
$DIMTVP
 40
0.0
  9
$DIMTIX
 70
     0
  9
$DIMSOXD
 70
     0
  9
$DIMSAH
 70
     0
  9
$DIMBLK1
  1

  9
$DIMBLK2
  1

  9
$DIMSTYLE
  2
STANDARD
  9
$DIMCLRD
 70
     0
  9
$DIMCLRE
 70
     0
  9
$DIMCLRT
 70
     0
  9
$DIMTFAC
 40
1.0
  9
$DIMGAP
 40
0.09
  9
$LUNITS
 70
     2
  9
$LUPREC
 70
     4
  9
$SKETCHINC
 40
0.1
  9
$FILLETRAD
 40
0.0
  9
$AUNITS
 70
     0
  9
$AUPREC
 70
     0
  9
$MENU
  1
.
  9
$ELEVATION
 40
0.0
  9
$PELEVATION
 40
0.0
  9
$THICKNESS
 40
0.0
  9
$LIMCHECK
 70
     0
  9
$BLIPMODE
 70
     0
  9
$CHAMFERA
 40
0.0
  9
$CHAMFERB
 40
0.0
  9
$SKPOLY
 70
     0
  9
$TDCREATE
 40
2458306.6094560190103948
  9
$TDUPDATE
 40
2459026.5981018519960344
  9
$TDINDWG
 40
0.0731224537
  9
$TDUSRTIMER
 40
0.0731223264
  9
$USRTIMER
 70
     1
  9
$ANGBASE
 50
0.0
  9
$ANGDIR
 70
     0
  9
$PDMODE
 70
     0
  9
$PDSIZE
 40
0.3125
  9
$PLINEWID
 40
0.0
  9
$COORDS
 70
     1
  9
$SPLFRAME
 70
     0
  9
$SPLINETYPE
 70
     6
  9
$SPLINESEGS
 70
     8
  9
$ATTDIA
 70
     1
  9
$ATTREQ
 70
     1
  9
$HANDLING
 70
     1
  9
$HANDSEED
  5
1DBF
  9
$SURFTAB1
 70
     6
  9
$SURFTAB2
 70
     6
  9
$SURFTYPE
 70
     6
  9
$SURFU
 70
     6
  9
$SURFV
 70
     6
  9
$UCSNAME
  2

  9
$UCSORG
 10
0.0
 20
0.0
 30
0.0
  9
$UCSXDIR
 10
1.0
 20
0.0
 30
0.0
  9
$UCSYDIR
 10
0.0
 20
1.0
 30
0.0
  9
$PUCSNAME
  2

  9
$PUCSORG
 10
0.0
 20
0.0
 30
0.0
  9
$PUCSXDIR
 10
1.0
 20
0.0
 30
0.0
  9
$PUCSYDIR
 10
0.0
 20
1.0
 30
0.0
  9
$USERI1
 70
     0
  9
$USERI2
 70
     0
  9
$USERI3
 70
     0
  9
$USERI4
 70
     0
  9
$USERI5
 70
     0
  9
$USERR1
 40
0.0
  9
$USERR2
 40
0.0
  9
$USERR3
 40
0.0
  9
$USERR4
 40
0.0
  9
$USERR5
 40
0.0
  9
$WORLDVIEW
 70
     1
  9
$SHADEDGE
 70
     3
  9
$SHADEDIF
 70
    70
  9
$TILEMODE
 70
     1
  9
$MAXACTVP
 70
    64
  9
$PLIMCHECK
 70
     0
  9
$PEXTMIN
 10
1.0000000000000000E+20
 20
1.0000000000000000E+20
 30
1.0000000000000000E+20
  9
$PEXTMAX
 10
-1.0000000000000000E+20
 20
-1.0000000000000000E+20
 30
-1.0000000000000000E+20
  9
$PLIMMIN
 10
0.0
 20
0.0
  9
$PLIMMAX
 10
12.0
 20
9.0
  9
$UNITMODE
 70
     0
  9
$VISRETAIN
 70
     1
  9
$PLINEGEN
 70
     0
  9
$PSLTSCALE
 70
     1
  0
ENDSEC
  0
SECTION
  2
TABLES
  0
TABLE
  2
VPORT
 70
     1
  0
VPORT
  2
*ACTIVE
 70
     0
 10
0.0
 20
0.0
 11
1.0
 21
1.0
 12
144.0789871049917963
 22
0.2572245275968701
 13
0.0
 23
0.0
 14
1.0
 24
1.0
 15
0.0
 25
0.0
 16
0.0
 26
0.0
 36
57.1721640433716018
 17
341.6072862208607717
 27
-8.9699370939904934
 37
0.0
 40
5.4739066211571688
 41
2.1123470522803109
 42
50.0
 43
0.0
 44
0.0
 50
0.0
 51
0.0
 71
     0
 72
   100
 73
     1
 74
     1
 75
     0
 76
     0
 77
     0
 78
     0
  0
ENDTAB
  0
TABLE
  2
LTYPE
 70
     1
  0
LTYPE
  2
CONTINUOUS
 70
     0
  3
Solid line
 72
    65
 73
     0
 40
0.0
  0
ENDTAB
  0
TABLE
  2
LAYER
 70
     2
  0
LAYER
  2
0
 70
     0
 62
   255
  6
CONTINUOUS
  0
LAYER
  2
DEFPOINT
 70
     0
 62
     7
  6
CONTINUOUS
  0
ENDTAB
  0
TABLE
  2
STYLE
 70
     1
  0
STYLE
  2
STANDARD
 70
     0
 40
0.0
 41
0.8
 50
0.0
 71
     0
 42
0.2
  3
txt
  4

  0
ENDTAB
  0
TABLE
  2
VIEW
 70
     0
  0
ENDTAB
  0
TABLE
  2
UCS
 70
     0
  0
ENDTAB
  0
TABLE
  2
APPID
 70
    10
  0
APPID
  2
ACAD
 70
     0
  0
APPID
  2
ACADANNOTATIVE
 70
     0
  0
APPID
  2
ACAD_MLEADERVER
 70
     0
  0
APPID
  2
ACAD_EXEMPT_FROM_CAD_STANDARDS
 70
     0
  0
APPID
  2
ACAD_DSTYLE_DIMJAG
 70
     0
  0
APPID
  2
ACAD_DSTYLE_DIMTALN
 70
     0
  0
APPID
  2
ACAD_NAV_VCDISPLAY
 70
     0
  0
APPID
  2
ACAECLAYERSTANDARD
 70
     0
  0
APPID
  2
ACCMTRANSPARENCY
 70
     0
  0
APPID
  2
ACDBATTR
 70
     0
  0
ENDTAB
  0
TABLE
  2
DIMSTYLE
 70
     1
  0
DIMSTYLE
  2
STANDARD
 70
     0
  3

  4

  5

  6

  7

 40
1.0
 41
0.1875
 42
0.0625
 43
0.38
 44
0.125
 45
0.0
 46
0.0
 47
0.01
 48
0.01
140
0.15625
141
0.09
142
0.0
143
25.3999999999999986
144
1.0
145
0.0
146
1.0
147
0.09
 71
     1
 72
     0
 73
     1
 74
     1
 75
     0
 76
     0
 77
     0
 78
     4
170
     0
171
     2
172
     0
173
     0
174
     0
175
     0
176
     0
177
     0
178
     0
  0
ENDTAB
  0
ENDSEC
  0
SECTION
  2
BLOCKS
  0
BLOCK
  8
0
  2
$MODEL_SPACE
 70
     0
 10
0.0
 20
0.0
 30
0.0
  3
$MODEL_SPACE
  1

  0
ENDBLK
  5
1598
  8
0
  0
BLOCK
 67
     1
  8
0
  2
$PAPER_SPACE
 70
     0
 10
0.0
 20
0.0
 30
0.0
  3
$PAPER_SPACE
  1

  0
ENDBLK
  5
1594
 67
     1
  8
0
  0
ENDSEC
  0
SECTION
  2
ENTITIES
  0
ATTDEF
  5
659
  8
DEFPOINT
 10
488.0874692659058951
 20
-7.1466363485535691
 30
0.0
 40
0.001
  1
K-13459T
  3

  2
MODELNUMBER
 70
     0
1001
ACDBATTR
1070
     0
1070
     1
  0
ATTDEF
  5
65A
  8
DEFPOINT
 10
488.0874692659058951
 20
-7.1483030152202343
 30
0.0
 40
0.001
  1
CORALAIS
  3

  2
TRADENAME
 70
     0
1001
ACDBATTR
1070
     0
1070
     1
  0
ATTDEF
  5
65B
  8
DEFPOINT
 10
488.0874692659058951
 20
-7.1499696818868967
 30
0.0
 40
0.001
  1
TOILET TISSUE HOLDER
  3

  2
PRODUCT
 70
     0
1001
ACDBATTR
1070
     0
1070
     1
  0
LINE
  5
1CFC
  8
0
 10
483.3053385536971973
 20
-11.4286480806718007
 30
0.0
 11
483.2778016942971817
 21
-11.4297539262718004
 31
0.0
  0
LINE
  5
1CFD
  8
0
 10
485.0678867023859766
 20
-7.2911186227642943
 30
0.0
 11
485.0619546160446021
 21
-7.2970507081150897
 31
0.0
  0
LINE
  5
1CFE
  8
0
 10
485.6858417808971922
 20
-6.7132997938717969
 30
0.0
 11
485.7055268202972229
 21
-6.6966461327717957
 31
0.0
  0
LINE
  5
1CFF
  8
0
 10
484.978641076505312
 20
-7.1148431114339159
 30
0.0
 11
484.9681585222530771
 21
-7.1641596518015289
 31
0.0
  0
LINE
  5
1D00
  8
0
 10
484.9540845775550224
 20
-7.2303723556290294
 30
0.0
 11
484.9520886227273877
 21
-7.2397625847563516
 31
0.0
  0
LINE
  5
1D01
  8
0
 10
484.3524503540971864
 20
-10.0608388380717901
 30
0.0
 11
484.870182963202808
 21
-7.6250984165640503
 31
0.0
  0
LINE
  5
1D02
  8
0
 10
485.2867190609973136
 20
-7.1803271085712872
 30
0.0
 11
485.2762365068102781
 21
-7.2296436485739903
 31
0.0
  0
LINE
  5
1D03
  8
0
 10
484.6605283385972029
 20
-10.1263228351717895
 30
0.0
 11
485.1972362108782022
 21
-7.6013108192077361
 31
0.0
  0
LINE
  5
1D04
  8
0
 10
485.6858417808971922
 20
-7.581870426171796
 30
0.0
 11
485.6661567415972058
 21
-7.598540125671799
 31
0.0
  0
LINE
  5
1D05
  8
0
 10
485.0539399111971761
 20
-7.3344271416777254
 30
0.0
 11
485.0539399111971761
 21
-7.328001475905487
 31
0.0
  0
LINE
  5
1D06
  8
0
 10
485.6661567415972058
 20
-6.6966300943717938
 30
0.0
 11
485.6661567415972058
 21
-7.598540125671799
 31
0.0
  0
LINE
  5
1D07
  8
0
 10
485.6858417808971922
 20
-7.581870426171796
 30
0.0
 11
485.6858417808971922
 21
-6.7132997938717969
 31
0.0
  0
LINE
  5
1D08
  8
0
 10
485.7055268202972229
 20
-7.5985240872717981
 30
0.0
 11
485.7055268202972229
 21
-6.6966461327717957
 31
0.0
  0
LINE
  5
1D09
  8
0
 10
488.0472579596972764
 20
-8.299159913171799
 30
0.0
 11
488.0854480800971942
 21
-8.299159913171799
 31
0.0
  0
LINE
  5
1D0A
  8
0
 10
487.8978430191971825
 20
-8.2481764659717989
 30
0.0
 11
487.9120337483972207
 21
-8.2481764659717989
 31
0.0
  0
LINE
  5
1D0B
  8
0
 10
484.7699667361972047
 20
-7.246901311671798
 30
0.0
 11
484.7905862741972101
 21
-7.2651861734718004
 31
0.0
  0
LINE
  5
1D0C
  8
0
 10
485.1974734350064864
 20
-7.2911186227651754
 30
0.0
 11
485.2034055214181762
 21
-7.2970507080827112
 31
0.0
  0
LINE
  5
1D0D
  8
0
 10
485.6858417808971922
 20
-7.581870426171796
 30
0.0
 11
485.7055268202972229
 21
-7.5985240872717981
 31
0.0
  0
LINE
  5
1D0E
  8
0
 10
485.5173801764972268
 20
-7.598540125671799
 30
0.0
 11
485.6661567415972058
 21
-7.598540125671799
 31
0.0
  0
LINE
  5
1D0F
  8
0
 10
485.1830983696279986
 20
-7.3050654249717972
 30
0.0
 11
485.082261767766397
 21
-7.3050654249717972
 31
0.0
  0
LINE
  5
1D10
  8
0
 10
484.9638488974973143
 20
-7.1600587995717957
 30
0.0
 11
484.936364753291798
 21
-7.1620894002721931
 31
0.0
  0
LINE
  5
1D11
  8
0
 10
485.5173801764972268
 20
-6.6966300943717982
 30
0.0
 11
485.6661567415972058
 21
-6.6966300943717982
 31
0.0
  0
LINE
  5
1D12
  8
0
 10
487.9120337483972207
 20
-6.0421285247717966
 30
0.0
 11
487.9120337483972207
 21
-8.2530416952717971
 31
0.0
  0
LINE
  5
1D13
  8
0
 10
488.0854480800971942
 20
-8.299159913171799
 30
0.0
 11
488.0854480800971942
 21
-5.9960103068717991
 31
0.0
  0
ARC
  5
1D14
  8
0
 10
484.61530988119722
 20
-9.5816204717717977
 30
0.0
 40
0.157480315
 50
348.000000000168086
 51
168.0000000002440004
  0
ARC
  5
1D15
  8
0
 10
484.5064893463971885
 20
-10.0935808366717996
 30
0.0
 40
0.157480315
 50
167.999999999999801
 51
347.9999999999997726
  0
ARC
  5
1D16
  8
0
 10
485.1326800686971978
 20
-7.1475851099717964
 30
0.0
 40
0.2027559055
 50
169.2344721479165912
 51
149.3956751029379859
  0
ARC
  5
1D17
  8
0
 10
485.1326800686971978
 20
-7.1475851099717964
 30
0.0
 40
0.1968503937
 50
166.4736030958704021
 51
135.293167294700396
  0
ARC
  5
1D18
  8
0
 10
485.1326800686971978
 20
-7.1475851099717964
 30
0.0
 40
0.1692913386
 50
184.2254851106999922
 51
135.2931672952990141
  0
CIRCLE
  5
1D19
  8
0
 10
485.1326800686971978
 20
-7.1475851099717964
 30
0.0
 40
0.1653543307
  0
CIRCLE
  5
1D1A
  8
0
 10
485.1326800686971978
 20
-7.1475851099717964
 30
0.0
 40
0.157480315
  0
ARC
  5
1D1B
  8
0
 10
485.5178629881971801
 20
-15.5067105106718
 30
0.0
 40
7.9081792226000003
 50
93.3975423156994822
 51
96.8370743652008485
  0
ARC
  5
1D1C
  8
0
 10
485.5174441576971844
 20
-15.4961223578717906
 30
0.0
 40
7.8975822324999987
 50
90.0004641741000171
 51
92.1723913312005863
  0
ARC
  5
1D1D
  8
0
 10
485.6846308298971735
 20
-11.6811477772718
 30
0.0
 40
4.0826771653999989
 50
87.4256946933011676
 51
89.7067470101997486
  0
ARC
  5
1D1E
  8
0
 10
485.6846308298971735
 20
-11.6811477772718
 30
0.0
 40
4.0826771653999989
 50
57.2799669948004535
 51
84.8897930348993555
  0
ARC
  5
1D1F
  8
0
 10
485.6846308298971735
 20
-2.6140224427717982
 30
0.0
 40
4.0826771653999989
 50
270.2932529898001803
 51
302.7200330051995252
  0
ARC
  5
1D20
  8
0
 10
485.6530488584971863
 20
-7.0584782196717981
 30
0.0
 40
1.2558043526
 50
205.3378666140098119
 51
207.2615478810998013
  0
ARC
  5
1D21
  8
0
 10
489.2178956457972276
 20
-11.1912072199717905
 30
0.0
 40
5.9448818898000004
 50
135.2931672907990048
 51
182.2996907588000113
  0
ARC
  5
1D22
  8
0
 10
489.2178956457972276
 20
-11.1912072199717905
 30
0.0
 40
5.9173228346000002
 50
135.2931672907990048
 51
182.2996907588000113
  0
ARC
  5
1D23
  8
0
 10
488.0472579596678884
 20
-8.0480438234870455
 30
0.0
 40
0.251116089684754
 50
238.9547489516303926
 51
270.0000000066929147
  0
ARC
  5
1D24
  8
0
 10
487.897843019163588
 20
-8.2363654426059867
 30
0.0
 40
0.0118110233658113
 50
237.2799527090375022
 51
270.0000001633035822
  0
ARC
  5
1D25
  8
0
 10
487.9238448760988831
 20
-8.2530707936117764
 30
0.0
 40
0.0118111635455207
 50
179.858844240726313
 51
238.9545818022440073
  0
LINE
  5
1D26
  8
0
 10
484.9026444912972238
 20
-7.1423676449717979
 30
0.0
 11
484.9300230186972271
 21
-7.1425785776717978
 31
0.0
  0
LINE
  5
1D27
  8
0
 10
488.0472579596972764
 20
-5.9960103068718018
 30
0.0
 11
488.0854480800971942
 21
-5.9960103068718018
 31
0.0
  0
LINE
  5
1D28
  8
0
 10
487.8978430191971825
 20
-6.046993754071802
 30
0.0
 11
487.9120337483972207
 21
-6.046993754071802
 31
0.0
  0
ARC
  5
1D29
  8
0
 10
488.0472579596678884
 20
-6.2471263965565562
 30
0.0
 40
0.251116089684754
 50
89.9999999933070853
 51
121.0452510483695931
  0
ARC
  5
1D2A
  8
0
 10
487.897843019163588
 20
-6.0588047774376754
 30
0.0
 40
0.0118110233658726
 50
89.9999998367126608
 51
122.7200472908026967
  0
ARC
  5
1D2B
  8
0
 10
487.9238448760988831
 20
-6.0420994264318253
 30
0.0
 40
0.011811163545523
 50
121.0454181977596022
 51
180.1411557592390125
  0
ARC
  5
1D2C
  8
0
 10
485.9326818446410812
 20
-7.9704179059478166
 30
0.0
 40
0.3734701804538607
 50
82.2832605657748388
 51
99.9727708269437159
  0
ARC
  5
1D2D
  8
0
 10
485.9274361837207721
 20
-8.0089212820512348
 30
0.0
 40
0.4123292362227444
 50
72.9575101018288024
 51
82.279357508594984
  0
LINE
  5
1D2E
  8
0
 10
485.6858417808971922
 20
-6.7132997938717969
 30
0.0
 11
485.6661567415972058
 21
-6.6966300943717938
 31
0.0
  0
ARC
  5
1D2F
  8
0
 10
485.152897339423987
 20
-7.9955487979010931
 30
0.0
 40
0.396723479726191
 50
80.5438597775887786
 51
87.7175422123554824
  0
ARC
  5
1D30
  8
0
 10
485.15272215904929
 20
-7.9993800244380253
 30
0.0
 40
0.4005586440437711
 50
87.7143296168822815
 51
104.9783471624609064
  0
ARC
  5
1D31
  8
0
 10
484.5717939244748891
 20
-7.6155675978087132
 30
0.0
 40
0.0394735230283719
 50
207.3509212071373042
 51
276.7334779064432269
  0
ARC
  5
1D32
  8
0
 10
485.5197804494237062
 20
-4.1510389445530542
 30
0.0
 40
2.5455922814436791
 50
252.0525575439017985
 51
269.9459750370260167
  0
ARC
  5
1D33
  8
0
 10
484.7232445966216119
 20
-6.6101975041704639
 30
0.0
 40
0.039350693969668
 50
72.0525575439018837
 51
137.2231545394211878
  0
ARC
  5
1D34
  8
0
 10
485.3968977378656859
 20
-7.274909249289947
 30
0.0
 40
0.9857192125560422
 50
135.4562346839817906
 51
166.5637822517940947
  0
ARC
  5
1D35
  8
0
 10
485.2658231415178989
 20
-7.2043849513834033
 30
0.0
 40
0.8427084114452789
 50
169.157613522126411
 51
205.5088871358190943
  0
ARC
  5
1D36
  8
0
 10
486.2306308591975039
 20
-7.3129766389560116
 30
0.0
 40
1.7006766446713419
 50
154.599105367495099
 51
174.0507136049176893
  0
ARC
  5
1D37
  8
0
 10
487.0387240114843053
 20
-7.3971845381616994
 30
0.0
 40
2.513145421336239
 50
174.05078209361821
 51
183.1686235862096908
  0
ARC
  5
1D38
  8
0
 10
487.0387240114843053
 20
-7.3971845381616994
 30
0.0
 40
2.513145421336239
 50
184.1181097646947933
 51
185.4002379428065979
  0
LINE
  5
1D39
  8
0
 10
485.2114202261971059
 20
-7.3344271416777254
 30
0.0
 11
485.2114202261971059
 21
-7.328001475905487
 31
0.0
  0
LINE
  5
1D3A
  8
0
 10
485.2601666071960835
 20
-7.3052465818560002
 30
0.0
 11
485.2621625621039243
 21
-7.2958563526354752
 31
0.0
  0
ENDSEC
  0
EOF
