  0
SECTION
  2
HEADER
  9
$ACADVER
  1
AC1009
  9
$INSBASE
 10
3437.6046293856497869
 20
290.4748044790046038
 30
0.0
  9
$EXTMIN
 10
3431.6437068672221358
 20
290.4473759878380861
 30
-0.0015258207003583
  9
$EXTMAX
 10
3438.989953786498063
 20
296.3252296839046949
 30
0.0000000349246037
  9
$LIMMIN
 10
0.0
 20
0.0
  9
$LIMMAX
 10
11.6929133858000007
 20
8.2677165353999982
  9
$ORTHOMODE
 70
     0
  9
$REGENMODE
 70
     1
  9
$FILLMODE
 70
     1
  9
$QTEXTMODE
 70
     0
  9
$MIRRTEXT
 70
     0
  9
$DRAGMODE
 70
     2
  9
$LTSCALE
 40
0.6431102362
  9
$OSMODE
 70
  4095
  9
$ATTMODE
 70
     1
  9
$TEXTSIZE
 40
0.2
  9
$TRACEWID
 40
0.05
  9
$TEXTSTYLE
  7
STANDARD
  9
$CLAYER
  8
0
  9
$CELTYPE
  6
BYLAYER
  9
$CECOLOR
 62
   256
  9
$DIMSCALE
 40
1.0
  9
$DIMASZ
 40
0.1875
  9
$DIMEXO
 40
0.0625
  9
$DIMDLI
 40
0.4443307087
  9
$DIMRND
 40
0.0
  9
$DIMDLE
 40
0.0
  9
$DIMEXE
 40
0.125
  9
$DIMTP
 40
0.01
  9
$DIMTM
 40
0.01
  9
$DIMTXT
 40
2.0
  9
$DIMCEN
 40
0.1052362205
  9
$DIMTSZ
 40
0.0
  9
$DIMTOL
 70
     1
  9
$DIMLIM
 70
     0
  9
$DIMTIH
 70
     1
  9
$DIMTOH
 70
     1
  9
$DIMSE1
 70
     0
  9
$DIMSE2
 70
     0
  9
$DIMTAD
 70
     0
  9
$DIMZIN
 70
     0
  9
$DIMBLK
  1

  9
$DIMASO
 70
     1
  9
$DIMSHO
 70
     1
  9
$DIMPOST
  1
\X
  9
$DIMAPOST
  1

  9
$DIMALT
 70
     1
  9
$DIMALTD
 70
     2
  9
$DIMALTF
 40
25.3999999999999986
  9
$DIMLFAC
 40
1.0
  9
$DIMTOFL
 70
     0
  9
$DIMTVP
 40
0.0
  9
$DIMTIX
 70
     0
  9
$DIMSOXD
 70
     0
  9
$DIMSAH
 70
     0
  9
$DIMBLK1
  1

  9
$DIMBLK2
  1

  9
$DIMSTYLE
  2
STANDARD
  9
$DIMCLRD
 70
     0
  9
$DIMCLRE
 70
     0
  9
$DIMCLRT
 70
     0
  9
$DIMTFAC
 40
1.0
  9
$DIMGAP
 40
0.09
  9
$LUNITS
 70
     2
  9
$LUPREC
 70
     4
  9
$SKETCHINC
 40
0.1
  9
$FILLETRAD
 40
0.0
  9
$AUNITS
 70
     0
  9
$AUPREC
 70
     0
  9
$MENU
  1
.
  9
$ELEVATION
 40
0.0
  9
$PELEVATION
 40
0.0
  9
$THICKNESS
 40
0.0
  9
$LIMCHECK
 70
     0
  9
$BLIPMODE
 70
     0
  9
$CHAMFERA
 40
0.0
  9
$CHAMFERB
 40
0.0
  9
$SKPOLY
 70
     0
  9
$TDCREATE
 40
2458059.9475347232073545
  9
$TDUPDATE
 40
2459045.216956018935889
  9
$TDINDWG
 40
0.5435140046
  9
$TDUSRTIMER
 40
0.5435140046
  9
$USRTIMER
 70
     1
  9
$ANGBASE
 50
0.0
  9
$ANGDIR
 70
     0
  9
$PDMODE
 70
     0
  9
$PDSIZE
 40
0.3125
  9
$PLINEWID
 40
0.0
  9
$COORDS
 70
     1
  9
$SPLFRAME
 70
     0
  9
$SPLINETYPE
 70
     6
  9
$SPLINESEGS
 70
     8
  9
$ATTDIA
 70
     1
  9
$ATTREQ
 70
     1
  9
$HANDLING
 70
     1
  9
$HANDSEED
  5
94F1
  9
$SURFTAB1
 70
     6
  9
$SURFTAB2
 70
     6
  9
$SURFTYPE
 70
     6
  9
$SURFU
 70
     6
  9
$SURFV
 70
     6
  9
$UCSNAME
  2

  9
$UCSORG
 10
0.0
 20
0.0
 30
0.0
  9
$UCSXDIR
 10
1.0
 20
0.0
 30
0.0
  9
$UCSYDIR
 10
0.0
 20
1.0
 30
0.0
  9
$PUCSNAME
  2

  9
$PUCSORG
 10
0.0
 20
0.0
 30
0.0
  9
$PUCSXDIR
 10
1.0
 20
0.0
 30
0.0
  9
$PUCSYDIR
 10
0.0
 20
1.0
 30
0.0
  9
$USERI1
 70
     0
  9
$USERI2
 70
     0
  9
$USERI3
 70
     0
  9
$USERI4
 70
     0
  9
$USERI5
 70
     0
  9
$USERR1
 40
0.0
  9
$USERR2
 40
0.0
  9
$USERR3
 40
0.0
  9
$USERR4
 40
0.0
  9
$USERR5
 40
0.0
  9
$WORLDVIEW
 70
     1
  9
$SHADEDGE
 70
     3
  9
$SHADEDIF
 70
    70
  9
$TILEMODE
 70
     1
  9
$MAXACTVP
 70
    64
  9
$PLIMCHECK
 70
     0
  9
$PEXTMIN
 10
1.0000000000000000E+20
 20
1.0000000000000000E+20
 30
1.0000000000000000E+20
  9
$PEXTMAX
 10
-1.0000000000000000E+20
 20
-1.0000000000000000E+20
 30
-1.0000000000000000E+20
  9
$PLIMMIN
 10
0.0
 20
0.0
  9
$PLIMMAX
 10
12.0
 20
9.0
  9
$UNITMODE
 70
     0
  9
$VISRETAIN
 70
     1
  9
$PLINEGEN
 70
     0
  9
$PSLTSCALE
 70
     1
  0
ENDSEC
  0
SECTION
  2
TABLES
  0
TABLE
  2
VPORT
 70
     1
  0
VPORT
  2
*ACTIVE
 70
     0
 10
0.0
 20
0.0
 11
1.0
 21
1.0
 12
-0.0459626418905828
 22
-0.006420176176789
 13
0.0
 23
0.0
 14
1.0
 24
1.0
 15
0.0
 25
0.0
 16
0.0
 26
0.0
 36
34.5175747902186671
 17
3435.36279296875
 27
293.3927230120481795
 37
0.0
 40
5.9472771649177893
 41
2.6528599605522678
 42
50.0
 43
0.0
 44
0.0
 50
0.0
 51
0.0
 71
     0
 72
   100
 73
     1
 74
     1
 75
     0
 76
     0
 77
     0
 78
     0
  0
ENDTAB
  0
TABLE
  2
LTYPE
 70
     2
  0
LTYPE
  2
CONTINUOUS
 70
     0
  3
Solid line
 72
    65
 73
     0
 40
0.0
  0
LTYPE
  2
PHANTOM2
 70
     0
  3
___ _ _ ___ _ _ ___ _ _ ___ _ _
 72
    65
 73
     6
 40
1.25
 49
0.625
 49
-0.125
 49
0.125
 49
-0.125
 49
0.125
 49
-0.125
  0
ENDTAB
  0
TABLE
  2
LAYER
 70
     2
  0
LAYER
  2
0
 70
     0
 62
   255
  6
CONTINUOUS
  0
LAYER
  2
DEFPOINTS
 70
     0
 62
     7
  6
CONTINUOUS
  0
ENDTAB
  0
TABLE
  2
STYLE
 70
     1
  0
STYLE
  2
STANDARD
 70
     0
 40
0.0
 41
0.8
 50
0.0
 71
     0
 42
0.2
  3
txt
  4

  0
ENDTAB
  0
TABLE
  2
VIEW
 70
     0
  0
ENDTAB
  0
TABLE
  2
UCS
 70
     0
  0
ENDTAB
  0
TABLE
  2
APPID
 70
     9
  0
APPID
  2
ACAD
 70
     0
  0
APPID
  2
ACAD_MLEADERVER
 70
     0
  0
APPID
  2
ACAD_EXEMPT_FROM_CAD_STANDARDS
 70
     0
  0
APPID
  2
ACAD_NAV_VCDISPLAY
 70
     0
  0
APPID
  2
ACAECLAYERSTANDARD
 70
     0
  0
APPID
  2
ACCMTRANSPARENCY
 70
     0
  0
APPID
  2
ACAD_DSTYLE_DIMJAG
 70
     0
  0
APPID
  2
ACAD_DSTYLE_DIMTALN
 70
     0
  0
APPID
  2
ACDBATTR
 70
     0
  0
ENDTAB
  0
TABLE
  2
DIMSTYLE
 70
     1
  0
DIMSTYLE
  2
STANDARD
 70
     0
  3

  4

  5

  6

  7

 40
1.0
 41
0.1875
 42
0.0625
 43
0.38
 44
0.125
 45
0.0
 46
0.0
 47
0.01
 48
0.01
140
0.15625
141
0.09
142
0.0
143
25.3999999999999986
144
1.0
145
0.0
146
1.0
147
0.09
 71
     1
 72
     0
 73
     1
 74
     1
 75
     0
 76
     0
 77
     0
 78
     4
170
     0
171
     2
172
     0
173
     0
174
     0
175
     0
176
     0
177
     0
178
     0
  0
ENDTAB
  0
ENDSEC
  0
SECTION
  2
BLOCKS
  0
BLOCK
  8
0
  2
$MODEL_SPACE
 70
     0
 10
0.0
 20
0.0
 30
0.0
  3
$MODEL_SPACE
  1

  0
ENDBLK
  5
21
  8
0
  0
BLOCK
 67
     1
  8
0
  2
$PAPER_SPACE
 70
     0
 10
0.0
 20
0.0
 30
0.0
  3
$PAPER_SPACE
  1

  0
ENDBLK
  5
1D
 67
     1
  8
0
  0
BLOCK
  8
0
  2
_FILLED
 70
     0
 10
0.0
 20
0.0
 30
0.0
  3
_FILLED
  1

  0
SOLID
  5
6F59
  8
0
  6
BYBLOCK
 62
     0
 10
0.0
 20
0.0
 30
0.0
 11
-1.0
 21
0.1666666667
 31
0.0
 12
-1.0
 22
-0.1666666667
 32
0.0
 13
-1.0
 23
-0.1666666667
 33
0.0
  0
ENDBLK
  5
6F5A
  8
0
  6
BYBLOCK
 62
     0
  0
ENDSEC
  0
SECTION
  2
ENTITIES
  0
ATTDEF
  5
3930
  8
DEFPOINTS
 10
3437.6017543366651807
 20
290.4726172480546893
 30
0.0
 40
0.001
  1
K-13460T
  3

  2
MODELNUMBER
 70
     0
1001
ACDBATTR
1070
     0
1070
     1
  0
ATTDEF
  5
3931
  8
DEFPOINTS
 10
3437.6017543366651807
 20
290.4709505813880241
 30
0.0
 40
0.001
  1
SCULPTED
  3

  2
TRADENAME
 70
     0
1001
ACDBATTR
1070
     0
1070
     1
  0
ATTDEF
  5
3932
  8
DEFPOINTS
 10
3437.6017543366651807
 20
290.4692839147214158
 30
0.0
 40
0.001
  1
BATHROOM SINK FAUCET
  3

  2
PRODUCT
 70
     0
1001
ACDBATTR
1070
     0
1070
     1
  0
LINE
  5
93B1
  8
0
 10
3436.3242594333319175
 20
290.4748044790046038
 30
0.0
 11
3438.8849993379672014
 21
290.4748044790046038
 31
0.0
  0
LINE
  5
93B2
  8
0
 10
3438.8849993379672014
 20
290.4748044790046038
 30
0.0
 11
3438.1986966121621663
 21
293.5617291280653944
 31
0.0
  0
ARC
  5
93B3
  8
0
 10
3435.5116971277188895
 20
293.0310996707946174
 30
0.0
 40
2.7388928146826692
 50
11.1710497517674501
 51
39.3887923410858107
  0
ARC
  5
93B4
  8
0
 10
3435.8573425664908427
 20
293.3242392974672725
 30
0.0
 40
2.2857491063243551
 50
39.2079178715286574
 51
77.8358038633693923
  0
ARC
  5
93B5
  8
0
 10
3434.3281287275840441
 20
285.196019640751274
 30
0.0
 40
10.5559469358044709
 50
79.0183378122072639
 51
79.9247032187745532
  0
LINE
  5
93B6
  8
0
 10
3436.1748097171321206
 20
295.5891801338045752
 30
0.0
 11
3432.2540072738770505
 21
296.310321796505491
 31
0.0
  0
ARC
  5
93B7
  8
0
 10
3432.1902270490509181
 20
295.9664192415638126
 30
0.0
 40
0.3497669000552164
 50
79.4932909027827606
 51
259.367112294340302
  0
LINE
  5
93B8
  8
0
 10
3432.1256896262320879
 20
295.6226579793046199
 30
0.0
 11
3434.6996447368028385
 21
295.1454309379034271
 31
0.0
  0
ARC
  5
93B9
  8
0
 10
3434.4752823960789101
 20
294.1693918973923019
 30
0.0
 40
1.0014942179248081
 50
10.7315040099030607
 51
77.0542961694709021
  0
LINE
  5
93BA
  8
0
 10
3435.4592610404320112
 20
294.3558770067045884
 30
0.0
 11
3435.909130103787902
 21
292.3375496455574876
 31
0.0
  0
ARC
  5
93BB
  8
0
 10
3434.8417684873129474
 20
291.8597151625565971
 30
0.0
 40
1.1694385890118779
 50
1.295517273380079
 51
24.1170199644560306
  0
LINE
  5
93BC
  8
0
 10
3436.0109081459308982
 20
291.8861551344546115
 30
0.0
 11
3436.0581444539147924
 21
291.6688934483918274
 31
0.0
  0
ARC
  5
93BD
  8
0
 10
3434.9535324412390764
 20
291.1834438751795915
 30
0.0
 40
1.20657738528522
 50
1.4246937310188581
 51
23.724297389105331
  0
LINE
  5
93BE
  8
0
 10
3436.1597368336188083
 20
291.2134430498867914
 30
0.0
 11
3436.3242594333319175
 21
290.4748044790046038
 31
0.0
  0
ARC
  5
93BF
  8
0
 10
3435.9424799780308604
 20
292.2931361758045909
 30
0.0
 40
0.019685039399932
 50
155.2668789715372952
 51
181.0404992991379061
  0
ARC
  5
93C0
  8
0
 10
3437.1430803494108659
 20
292.3149416421259161
 30
0.0
 40
1.2204834113672129
 50
181.0404992991379061
 51
198.9595006753278028
  0
ARC
  5
93C1
  8
0
 10
3436.0074271310568292
 20
291.9248025673422262
 30
0.0
 40
0.0196850394356152
 50
198.9595006753278028
 51
278.4420867930692793
  0
LINE
  5
93C2
  8
0
 10
3436.0703688022208553
 20
291.6400679322237011
 30
0.0
 11
3436.0577820168409744
 21
291.6378485424465907
 31
0.0
  0
ARC
  5
93C3
  8
0
 10
3436.0612002879320244
 20
291.6184625630045844
 30
0.0
 40
0.0196850393999999
 50
99.9999996215112503
 51
181.1861694255007933
  0
ARC
  5
93C4
  8
0
 10
3437.2814225594270283
 20
291.6437278998315037
 30
0.0
 40
1.2401688488367311
 50
181.1861694255007933
 51
198.8138305559004948
  0
ARC
  5
93C5
  8
0
 10
3436.1261474409011498
 20
291.2501289545875238
 30
0.0
 40
0.0196850393659798
 50
198.8138305559004948
 51
280.0000000303249976
  0
LINE
  5
93C6
  8
0
 10
3436.129565712124986
 20
291.230742975203384
 30
0.0
 11
3436.1589678274581274
 21
291.2359273614426911
 31
0.0
  0
LINE
  5
93C7
  8
0
 10
3434.6996447368028385
 20
295.1454309379034271
 30
0.0
 11
3435.9047311599319983
 21
294.8998906010045857
 31
0.0
  0
ARC
  5
93C8
  8
0
 10
3435.5917323665771619
 20
293.6632587322637846
 30
0.0
 40
1.2756279329908571
 50
23.1592979654280704
 51
75.796393547486133
  0
ARC
  5
93C9
  8
0
 10
3425.3771406335240499
 20
290.3158712499778744
 30
0.0
 40
12.0203496284732392
 50
10.3193426551999305
 51
18.6758345614354617
  0
LINE
  5
93CA
  8
0
 10
3437.6316269026319787
 20
292.483002564104595
 30
0.0
 11
3437.2267591177310351
 21
292.4830025534046172
 31
0.0
  0
ARC
  5
93CB
  8
0
 10
3437.2275459322418101
 20
292.4544740668209784
 30
0.0
 40
0.0285393346772712
 50
91.5798148059060964
 51
174.0912900162632013
  0
LINE
  5
93CC
  8
0
 10
3437.1991582219320662
 20
292.4574120129046264
 30
0.0
 11
3437.1991540277322201
 21
291.2058941741046283
 31
0.0
  0
ARC
  5
93CD
  8
0
 10
3437.2291179131821082
 20
291.2068352650969132
 30
0.0
 40
0.0299786604693454
 50
181.7989263419316899
 51
225.7583460563681115
  0
ARC
  5
93CE
  8
0
 10
3437.4291760707587855
 20
291.4287491462301887
 30
0.0
 40
0.3287377021168505
 50
227.7637649321710001
 51
312.2013366018554734
  0
ARC
  5
93CF
  8
0
 10
3437.6316648573438215
 20
291.2058090181043895
 30
0.0
 40
0.0275678185985659
 50
311.6939534602723825
 51
359.9914047453943908
  0
LINE
  5
93D0
  8
0
 10
3437.6592326756322109
 20
291.2058048825045944
 30
0.0
 11
3437.6592326773320565
 21
292.4574120129046264
 31
0.0
  0
ARC
  5
93D1
  8
0
 10
3437.6308913269272125
 20
292.4545239398952958
 30
0.0
 40
0.0284881222348852
 50
5.8185357602056058
 51
88.5204336225426403
  0
CIRCLE
  5
93D2
  8
0
 10
3437.3236600235318292
 20
292.3462648269045872
 30
0.0
 40
0.0492125983999987
  0
CIRCLE
  5
93D3
  8
0
 10
3437.3236600235318292
 20
292.3462648269045872
 30
0.0
 40
0.0531496063000019
  0
CIRCLE
  5
93D4
  8
0
 10
3437.5347234547321023
 20
292.3462648269045872
 30
0.0
 40
0.0492125984000005
  0
CIRCLE
  5
93D5
  8
0
 10
3437.5347234547321023
 20
292.3462648269045872
 30
0.0
 40
0.0531496062999982
  0
LINE
  5
93D6
  8
0
 10
3437.5088970123138097
 20
291.109824314537093
 30
0.0
 11
3437.6488305127868443
 21
290.4748044790046038
 31
0.0
  0
LINE
  5
93D7
  8
0
 10
3432.7114680105578373
 20
295.5140510793161752
 30
0.0
 11
3433.0703737611320321
 21
295.4178825733046097
 31
0.0
  0
LINE
  5
93D8
  8
0
 10
3433.0703737611320321
 20
295.4178825733046097
 30
0.0
 11
3433.0579506657381899
 21
295.3715180750277227
 31
0.0
  0
LINE
  5
93D9
  8
0
 10
3433.0452599083259884
 20
295.4246118098818101
 30
0.0
 11
3433.0522930954639378
 21
295.4508600212291753
 31
0.0
  0
LINE
  5
93DA
  8
0
 10
3432.2691880153897728
 20
295.5960524991148191
 30
0.0
 11
3432.2658914881330929
 21
295.5837496920102012
 31
0.0
  0
LINE
  5
93DB
  8
0
 10
3432.2383626020850897
 20
295.5911260347932057
 30
0.0
 11
3433.0854795517848288
 21
295.3641417322933194
 31
0.0
  0
ARC
  5
93DC
  8
0
 10
3433.0777149804530382
 20
295.3351639575770946
 30
0.0
 40
0.0299999999242859
 50
344.9999998787624804
 51
75.00000000421403
  0
LINE
  5
93DD
  8
0
 10
3433.1066927551528352
 20
295.3273993861823215
 30
0.0
 11
3433.0533760314428946
 21
295.1284186660917044
 31
0.0
  0
ARC
  5
93DE
  8
0
 10
3432.9857612189298379
 20
295.1465360006544074
 30
0.0
 40
0.0700000048774097
 50
317.9643100861525227
 51
344.9999998787624804
  0
ARC
  5
93DF
  8
0
 10
3433.0266112562949274
 20
295.1097083606135243
 30
0.0
 40
0.0149999992075249
 50
254.9999981463363952
 51
317.9643100861547964
  0
LINE
  5
93E0
  8
0
 10
3433.0227289703548195
 20
295.0952194741101948
 30
0.0
 11
3432.1582450781479565
 21
295.3268572648734107
 31
0.0
  0
ARC
  5
93E1
  8
0
 10
3432.1621273707842192
 20
295.3413461763670966
 30
0.0
 40
0.0150000250795887
 50
192.0358748763588892
 51
254.9999981463363952
  0
ARC
  5
93E2
  8
0
 10
3432.2159173832060333
 20
295.3528148026064741
 30
0.0
 40
0.0699990689264951
 50
164.9998166422753911
 51
192.0358748763588892
  0
LINE
  5
93E3
  8
0
 10
3432.148303532691898
 20
295.3709321111617214
 30
0.0
 11
3432.2016208927630032
 21
295.5699126607651124
 31
0.0
  0
ARC
  5
93E4
  8
0
 10
3432.2305987353879573
 20
295.562147971870786
 30
0.0
 40
0.0300000959468807
 50
75.0014423597658322
 51
164.9998166947459026
  0
ENDSEC
  0
EOF
