  0
SECTION
  2
HEADER
  9
$ACADVER
  1
AC1009
  9
$INSBASE
 10
3445.9412289354600034
 20
291.2472374712697842
 30
0.0
  9
$EXTMIN
 10
3440.1444118888198318
 20
291.2249063250012
 30
-0.0000000349181948
  9
$EXTMAX
 10
3447.2285089030938252
 20
297.1029394126127272
 30
0.0000000814935746
  9
$LIMMIN
 10
0.0
 20
0.0
  9
$LIMMAX
 10
11.6929133858000007
 20
8.2677165353999982
  9
$ORTHOMODE
 70
     0
  9
$REGENMODE
 70
     1
  9
$FILLMODE
 70
     1
  9
$QTEXTMODE
 70
     0
  9
$MIRRTEXT
 70
     0
  9
$DRAGMODE
 70
     2
  9
$LTSCALE
 40
0.6431102362
  9
$OSMODE
 70
  4095
  9
$ATTMODE
 70
     1
  9
$TEXTSIZE
 40
0.2
  9
$TRACEWID
 40
0.05
  9
$TEXTSTYLE
  7
STANDARD
  9
$CLAYER
  8
0
  9
$CELTYPE
  6
BYLAYER
  9
$CECOLOR
 62
   256
  9
$DIMSCALE
 40
1.0
  9
$DIMASZ
 40
0.1875
  9
$DIMEXO
 40
0.0625
  9
$DIMDLI
 40
0.4443307087
  9
$DIMRND
 40
0.0
  9
$DIMDLE
 40
0.0
  9
$DIMEXE
 40
0.125
  9
$DIMTP
 40
0.01
  9
$DIMTM
 40
0.01
  9
$DIMTXT
 40
2.0
  9
$DIMCEN
 40
0.1052362205
  9
$DIMTSZ
 40
0.0
  9
$DIMTOL
 70
     1
  9
$DIMLIM
 70
     0
  9
$DIMTIH
 70
     1
  9
$DIMTOH
 70
     1
  9
$DIMSE1
 70
     0
  9
$DIMSE2
 70
     0
  9
$DIMTAD
 70
     0
  9
$DIMZIN
 70
     0
  9
$DIMBLK
  1

  9
$DIMASO
 70
     1
  9
$DIMSHO
 70
     1
  9
$DIMPOST
  1
\X
  9
$DIMAPOST
  1

  9
$DIMALT
 70
     1
  9
$DIMALTD
 70
     2
  9
$DIMALTF
 40
25.3999999999999986
  9
$DIMLFAC
 40
1.0
  9
$DIMTOFL
 70
     0
  9
$DIMTVP
 40
0.0
  9
$DIMTIX
 70
     0
  9
$DIMSOXD
 70
     0
  9
$DIMSAH
 70
     0
  9
$DIMBLK1
  1

  9
$DIMBLK2
  1

  9
$DIMSTYLE
  2
STANDARD
  9
$DIMCLRD
 70
     0
  9
$DIMCLRE
 70
     0
  9
$DIMCLRT
 70
     0
  9
$DIMTFAC
 40
1.0
  9
$DIMGAP
 40
0.09
  9
$LUNITS
 70
     2
  9
$LUPREC
 70
     4
  9
$SKETCHINC
 40
0.1
  9
$FILLETRAD
 40
0.0
  9
$AUNITS
 70
     0
  9
$AUPREC
 70
     0
  9
$MENU
  1
.
  9
$ELEVATION
 40
0.0
  9
$PELEVATION
 40
0.0
  9
$THICKNESS
 40
0.0
  9
$LIMCHECK
 70
     0
  9
$BLIPMODE
 70
     0
  9
$CHAMFERA
 40
0.0
  9
$CHAMFERB
 40
0.0
  9
$SKPOLY
 70
     0
  9
$TDCREATE
 40
2458060.468368056230247
  9
$TDUPDATE
 40
2459163.6730092600919306
  9
$TDINDWG
 40
0.5482246528
  9
$TDUSRTIMER
 40
0.5482246528
  9
$USRTIMER
 70
     1
  9
$ANGBASE
 50
0.0
  9
$ANGDIR
 70
     0
  9
$PDMODE
 70
     0
  9
$PDSIZE
 40
0.3125
  9
$PLINEWID
 40
0.0
  9
$COORDS
 70
     1
  9
$SPLFRAME
 70
     0
  9
$SPLINETYPE
 70
     6
  9
$SPLINESEGS
 70
     8
  9
$ATTDIA
 70
     1
  9
$ATTREQ
 70
     1
  9
$HANDLING
 70
     1
  9
$HANDSEED
  5
95C6
  9
$SURFTAB1
 70
     6
  9
$SURFTAB2
 70
     6
  9
$SURFTYPE
 70
     6
  9
$SURFU
 70
     6
  9
$SURFV
 70
     6
  9
$UCSNAME
  2

  9
$UCSORG
 10
0.0
 20
0.0
 30
0.0
  9
$UCSXDIR
 10
1.0
 20
0.0
 30
0.0
  9
$UCSYDIR
 10
0.0
 20
1.0
 30
0.0
  9
$PUCSNAME
  2

  9
$PUCSORG
 10
0.0
 20
0.0
 30
0.0
  9
$PUCSXDIR
 10
1.0
 20
0.0
 30
0.0
  9
$PUCSYDIR
 10
0.0
 20
1.0
 30
0.0
  9
$USERI1
 70
     0
  9
$USERI2
 70
     0
  9
$USERI3
 70
     0
  9
$USERI4
 70
     0
  9
$USERI5
 70
     0
  9
$USERR1
 40
0.0
  9
$USERR2
 40
0.0
  9
$USERR3
 40
0.0
  9
$USERR4
 40
0.0
  9
$USERR5
 40
0.0
  9
$WORLDVIEW
 70
     1
  9
$SHADEDGE
 70
     3
  9
$SHADEDIF
 70
    70
  9
$TILEMODE
 70
     1
  9
$MAXACTVP
 70
    64
  9
$PLIMCHECK
 70
     0
  9
$PEXTMIN
 10
1.0000000000000000E+20
 20
1.0000000000000000E+20
 30
1.0000000000000000E+20
  9
$PEXTMAX
 10
-1.0000000000000000E+20
 20
-1.0000000000000000E+20
 30
-1.0000000000000000E+20
  9
$PLIMMIN
 10
0.0
 20
0.0
  9
$PLIMMAX
 10
12.0
 20
9.0
  9
$UNITMODE
 70
     0
  9
$VISRETAIN
 70
     1
  9
$PLINEGEN
 70
     0
  9
$PSLTSCALE
 70
     1
  0
ENDSEC
  0
SECTION
  2
TABLES
  0
TABLE
  2
VPORT
 70
     1
  0
VPORT
  2
*ACTIVE
 70
     0
 10
0.0
 20
0.0
 11
1.0
 21
1.0
 12
8.3236674272066011
 22
0.7711998567587557
 13
0.0
 23
0.0
 14
1.0
 24
1.0
 15
0.0
 25
0.0
 16
0.0
 26
0.0
 36
34.5175747902186671
 17
3435.36279296875
 27
293.3927230120481795
 37
0.0
 40
5.9529124900015402
 41
2.887234042553191
 42
50.0
 43
0.0
 44
0.0
 50
0.0
 51
0.0
 71
     0
 72
   100
 73
     1
 74
     1
 75
     0
 76
     0
 77
     0
 78
     0
  0
ENDTAB
  0
TABLE
  2
LTYPE
 70
     2
  0
LTYPE
  2
CONTINUOUS
 70
     0
  3
Solid line
 72
    65
 73
     0
 40
0.0
  0
LTYPE
  2
PHANTOM2
 70
     0
  3
___ _ _ ___ _ _ ___ _ _ ___ _ _
 72
    65
 73
     6
 40
1.25
 49
0.625
 49
-0.125
 49
0.125
 49
-0.125
 49
0.125
 49
-0.125
  0
ENDTAB
  0
TABLE
  2
LAYER
 70
     2
  0
LAYER
  2
0
 70
     0
 62
   255
  6
CONTINUOUS
  0
LAYER
  2
DEFPOINTS
 70
     0
 62
     7
  6
CONTINUOUS
  0
ENDTAB
  0
TABLE
  2
STYLE
 70
     1
  0
STYLE
  2
STANDARD
 70
     0
 40
0.0
 41
0.8
 50
0.0
 71
     0
 42
0.2
  3
txt
  4

  0
ENDTAB
  0
TABLE
  2
VIEW
 70
     0
  0
ENDTAB
  0
TABLE
  2
UCS
 70
     0
  0
ENDTAB
  0
TABLE
  2
APPID
 70
     9
  0
APPID
  2
ACAD
 70
     0
  0
APPID
  2
ACAD_MLEADERVER
 70
     0
  0
APPID
  2
ACAD_EXEMPT_FROM_CAD_STANDARDS
 70
     0
  0
APPID
  2
ACAD_NAV_VCDISPLAY
 70
     0
  0
APPID
  2
ACAECLAYERSTANDARD
 70
     0
  0
APPID
  2
ACCMTRANSPARENCY
 70
     0
  0
APPID
  2
ACAD_DSTYLE_DIMJAG
 70
     0
  0
APPID
  2
ACAD_DSTYLE_DIMTALN
 70
     0
  0
APPID
  2
ACDBATTR
 70
     0
  0
ENDTAB
  0
TABLE
  2
DIMSTYLE
 70
     1
  0
DIMSTYLE
  2
STANDARD
 70
     0
  3

  4

  5

  6

  7

 40
1.0
 41
0.1875
 42
0.0625
 43
0.38
 44
0.125
 45
0.0
 46
0.0
 47
0.01
 48
0.01
140
0.15625
141
0.09
142
0.0
143
25.3999999999999986
144
1.0
145
0.0
146
1.0
147
0.09
 71
     1
 72
     0
 73
     1
 74
     1
 75
     0
 76
     0
 77
     0
 78
     4
170
     0
171
     2
172
     0
173
     0
174
     0
175
     0
176
     0
177
     0
178
     0
  0
ENDTAB
  0
ENDSEC
  0
SECTION
  2
BLOCKS
  0
BLOCK
  8
0
  2
$MODEL_SPACE
 70
     0
 10
0.0
 20
0.0
 30
0.0
  3
$MODEL_SPACE
  1

  0
ENDBLK
  5
21
  8
0
  0
BLOCK
 67
     1
  8
0
  2
$PAPER_SPACE
 70
     0
 10
0.0
 20
0.0
 30
0.0
  3
$PAPER_SPACE
  1

  0
ENDBLK
  5
1D
 67
     1
  8
0
  0
ENDSEC
  0
SECTION
  2
ENTITIES
  0
ATTDEF
  5
3930
  8
DEFPOINTS
 10
3445.9381345380138555
 20
291.2429879658824916
 30
0.0
 40
0.001
  1
K-13461T
  3

  2
MODELNUMBER
 70
     0
1001
ACDBATTR
1070
     0
1070
     1
  0
ATTDEF
  5
3931
  8
DEFPOINTS
 10
3445.9381345380138555
 20
291.2413212992158265
 30
0.0
 40
0.001
  1
CONTEMPORARY
  3

  2
TRADENAME
 70
     0
1001
ACDBATTR
1070
     0
1070
     1
  0
ATTDEF
  5
3932
  8
DEFPOINTS
 10
3445.9381345380138555
 20
291.2396546325492181
 30
0.0
 40
0.001
  1
BATHROOM SINK FAUCET
  3

  2
PRODUCT
 70
     0
1001
ACDBATTR
1070
     0
1070
     1
  0
LINE
  5
94DC
  8
0
 10
3444.6608589831430436
 20
291.2472374712697842
 30
0.0
 11
3447.2215988877778727
 21
291.2472374712697842
 31
0.0
  0
LINE
  5
94DD
  8
0
 10
3447.2215988877778727
 20
291.2472374712697842
 30
0.0
 11
3446.5352961619742018
 21
294.3341621203305749
 31
0.0
  0
ARC
  5
94DE
  8
0
 10
3443.8482966775309251
 20
293.8035326630597979
 30
0.0
 40
2.7388928146826692
 50
11.1710497517674501
 51
39.3887923410908485
  0
ARC
  5
94DF
  8
0
 10
3444.1939421163019688
 20
294.0966722897325099
 30
0.0
 40
2.2857491063243551
 50
39.2079178715286503
 51
77.8358038633686959
  0
ARC
  5
94E0
  8
0
 10
3442.6647282773951702
 20
285.9684526330165113
 30
0.0
 40
10.5559469358044709
 50
79.0183378122072497
 51
79.9247032187745674
  0
LINE
  5
94E1
  8
0
 10
3444.5114092669427919
 20
296.3616131260698126
 30
0.0
 11
3440.5906068236881765
 21
297.0827547887707851
 31
0.0
  0
ARC
  5
94E2
  8
0
 10
3440.5268265988620442
 20
296.7388522338291068
 30
0.0
 40
0.3497669000552164
 50
79.4932909027827606
 51
259.3671122943396767
  0
LINE
  5
94E3
  8
0
 10
3440.462289176043214
 20
296.3950909715698003
 30
0.0
 11
3443.0362442866139645
 21
295.9178639301686076
 31
0.0
  0
ARC
  5
94E4
  8
0
 10
3442.8118819458900361
 20
294.9418248896574823
 30
0.0
 40
1.0014942179248081
 50
10.7315040099030803
 51
77.0542961694709021
  0
LINE
  5
94E5
  8
0
 10
3443.7958605902431373
 20
295.1283099989698258
 30
0.0
 11
3444.2457296535990281
 21
293.1099826378227249
 31
0.0
  0
ARC
  5
94E6
  8
0
 10
3443.1783680371240735
 20
292.6321481548218912
 30
0.0
 40
1.1694385890118779
 50
1.2955172733800779
 51
24.1170199644560199
  0
LINE
  5
94E7
  8
0
 10
3444.3475076957429337
 20
292.6585881267196783
 30
0.0
 11
3444.3947440037268279
 21
292.4413264406571216
 31
0.0
  0
ARC
  5
94E8
  8
0
 10
3443.2901319910502025
 20
291.955876867444772
 30
0.0
 40
1.20657738528522
 50
1.4246937310188801
 51
23.7242973891053417
  0
LINE
  5
94E9
  8
0
 10
3444.4963363834299344
 20
291.9858760421519719
 30
0.0
 11
3444.6608589831430436
 21
291.2472374712697842
 31
0.0
  0
ARC
  5
94EA
  8
0
 10
3444.2790795278428959
 20
293.0655691680698283
 30
0.0
 40
0.019685039399932
 50
155.2668789715314119
 51
181.0404992991379061
  0
ARC
  5
94EB
  8
0
 10
3445.4796798992229014
 20
293.0873746343910966
 30
0.0
 40
1.2204834113672129
 50
181.0404992991379061
 51
198.9595006753216069
  0
ARC
  5
94EC
  8
0
 10
3444.3440266808679553
 20
292.6972355596074067
 30
0.0
 40
0.0196850394356152
 50
198.9595006753216069
 51
278.4420867930688246
  0
LINE
  5
94ED
  8
0
 10
3444.4069683520319813
 20
292.4125009244888815
 30
0.0
 11
3444.3943815666521004
 21
292.410281534711828
 31
0.0
  0
ARC
  5
94EE
  8
0
 10
3444.3977998377431504
 20
292.3908955552698217
 30
0.0
 40
0.0196850393999999
 50
99.9999996215106535
 51
181.1861694255007933
  0
ARC
  5
94EF
  8
0
 10
3445.6180221092381544
 20
292.4161608920966842
 30
0.0
 40
1.2401688488367311
 50
181.1861694255007933
 51
198.8138305558942989
  0
ARC
  5
94F0
  8
0
 10
3444.4627469907118211
 20
292.0225619468527043
 30
0.0
 40
0.0196850393659798
 50
198.8138305558942989
 51
280.0000000303249976
  0
LINE
  5
94F1
  8
0
 10
3444.4661652619361121
 20
292.0031759674686214
 30
0.0
 11
3444.495567377270163
 21
292.0083603537078716
 31
0.0
  0
LINE
  5
94F2
  8
0
 10
3443.0362442866139645
 20
295.9178639301686076
 30
0.0
 11
3444.2413307097431243
 21
295.6723235932698799
 31
0.0
  0
ARC
  5
94F3
  8
0
 10
3443.9283319163891974
 20
294.4356917245290219
 30
0.0
 40
1.2756279329908571
 50
23.1592979654340709
 51
75.796393547486133
  0
ARC
  5
94F4
  8
0
 10
3433.713740183335176
 20
291.0883042422431117
 30
0.0
 40
12.0203496284732392
 50
10.3193426552063308
 51
18.6758345614354795
  0
LINE
  5
94F5
  8
0
 10
3445.5396560826889072
 20
293.2415618515689175
 30
0.0
 11
3445.9854300625988799
 21
291.2472374712697842
 31
0.0
  0
LINE
  5
94F6
  8
0
 10
3441.4146665995058356
 20
296.2185143645302219
 30
0.0
 11
3441.4121847832111598
 21
296.2092519252055922
 31
0.0
  0
LINE
  5
94F7
  8
0
 10
3441.2943967792411968
 20
296.2408131257864738
 30
0.0
 11
3441.439713669259163
 21
296.2018755824711889
 31
0.0
  0
ARC
  5
94F8
  8
0
 10
3441.4319490979269176
 20
296.1728978077550778
 30
0.0
 40
0.0299999999242859
 50
344.9999998787686764
 51
75.0000000042132058
  0
LINE
  5
94F9
  8
0
 10
3441.4609268726271694
 20
296.1651332363603046
 30
0.0
 11
3441.4076101489167741
 21
295.9661525162695739
 31
0.0
  0
ARC
  5
94FA
  8
0
 10
3441.3399953364041721
 20
295.9842698508322769
 30
0.0
 40
0.0700000048774097
 50
317.9643100861525227
 51
344.9999998787686764
  0
ARC
  5
94FB
  8
0
 10
3441.3808453737701711
 20
295.9474422107913938
 30
0.0
 40
0.0149999992075249
 50
254.9999981463363099
 51
317.9643100861525227
  0
LINE
  5
94FC
  8
0
 10
3441.3769630878291537
 20
295.932953324288178
 30
0.0
 11
3440.5124791956209265
 21
296.1645911150512802
 31
0.0
  0
ARC
  5
94FD
  8
0
 10
3440.5163614882580987
 20
296.179080026545023
 30
0.0
 40
0.0150000250795887
 50
192.035874876355706
 51
254.9999981463363099
  0
ARC
  5
94FE
  8
0
 10
3440.5701515006790032
 20
296.1905486527844005
 30
0.0
 40
0.0699990689264951
 50
164.9998166422691099
 51
192.035874876355706
  0
LINE
  5
94FF
  8
0
 10
3440.5025376501657774
 20
296.2086659613397046
 30
0.0
 11
3440.548221593136077
 21
296.379158575157021
 31
0.0
  0
ENDSEC
  0
EOF
