  0
SECTION
  2
HEADER
  9
$ACADVER
  1
AC1009
  9
$INSBASE
 10
3803.2971742276440636
 20
123.395466477654395
 30
0.0
  9
$EXTMIN
 10
3802.0767017866937749
 20
123.3903351845153935
 30
0.0
  9
$EXTMAX
 10
3804.5176466685948071
 20
128.600190887154298
 30
0.0
  9
$LIMMIN
 10
0.0
 20
0.0
  9
$LIMMAX
 10
11.6929133858000007
 20
8.2677165353999982
  9
$ORTHOMODE
 70
     1
  9
$REGENMODE
 70
     1
  9
$FILLMODE
 70
     1
  9
$QTEXTMODE
 70
     0
  9
$MIRRTEXT
 70
     0
  9
$DRAGMODE
 70
     2
  9
$LTSCALE
 40
0.6431102362
  9
$OSMODE
 70
  4095
  9
$ATTMODE
 70
     1
  9
$TEXTSIZE
 40
0.2
  9
$TRACEWID
 40
0.05
  9
$TEXTSTYLE
  7
STANDARD
  9
$CLAYER
  8
0
  9
$CELTYPE
  6
BYLAYER
  9
$CECOLOR
 62
   256
  9
$DIMSCALE
 40
1.0
  9
$DIMASZ
 40
0.1875
  9
$DIMEXO
 40
0.0625
  9
$DIMDLI
 40
0.4443307087
  9
$DIMRND
 40
0.0
  9
$DIMDLE
 40
0.0
  9
$DIMEXE
 40
0.125
  9
$DIMTP
 40
0.01
  9
$DIMTM
 40
0.01
  9
$DIMTXT
 40
2.0
  9
$DIMCEN
 40
0.1052362205
  9
$DIMTSZ
 40
0.0
  9
$DIMTOL
 70
     1
  9
$DIMLIM
 70
     0
  9
$DIMTIH
 70
     1
  9
$DIMTOH
 70
     1
  9
$DIMSE1
 70
     0
  9
$DIMSE2
 70
     0
  9
$DIMTAD
 70
     0
  9
$DIMZIN
 70
     0
  9
$DIMBLK
  1

  9
$DIMASO
 70
     1
  9
$DIMSHO
 70
     1
  9
$DIMPOST
  1
\X
  9
$DIMAPOST
  1

  9
$DIMALT
 70
     1
  9
$DIMALTD
 70
     2
  9
$DIMALTF
 40
25.3999999999999986
  9
$DIMLFAC
 40
1.0
  9
$DIMTOFL
 70
     0
  9
$DIMTVP
 40
0.0
  9
$DIMTIX
 70
     0
  9
$DIMSOXD
 70
     0
  9
$DIMSAH
 70
     0
  9
$DIMBLK1
  1

  9
$DIMBLK2
  1

  9
$DIMSTYLE
  2
STANDARD
  9
$DIMCLRD
 70
     0
  9
$DIMCLRE
 70
     0
  9
$DIMCLRT
 70
     0
  9
$DIMTFAC
 40
1.0
  9
$DIMGAP
 40
0.09
  9
$LUNITS
 70
     2
  9
$LUPREC
 70
     4
  9
$SKETCHINC
 40
0.1
  9
$FILLETRAD
 40
0.0
  9
$AUNITS
 70
     0
  9
$AUPREC
 70
     0
  9
$MENU
  1
.
  9
$ELEVATION
 40
0.0
  9
$PELEVATION
 40
0.0
  9
$THICKNESS
 40
0.0
  9
$LIMCHECK
 70
     0
  9
$BLIPMODE
 70
     0
  9
$CHAMFERA
 40
0.0
  9
$CHAMFERB
 40
0.0
  9
$SKPOLY
 70
     0
  9
$TDCREATE
 40
2458060.468368056230247
  9
$TDUPDATE
 40
2459163.8290046299807727
  9
$TDINDWG
 40
0.3054700231
  9
$TDUSRTIMER
 40
0.3054700231
  9
$USRTIMER
 70
     1
  9
$ANGBASE
 50
0.0
  9
$ANGDIR
 70
     0
  9
$PDMODE
 70
     0
  9
$PDSIZE
 40
0.3125
  9
$PLINEWID
 40
0.0
  9
$COORDS
 70
     1
  9
$SPLFRAME
 70
     0
  9
$SPLINETYPE
 70
     6
  9
$SPLINESEGS
 70
     8
  9
$ATTDIA
 70
     1
  9
$ATTREQ
 70
     1
  9
$HANDLING
 70
     1
  9
$HANDSEED
  5
67CA
  9
$SURFTAB1
 70
     6
  9
$SURFTAB2
 70
     6
  9
$SURFTYPE
 70
     6
  9
$SURFU
 70
     6
  9
$SURFV
 70
     6
  9
$UCSNAME
  2

  9
$UCSORG
 10
0.0
 20
0.0
 30
0.0
  9
$UCSXDIR
 10
1.0
 20
0.0
 30
0.0
  9
$UCSYDIR
 10
0.0
 20
1.0
 30
0.0
  9
$PUCSNAME
  2

  9
$PUCSORG
 10
0.0
 20
0.0
 30
0.0
  9
$PUCSXDIR
 10
1.0
 20
0.0
 30
0.0
  9
$PUCSYDIR
 10
0.0
 20
1.0
 30
0.0
  9
$USERI1
 70
     0
  9
$USERI2
 70
     0
  9
$USERI3
 70
     0
  9
$USERI4
 70
     0
  9
$USERI5
 70
     0
  9
$USERR1
 40
0.0
  9
$USERR2
 40
0.0
  9
$USERR3
 40
0.0
  9
$USERR4
 40
0.0
  9
$USERR5
 40
0.0
  9
$WORLDVIEW
 70
     1
  9
$SHADEDGE
 70
     3
  9
$SHADEDIF
 70
    70
  9
$TILEMODE
 70
     1
  9
$MAXACTVP
 70
    64
  9
$PLIMCHECK
 70
     0
  9
$PEXTMIN
 10
1.0000000000000000E+20
 20
1.0000000000000000E+20
 30
1.0000000000000000E+20
  9
$PEXTMAX
 10
-1.0000000000000000E+20
 20
-1.0000000000000000E+20
 30
-1.0000000000000000E+20
  9
$PLIMMIN
 10
0.0
 20
0.0
  9
$PLIMMAX
 10
12.0
 20
9.0
  9
$UNITMODE
 70
     0
  9
$VISRETAIN
 70
     1
  9
$PLINEGEN
 70
     0
  9
$PSLTSCALE
 70
     1
  0
ENDSEC
  0
SECTION
  2
TABLES
  0
TABLE
  2
VPORT
 70
     1
  0
VPORT
  2
*ACTIVE
 70
     0
 10
0.0
 20
0.0
 11
1.0
 21
1.0
 12
-0.2468931551682099
 22
0.0000008390849899
 13
0.0
 23
0.0
 14
1.0
 24
1.0
 15
0.0
 25
0.0
 16
0.0
 26
0.0
 36
17.1152628219792007
 17
3803.5440673828129547
 27
125.9952621967499056
 37
0.0
 40
5.2788604139321782
 41
2.8407079646017701
 42
50.0
 43
0.0
 44
0.0
 50
0.0
 51
0.0
 71
     0
 72
   100
 73
     1
 74
     1
 75
     0
 76
     0
 77
     0
 78
     0
  0
ENDTAB
  0
TABLE
  2
LTYPE
 70
     2
  0
LTYPE
  2
CONTINUOUS
 70
     0
  3
Solid line
 72
    65
 73
     0
 40
0.0
  0
LTYPE
  2
PHANTOM2
 70
     0
  3
___ _ _ ___ _ _ ___ _ _ ___ _ _
 72
    65
 73
     6
 40
1.25
 49
0.625
 49
-0.125
 49
0.125
 49
-0.125
 49
0.125
 49
-0.125
  0
ENDTAB
  0
TABLE
  2
LAYER
 70
     2
  0
LAYER
  2
0
 70
     0
 62
   255
  6
CONTINUOUS
  0
LAYER
  2
DEFPOINTS
 70
     0
 62
     7
  6
CONTINUOUS
  0
ENDTAB
  0
TABLE
  2
STYLE
 70
     1
  0
STYLE
  2
STANDARD
 70
     0
 40
0.0
 41
0.8
 50
0.0
 71
     0
 42
0.2
  3
txt
  4

  0
ENDTAB
  0
TABLE
  2
VIEW
 70
     0
  0
ENDTAB
  0
TABLE
  2
UCS
 70
     0
  0
ENDTAB
  0
TABLE
  2
APPID
 70
     9
  0
APPID
  2
ACAD
 70
     0
  0
APPID
  2
ACAD_MLEADERVER
 70
     0
  0
APPID
  2
ACAD_EXEMPT_FROM_CAD_STANDARDS
 70
     0
  0
APPID
  2
ACAD_NAV_VCDISPLAY
 70
     0
  0
APPID
  2
ACAECLAYERSTANDARD
 70
     0
  0
APPID
  2
ACCMTRANSPARENCY
 70
     0
  0
APPID
  2
ACAD_DSTYLE_DIMJAG
 70
     0
  0
APPID
  2
ACAD_DSTYLE_DIMTALN
 70
     0
  0
APPID
  2
ACDBATTR
 70
     0
  0
ENDTAB
  0
TABLE
  2
DIMSTYLE
 70
     1
  0
DIMSTYLE
  2
STANDARD
 70
     0
  3

  4

  5

  6

  7

 40
1.0
 41
0.1875
 42
0.0625
 43
0.38
 44
0.125
 45
0.0
 46
0.0
 47
0.01
 48
0.01
140
0.15625
141
0.09
142
0.0
143
25.3999999999999986
144
1.0
145
0.0
146
1.0
147
0.09
 71
     1
 72
     0
 73
     1
 74
     1
 75
     0
 76
     0
 77
     0
 78
     4
170
     0
171
     2
172
     0
173
     0
174
     0
175
     0
176
     0
177
     0
178
     0
  0
ENDTAB
  0
ENDSEC
  0
SECTION
  2
BLOCKS
  0
BLOCK
  8
0
  2
$MODEL_SPACE
 70
     0
 10
0.0
 20
0.0
 30
0.0
  3
$MODEL_SPACE
  1

  0
ENDBLK
  5
21
  8
0
  0
BLOCK
 67
     1
  8
0
  2
$PAPER_SPACE
 70
     0
 10
0.0
 20
0.0
 30
0.0
  3
$PAPER_SPACE
  1

  0
ENDBLK
  5
1D
 67
     1
  8
0
  0
ENDSEC
  0
SECTION
  2
ENTITIES
  0
ATTDEF
  5
3930
  8
DEFPOINTS
 10
3803.2926696285849175
 20
123.3936685178487949
 30
0.0
 40
0.001
  1
K-13467T
  3

  2
MODELNUMBER
 70
     0
1001
ACDBATTR
1070
     0
1070
     1
  0
ATTDEF
  5
3931
  8
DEFPOINTS
 10
3803.2926696285849175
 20
123.3920018511821013
 30
0.0
 40
0.001
  1
MODERN
  3

  2
TRADENAME
 70
     0
1001
ACDBATTR
1070
     0
1070
     1
  0
ATTDEF
  5
3932
  8
DEFPOINTS
 10
3803.2926696285849175
 20
123.3903351845153935
 30
0.0
 40
0.001
  1
BATHROOM SINK FAUCET
  3

  2
PRODUCT
 70
     0
1001
ACDBATTR
1070
     0
1070
     1
  0
LINE
  5
6319
  8
0
 10
3802.0767017866937749
 20
123.395466477654395
 30
0.0
 11
3804.5176466685948071
 21
123.395466477654395
 31
0.0
  0
LINE
  5
631C
  8
0
 10
3802.0767017866937749
 20
123.395466477654395
 30
0.0
 11
3802.0767017866937749
 21
128.5501908871544003
 31
0.0
  0
LINE
  5
631D
  8
0
 10
3802.7625402810940614
 20
123.395466477654395
 30
0.0
 11
3802.7625402810940614
 21
127.6542220131268977
 31
0.0
  0
LINE
  5
631F
  8
0
 10
3802.0913185111949133
 20
128.3265057820543973
 30
0.0
 11
3802.7625402810858759
 21
127.6542220131626948
 31
0.0
  0
LINE
  5
6323
  8
0
 10
3803.7964364563940762
 20
127.6395609658544004
 30
0.0
 11
3802.7979119987940066
 21
127.6395609658544004
 31
0.0
  0
LINE
  5
6324
  8
0
 10
3802.1267017870941345
 20
128.600190887154298
 30
0.0
 11
3804.4676466683517901
 21
128.600190887154298
 31
0.0
  0
ARC
  5
6325
  8
0
 10
3802.1303979444610377
 20
128.5464947293694991
 30
0.0
 40
0.0538232193509787
 50
93.9377248933601976
 51
176.0622748291465882
  0
ARC
  5
6326
  8
0
 10
3802.1331277137628604
 20
128.364491893696794
 30
0.0
 40
0.0564885306687095
 50
182.697722433994187
 51
222.2569868165288938
  0
ARC
  5
6327
  8
0
 10
3802.7979119988940511
 20
127.689560965854298
 30
0.0
 40
0.0499999999999968
 50
224.9734509626310057
 51
269.9999999287132937
  0
ARC
  5
632A
  8
0
 10
3802.1319328472031884
 20
128.385483137264913
 30
0.0
 40
0.0593194762875861
 50
201.3965131200081942
 51
264.9408266064601776
  0
LINE
  5
632B
  8
0
 10
3804.5176466685948071
 20
123.395466477654395
 30
0.0
 11
3804.5176466685948071
 21
128.5501908871544003
 31
0.0
  0
LINE
  5
632C
  8
0
 10
3803.8318081741940659
 20
123.395466477654395
 30
0.0
 11
3803.8318081741940659
 21
127.6542220131268977
 31
0.0
  0
LINE
  5
632D
  8
0
 10
3804.503029944095033
 20
128.3265057820543973
 30
0.0
 11
3803.8318081742031609
 21
127.6542220131626948
 31
0.0
  0
ARC
  5
632E
  8
0
 10
3804.4639505108270896
 20
128.5464947293694991
 30
0.0
 40
0.0538232193509787
 50
3.937725170853331
 51
86.0622751066398166
  0
ARC
  5
632F
  8
0
 10
3804.4612207415261764
 20
128.364491893696794
 30
0.0
 40
0.0564885306687095
 50
317.7430131834710778
 51
357.3022775660057277
  0
ARC
  5
6330
  8
0
 10
3803.7964364563940762
 20
127.689560965854298
 30
0.0
 40
0.0499999999999968
 50
270.00000007128682
 51
315.0265490373690227
  0
ARC
  5
6331
  8
0
 10
3804.4624156080872126
 20
128.385483137264913
 30
0.0
 40
0.0593194762875861
 50
275.0591733935398224
 51
338.6034868799918058
  0
LINE
  5
6332
  8
0
 10
3802.1267017866730384
 20
128.3263947604656039
 30
0.0
 11
3804.4676466686159984
 21
128.3263947604656039
 31
0.0
  0
CIRCLE
  5
6333
  8
0
 10
3803.2971742276440636
 20
124.3607389890276949
 30
0.0
 40
0.2113458169266535
  0
CIRCLE
  5
6334
  8
0
 10
3803.2971742276440636
 20
125.0280340112822017
 30
0.0
 40
0.2113458169266535
  0
ARC
  5
646D
  8
0
 10
3803.2972077251051815
 20
124.3566299606828949
 30
0.0
 40
0.1935909748858279
 50
46.1011573199632565
 51
136.6568012300141959
  0
ARC
  5
646E
  8
0
 10
3803.3056628169729265
 20
124.3654164563356943
 30
0.0
 40
0.1813970795135454
 50
319.9478961597939133
 51
46.1011573199632565
  0
ARC
  5
646F
  8
0
 10
3803.2971908726999573
 20
124.3725384003953991
 30
0.0
 40
0.192464867320547
 50
229.375635322722502
 51
319.9478961597939133
  0
ARC
  5
6470
  8
0
 10
3803.2911042346981958
 20
124.3654431065565973
 30
0.0
 40
0.1831165863649505
 50
137.3514940123230872
 51
229.375635322722502
  0
ARC
  5
6471
  8
0
 10
3803.2970188216559109
 20
125.0259843163075004
 30
0.0
 40
0.190772235495566
 50
6.94087963521494
 51
116.3013617078514983
  0
ARC
  5
6472
  8
0
 10
3803.2992368627619726
 20
125.0341155604122036
 30
0.0
 40
0.1877500725510083
 50
261.6425355366429244
 51
4.5587608679921718
  0
ARC
  5
6473
  8
0
 10
3803.2943800079260654
 20
125.0347168814113985
 30
0.0
 40
0.1877028482636999
 50
189.8996952429955911
 51
263.136181449151195
  0
ARC
  5
6474
  8
0
 10
3803.2908038374907846
 20
125.030987121723598
 30
0.0
 40
0.1835641881293884
 50
115.2541473592859944
 51
188.9447237726218987
  0
ENDSEC
  0
EOF
