  0
SECTION
  2
HEADER
  9
$ACADVER
  1
AC1009
  9
$INSBASE
 10
3745.7971478421391112
 20
19.17423505217441
 30
0.0
  9
$EXTMIN
 10
3740.5943663108810142
 20
17.6737674558085409
 30
-0.0000000349181948
  9
$EXTMAX
 10
3750.908816799214037
 20
20.6754970228718697
 30
0.0000000814935746
  9
$LIMMIN
 10
0.0
 20
0.0
  9
$LIMMAX
 10
11.6929133858000007
 20
8.2677165353999982
  9
$ORTHOMODE
 70
     1
  9
$REGENMODE
 70
     1
  9
$FILLMODE
 70
     1
  9
$QTEXTMODE
 70
     0
  9
$MIRRTEXT
 70
     0
  9
$DRAGMODE
 70
     2
  9
$LTSCALE
 40
0.6431102362
  9
$OSMODE
 70
  4095
  9
$ATTMODE
 70
     1
  9
$TEXTSIZE
 40
0.2
  9
$TRACEWID
 40
0.05
  9
$TEXTSTYLE
  7
STANDARD
  9
$CLAYER
  8
0
  9
$CELTYPE
  6
BYLAYER
  9
$CECOLOR
 62
   256
  9
$DIMSCALE
 40
1.0
  9
$DIMASZ
 40
0.1875
  9
$DIMEXO
 40
0.0625
  9
$DIMDLI
 40
0.4443307087
  9
$DIMRND
 40
0.0
  9
$DIMDLE
 40
0.0
  9
$DIMEXE
 40
0.125
  9
$DIMTP
 40
0.01
  9
$DIMTM
 40
0.01
  9
$DIMTXT
 40
2.0
  9
$DIMCEN
 40
0.1052362205
  9
$DIMTSZ
 40
0.0
  9
$DIMTOL
 70
     1
  9
$DIMLIM
 70
     0
  9
$DIMTIH
 70
     1
  9
$DIMTOH
 70
     1
  9
$DIMSE1
 70
     0
  9
$DIMSE2
 70
     0
  9
$DIMTAD
 70
     0
  9
$DIMZIN
 70
     0
  9
$DIMBLK
  1

  9
$DIMASO
 70
     1
  9
$DIMSHO
 70
     1
  9
$DIMPOST
  1
\X
  9
$DIMAPOST
  1

  9
$DIMALT
 70
     1
  9
$DIMALTD
 70
     2
  9
$DIMALTF
 40
25.3999999999999986
  9
$DIMLFAC
 40
1.0
  9
$DIMTOFL
 70
     0
  9
$DIMTVP
 40
0.0
  9
$DIMTIX
 70
     0
  9
$DIMSOXD
 70
     0
  9
$DIMSAH
 70
     0
  9
$DIMBLK1
  1

  9
$DIMBLK2
  1

  9
$DIMSTYLE
  2
STANDARD
  9
$DIMCLRD
 70
     0
  9
$DIMCLRE
 70
     0
  9
$DIMCLRT
 70
     0
  9
$DIMTFAC
 40
1.0
  9
$DIMGAP
 40
0.09
  9
$LUNITS
 70
     2
  9
$LUPREC
 70
     4
  9
$SKETCHINC
 40
0.1
  9
$FILLETRAD
 40
0.0
  9
$AUNITS
 70
     0
  9
$AUPREC
 70
     0
  9
$MENU
  1
.
  9
$ELEVATION
 40
0.0
  9
$PELEVATION
 40
0.0
  9
$THICKNESS
 40
0.0
  9
$LIMCHECK
 70
     0
  9
$BLIPMODE
 70
     0
  9
$CHAMFERA
 40
0.0
  9
$CHAMFERB
 40
0.0
  9
$SKPOLY
 70
     0
  9
$TDCREATE
 40
2458060.468368056230247
  9
$TDUPDATE
 40
2459844.7717476850375533
  9
$TDINDWG
 40
0.4675649306
  9
$TDUSRTIMER
 40
0.4675649306
  9
$USRTIMER
 70
     1
  9
$ANGBASE
 50
0.0
  9
$ANGDIR
 70
     0
  9
$PDMODE
 70
     0
  9
$PDSIZE
 40
0.3125
  9
$PLINEWID
 40
0.0
  9
$COORDS
 70
     1
  9
$SPLFRAME
 70
     0
  9
$SPLINETYPE
 70
     6
  9
$SPLINESEGS
 70
     8
  9
$ATTDIA
 70
     1
  9
$ATTREQ
 70
     1
  9
$HANDLING
 70
     1
  9
$HANDSEED
  5
DE70
  9
$SURFTAB1
 70
     6
  9
$SURFTAB2
 70
     6
  9
$SURFTYPE
 70
     6
  9
$SURFU
 70
     6
  9
$SURFV
 70
     6
  9
$UCSNAME
  2

  9
$UCSORG
 10
0.0
 20
0.0
 30
0.0
  9
$UCSXDIR
 10
1.0
 20
0.0
 30
0.0
  9
$UCSYDIR
 10
0.0
 20
1.0
 30
0.0
  9
$PUCSNAME
  2

  9
$PUCSORG
 10
0.0
 20
0.0
 30
0.0
  9
$PUCSXDIR
 10
1.0
 20
0.0
 30
0.0
  9
$PUCSYDIR
 10
0.0
 20
1.0
 30
0.0
  9
$USERI1
 70
     0
  9
$USERI2
 70
     0
  9
$USERI3
 70
     0
  9
$USERI4
 70
     0
  9
$USERI5
 70
     0
  9
$USERR1
 40
0.0
  9
$USERR2
 40
0.0
  9
$USERR3
 40
0.0
  9
$USERR4
 40
0.0
  9
$USERR5
 40
0.0
  9
$WORLDVIEW
 70
     1
  9
$SHADEDGE
 70
     3
  9
$SHADEDIF
 70
    70
  9
$TILEMODE
 70
     1
  9
$MAXACTVP
 70
    64
  9
$PLIMCHECK
 70
     0
  9
$PEXTMIN
 10
1.0000000000000000E+20
 20
1.0000000000000000E+20
 30
1.0000000000000000E+20
  9
$PEXTMAX
 10
-1.0000000000000000E+20
 20
-1.0000000000000000E+20
 30
-1.0000000000000000E+20
  9
$PLIMMIN
 10
0.0
 20
0.0
  9
$PLIMMAX
 10
12.0
 20
9.0
  9
$UNITMODE
 70
     0
  9
$VISRETAIN
 70
     1
  9
$PLINEGEN
 70
     0
  9
$PSLTSCALE
 70
     1
  0
ENDSEC
  0
SECTION
  2
TABLES
  0
TABLE
  2
VPORT
 70
     1
  0
VPORT
  2
*ACTIVE
 70
     0
 10
0.0
 20
0.0
 11
1.0
 21
1.0
 12
-83.5761672340149744
 22
-71.718411278726208
 13
0.0
 23
0.0
 14
1.0
 24
1.0
 15
0.0
 25
0.0
 16
0.0
 26
0.0
 36
327.1425206445442768
 17
3829.3277587890629547
 27
90.8930435180664063
 37
0.0
 40
4.5317993228062816
 41
2.2831541218637992
 42
50.0
 43
0.0
 44
0.0
 50
0.0
 51
0.0
 71
     0
 72
   100
 73
     1
 74
     1
 75
     0
 76
     0
 77
     0
 78
     1
  0
ENDTAB
  0
TABLE
  2
LTYPE
 70
     2
  0
LTYPE
  2
CONTINUOUS
 70
     0
  3
Solid line
 72
    65
 73
     0
 40
0.0
  0
LTYPE
  2
PHANTOM2
 70
     0
  3
___ _ _ ___ _ _ ___ _ _ ___ _ _
 72
    65
 73
     6
 40
1.25
 49
0.625
 49
-0.125
 49
0.125
 49
-0.125
 49
0.125
 49
-0.125
  0
ENDTAB
  0
TABLE
  2
LAYER
 70
     2
  0
LAYER
  2
0
 70
     0
 62
   255
  6
CONTINUOUS
  0
LAYER
  2
DEFPOINTS
 70
     0
 62
     7
  6
CONTINUOUS
  0
ENDTAB
  0
TABLE
  2
STYLE
 70
     1
  0
STYLE
  2
STANDARD
 70
     0
 40
0.0
 41
0.8
 50
0.0
 71
     0
 42
0.2
  3
txt
  4

  0
ENDTAB
  0
TABLE
  2
VIEW
 70
     0
  0
ENDTAB
  0
TABLE
  2
UCS
 70
     0
  0
ENDTAB
  0
TABLE
  2
APPID
 70
     9
  0
APPID
  2
ACAD
 70
     0
  0
APPID
  2
ACAD_MLEADERVER
 70
     0
  0
APPID
  2
ACAD_EXEMPT_FROM_CAD_STANDARDS
 70
     0
  0
APPID
  2
ACAD_NAV_VCDISPLAY
 70
     0
  0
APPID
  2
ACAECLAYERSTANDARD
 70
     0
  0
APPID
  2
ACCMTRANSPARENCY
 70
     0
  0
APPID
  2
ACAD_DSTYLE_DIMJAG
 70
     0
  0
APPID
  2
ACAD_DSTYLE_DIMTALN
 70
     0
  0
APPID
  2
ACDBATTR
 70
     0
  0
ENDTAB
  0
TABLE
  2
DIMSTYLE
 70
     1
  0
DIMSTYLE
  2
STANDARD
 70
     0
  3

  4

  5

  6

  7

 40
1.0
 41
0.1875
 42
0.0625
 43
0.38
 44
0.125
 45
0.0
 46
0.0
 47
0.01
 48
0.01
140
0.15625
141
0.09
142
0.0
143
25.3999999999999986
144
1.0
145
0.0
146
1.0
147
0.09
 71
     1
 72
     0
 73
     1
 74
     1
 75
     0
 76
     0
 77
     0
 78
     4
170
     0
171
     2
172
     0
173
     0
174
     0
175
     0
176
     0
177
     0
178
     0
  0
ENDTAB
  0
ENDSEC
  0
SECTION
  2
BLOCKS
  0
BLOCK
  8
0
  2
$MODEL_SPACE
 70
     0
 10
0.0
 20
0.0
 30
0.0
  3
$MODEL_SPACE
  1

  0
ENDBLK
  5
21
  8
0
  0
BLOCK
 67
     1
  8
0
  2
$PAPER_SPACE
 70
     0
 10
0.0
 20
0.0
 30
0.0
  3
$PAPER_SPACE
  1

  0
ENDBLK
  5
1D
 67
     1
  8
0
  0
ENDSEC
  0
SECTION
  2
ENTITIES
  0
ATTDEF
  5
BC50
  8
DEFPOINTS
 10
3745.7972408563650788
 20
19.1784220963415883
 30
0.0
 40
0.001
  1
K-13479-A
  3

  2
MODELNUMBER
 70
     0
1001
ACDBATTR
1070
     0
1070
     1
  0
ATTDEF
  5
BC51
  8
DEFPOINTS
 10
3745.7972408563650788
 20
19.1767554296749303
 30
0.0
 40
0.001
  1

  3

  2
TRADENAME
 70
     0
1001
ACDBATTR
1070
     0
1070
     1
  0
ATTDEF
  5
BC52
  8
DEFPOINTS
 10
3745.7972408563650788
 20
19.1750887630082616
 30
0.0
 40
0.001
  1
ESCUTCHEON
  3

  2
PRODUCT
 70
     0
1001
ACDBATTR
1070
     0
1070
     1
  0
LINE
  5
DC5B
  8
0
 10
3742.2971478421382017
 20
20.67423505217441
 30
0.0
 11
3749.2971478421382017
 21
20.67423505217441
 31
0.0
  0
LINE
  5
DC5C
  8
0
 10
3742.2971478421382017
 20
17.67423505217441
 30
0.0
 11
3749.2971478421382017
 21
17.67423505217441
 31
0.0
  0
CIRCLE
  5
DC5D
  8
0
 10
3745.7971478421391112
 20
19.17423505217441
 30
0.0
 40
0.6600000000000003
  0
CIRCLE
  5
DC5E
  8
0
 10
3745.7971478421391112
 20
19.17423505217441
 30
0.0
 40
0.9250000000000002
  0
CIRCLE
  5
DC5F
  8
0
 10
3745.7971478421391112
 20
19.17423505217441
 30
0.0
 40
0.8751104935084839
  0
LINE
  5
DC60
  8
0
 10
3745.1229784926381399
 20
19.8074112441744106
 30
0.0
 11
3745.14141375843883
 21
19.7890077166744085
 31
0.0
  0
ARC
  5
DC61
  8
0
 10
3745.1237174365260216
 20
19.771280876092149
 30
0.0
 40
0.0250479677073405
 50
325.1014432089219213
 51
45.049362914091418
  0
LINE
  5
DC62
  8
0
 10
3745.1646900823388933
 20
19.8491192186744101
 30
0.0
 11
3745.183154386285878
 21
19.830654914826539
 31
0.0
  0
ARC
  5
DC63
  8
0
 10
3745.2008657414908157
 20
19.8483662701278902
 30
0.0
 40
0.0250476388073459
 50
225.0000001551549076
 51
305.2006917622894093
  0
LINE
  5
DC64
  8
0
 10
3744.872578858930865
 20
19.2024696991757793
 30
0.0
 11
3744.8987599944198337
 21
19.202483910459911
 31
0.0
  0
ARC
  5
DC65
  8
0
 10
3744.8987464761498813
 20
19.2273883203033087
 30
0.0
 40
0.0249044135122936
 50
270.0311005044983972
 51
353.3118720595643936
  0
LINE
  5
DC66
  8
0
 10
3744.8725773291907899
 20
19.1460505424523113
 30
0.0
 11
3744.8987194909600476
 21
19.1460541113773814
 31
0.0
  0
ARC
  5
DC67
  8
0
 10
3744.8987228978921848
 20
19.1210985393628903
 30
0.0
 40
0.0249555722470473
 50
7.6516246468575009
 51
90.0078220134899567
  0
LINE
  5
DC68
  8
0
 10
3745.1238997118989573
 20
18.5399149790811784
 30
0.0
 11
3745.1423645938648406
 21
18.5583798610475483
 31
0.0
  0
ARC
  5
DC69
  8
0
 10
3745.1245911751211679
 20
18.5761532797918392
 30
0.0
 40
0.0251354098379085
 50
315.0000000000038085
 51
34.0498689426080574
  0
LINE
  5
DC6A
  8
0
 10
3745.1646377460001531
 20
18.4992861813083707
 30
0.0
 11
3745.1831605702050183
 21
18.51780900540804
 31
0.0
  0
ARC
  5
DC6B
  8
0
 10
3745.2010078100947794
 20
18.4999617654169093
 30
0.0
 40
0.0252398087750012
 50
57.7345058320414424
 51
134.9999998379497868
  0
LINE
  5
DC6C
  8
0
 10
3745.7686381221078591
 20
18.2496745101525484
 30
0.0
 11
3745.7682988895639937
 21
18.2759734805729401
 31
0.0
  0
ARC
  5
DC6D
  8
0
 10
3745.7421931866610976
 20
18.2756367410025007
 30
0.0
 40
0.0261078746283466
 50
0.7390219021332423
 51
71.2913903873782431
  0
LINE
  5
DC6E
  8
0
 10
3745.8256938422277926
 20
18.2496756295958207
 30
0.0
 11
3745.8259963530258574
 21
18.2759373666613492
 31
0.0
  0
ARC
  5
DC6F
  8
0
 10
3745.8521680124390514
 20
18.2756358934744014
 30
0.0
 40
0.0261733957002178
 50
109.1782139989441021
 51
179.3400350718387983
  0
LINE
  5
DC70
  8
0
 10
3745.7663760669051953
 20
20.0987230714851108
 30
0.0
 11
3745.7665932447380328
 21
20.0723706165744105
 31
0.0
  0
ARC
  5
DC71
  8
0
 10
3745.7420792516541042
 20
20.0721685900113798
 30
0.0
 40
0.0245148255487127
 50
274.620604799021919
 51
0.4721795964777457
  0
LINE
  5
DC72
  8
0
 10
3745.8279421507550069
 20
20.0987223211818389
 30
0.0
 11
3745.8277025706161112
 21
20.0725529246522783
 31
0.0
  0
ARC
  5
DC73
  8
0
 10
3745.852388714090921
 20
20.0723269236560817
 30
0.0
 40
0.0246871779703529
 50
179.4754732947631908
 51
264.9979226727065793
  0
LINE
  5
DC74
  8
0
 10
3746.471317191639173
 20
19.8074112441744106
 30
0.0
 11
3746.4528819258389376
 21
19.7890077166744085
 31
0.0
  0
ARC
  5
DC75
  8
0
 10
3746.4705782477508365
 20
19.771280876092149
 30
0.0
 40
0.0250479677073405
 50
134.9506370859085962
 51
214.8985567910781072
  0
LINE
  5
DC76
  8
0
 10
3746.4296056019388743
 20
19.8491192186744101
 30
0.0
 11
3746.4111412979900706
 21
19.830654914826539
 31
0.0
  0
ARC
  5
DC77
  8
0
 10
3746.3934299427851329
 20
19.8483662701278902
 30
0.0
 40
0.0250476388073459
 50
234.7993082377103917
 51
314.9999998448449219
  0
LINE
  5
DC78
  8
0
 10
3746.7217168253459931
 20
19.2024696991757793
 30
0.0
 11
3746.6955356898579339
 21
19.202483910459911
 31
0.0
  0
ARC
  5
DC79
  8
0
 10
3746.6955492081269767
 20
19.2273883203033087
 30
0.0
 40
0.0249044135122936
 50
186.6881279404354075
 51
269.9688994955017165
  0
LINE
  5
DC7A
  8
0
 10
3746.7217183550860682
 20
19.1460505424523113
 30
0.0
 11
3746.695576193315901
 21
19.1460541113773814
 31
0.0
  0
ARC
  5
DC7B
  8
0
 10
3746.695572786385128
 20
19.1210985393628903
 30
0.0
 40
0.0249555722470473
 50
89.9921779865100575
 51
172.3483753531425009
  0
LINE
  5
DC7C
  8
0
 10
3746.4703959723779008
 20
18.5399149790811784
 30
0.0
 11
3746.4519310904120175
 21
18.5583798610475483
 31
0.0
  0
ARC
  5
DC7D
  8
0
 10
3746.4697045091561449
 20
18.5761532797918392
 30
0.0
 40
0.0251354098379085
 50
145.9501310573919
 51
224.9999999999961062
  0
LINE
  5
DC7E
  8
0
 10
3746.4296579382757955
 20
18.4992861813083707
 30
0.0
 11
3746.4111351140718398
 21
18.51780900540804
 31
0.0
  0
ARC
  5
DC7F
  8
0
 10
3746.3932878741820787
 20
18.4999617654169093
 30
0.0
 40
0.0252398087750012
 50
45.000000162050199
 51
122.2654941679584937
  0
ARC
  5
DC80
  8
0
 10
3742.2971478421382017
 20
19.17423505217441
 30
0.0
 40
1.5
 50
90.0
 51
270.0
  0
ARC
  5
DC88
  8
0
 10
3749.2971478421382017
 20
19.17423505217441
 30
0.0
 40
1.5
 50
270.0
 51
90.0
  0
ENDSEC
  0
EOF
