  0
SECTION
  2
HEADER
  9
$ACADVER
  1
AC1009
  9
$INSBASE
 10
4432.4236256501881144
 20
442.2865115879869222
 30
0.0
  9
$EXTMIN
 10
4431.4773725746290438
 20
442.2816393937951034
 30
0.0
  9
$EXTMAX
 10
4433.3698782436740657
 20
455.3392977633945975
 30
0.0
  9
$LIMMIN
 10
0.0
 20
0.0
  9
$LIMMAX
 10
11.6929133858000007
 20
8.2677165353999982
  9
$ORTHOMODE
 70
     0
  9
$REGENMODE
 70
     1
  9
$FILLMODE
 70
     1
  9
$QTEXTMODE
 70
     0
  9
$MIRRTEXT
 70
     0
  9
$DRAGMODE
 70
     2
  9
$LTSCALE
 40
0.6431102362
  9
$OSMODE
 70
  4095
  9
$ATTMODE
 70
     1
  9
$TEXTSIZE
 40
0.2
  9
$TRACEWID
 40
0.05
  9
$TEXTSTYLE
  7
STANDARD
  9
$CLAYER
  8
0
  9
$CELTYPE
  6
BYLAYER
  9
$CECOLOR
 62
   256
  9
$DIMSCALE
 40
1.0
  9
$DIMASZ
 40
0.1875
  9
$DIMEXO
 40
0.0625
  9
$DIMDLI
 40
0.4443307087
  9
$DIMRND
 40
0.0
  9
$DIMDLE
 40
0.0
  9
$DIMEXE
 40
0.125
  9
$DIMTP
 40
0.01
  9
$DIMTM
 40
0.01
  9
$DIMTXT
 40
2.0
  9
$DIMCEN
 40
0.1052362205
  9
$DIMTSZ
 40
0.0
  9
$DIMTOL
 70
     1
  9
$DIMLIM
 70
     0
  9
$DIMTIH
 70
     1
  9
$DIMTOH
 70
     1
  9
$DIMSE1
 70
     0
  9
$DIMSE2
 70
     0
  9
$DIMTAD
 70
     0
  9
$DIMZIN
 70
     0
  9
$DIMBLK
  1

  9
$DIMASO
 70
     1
  9
$DIMSHO
 70
     1
  9
$DIMPOST
  1
\X
  9
$DIMAPOST
  1

  9
$DIMALT
 70
     1
  9
$DIMALTD
 70
     2
  9
$DIMALTF
 40
25.3999999999999986
  9
$DIMLFAC
 40
1.0
  9
$DIMTOFL
 70
     0
  9
$DIMTVP
 40
0.0
  9
$DIMTIX
 70
     0
  9
$DIMSOXD
 70
     0
  9
$DIMSAH
 70
     0
  9
$DIMBLK1
  1

  9
$DIMBLK2
  1

  9
$DIMSTYLE
  2
STANDARD
  9
$DIMCLRD
 70
     0
  9
$DIMCLRE
 70
     0
  9
$DIMCLRT
 70
     0
  9
$DIMTFAC
 40
1.0
  9
$DIMGAP
 40
0.09
  9
$LUNITS
 70
     2
  9
$LUPREC
 70
     4
  9
$SKETCHINC
 40
0.1
  9
$FILLETRAD
 40
0.0
  9
$AUNITS
 70
     0
  9
$AUPREC
 70
     0
  9
$MENU
  1
.
  9
$ELEVATION
 40
0.0
  9
$PELEVATION
 40
0.0
  9
$THICKNESS
 40
0.0
  9
$LIMCHECK
 70
     0
  9
$BLIPMODE
 70
     0
  9
$CHAMFERA
 40
0.0
  9
$CHAMFERB
 40
0.0
  9
$SKPOLY
 70
     0
  9
$TDCREATE
 40
2458060.468368056230247
  9
$TDUPDATE
 40
2459857.8498148149810731
  9
$TDINDWG
 40
1.4203477778
  9
$TDUSRTIMER
 40
1.4203477778
  9
$USRTIMER
 70
     1
  9
$ANGBASE
 50
0.0
  9
$ANGDIR
 70
     0
  9
$PDMODE
 70
     0
  9
$PDSIZE
 40
0.3125
  9
$PLINEWID
 40
0.0
  9
$COORDS
 70
     1
  9
$SPLFRAME
 70
     0
  9
$SPLINETYPE
 70
     6
  9
$SPLINESEGS
 70
     8
  9
$ATTDIA
 70
     1
  9
$ATTREQ
 70
     1
  9
$HANDLING
 70
     1
  9
$HANDSEED
  5
1866B
  9
$SURFTAB1
 70
     6
  9
$SURFTAB2
 70
     6
  9
$SURFTYPE
 70
     6
  9
$SURFU
 70
     6
  9
$SURFV
 70
     6
  9
$UCSNAME
  2

  9
$UCSORG
 10
0.0
 20
0.0
 30
0.0
  9
$UCSXDIR
 10
1.0
 20
0.0
 30
0.0
  9
$UCSYDIR
 10
0.0
 20
1.0
 30
0.0
  9
$PUCSNAME
  2

  9
$PUCSORG
 10
0.0
 20
0.0
 30
0.0
  9
$PUCSXDIR
 10
1.0
 20
0.0
 30
0.0
  9
$PUCSYDIR
 10
0.0
 20
1.0
 30
0.0
  9
$USERI1
 70
     0
  9
$USERI2
 70
     0
  9
$USERI3
 70
     0
  9
$USERI4
 70
     0
  9
$USERI5
 70
     0
  9
$USERR1
 40
0.0
  9
$USERR2
 40
0.0
  9
$USERR3
 40
0.0
  9
$USERR4
 40
0.0
  9
$USERR5
 40
0.0
  9
$WORLDVIEW
 70
     1
  9
$SHADEDGE
 70
     3
  9
$SHADEDIF
 70
    70
  9
$TILEMODE
 70
     1
  9
$MAXACTVP
 70
    64
  9
$PLIMCHECK
 70
     0
  9
$PEXTMIN
 10
1.0000000000000000E+20
 20
1.0000000000000000E+20
 30
1.0000000000000000E+20
  9
$PEXTMAX
 10
-1.0000000000000000E+20
 20
-1.0000000000000000E+20
 30
-1.0000000000000000E+20
  9
$PLIMMIN
 10
0.0
 20
0.0
  9
$PLIMMAX
 10
12.0
 20
9.0
  9
$UNITMODE
 70
     0
  9
$VISRETAIN
 70
     1
  9
$PLINEGEN
 70
     0
  9
$PSLTSCALE
 70
     1
  0
ENDSEC
  0
SECTION
  2
TABLES
  0
TABLE
  2
VPORT
 70
     1
  0
VPORT
  2
*ACTIVE
 70
     0
 10
0.0
 20
0.0
 11
1.0
 21
1.0
 12
521.0582689638390548
 22
316.2308634760559016
 13
0.0
 23
0.0
 14
1.0
 24
1.0
 15
0.0
 25
0.0
 16
0.0
 26
0.0
 36
60.4960186965801583
 17
3911.3653564453120453
 27
132.5796051025390057
 37
0.0
 40
13.15953866897223
 41
2.1471354166666661
 42
50.0
 43
0.0
 44
0.0
 50
0.0
 51
0.0
 71
     0
 72
   100
 73
     1
 74
     1
 75
     0
 76
     0
 77
     0
 78
     0
  0
ENDTAB
  0
TABLE
  2
LTYPE
 70
     2
  0
LTYPE
  2
CONTINUOUS
 70
     0
  3
Solid line
 72
    65
 73
     0
 40
0.0
  0
LTYPE
  2
PHANTOM2
 70
     0
  3
___ _ _ ___ _ _ ___ _ _ ___ _ _
 72
    65
 73
     6
 40
1.25
 49
0.625
 49
-0.125
 49
0.125
 49
-0.125
 49
0.125
 49
-0.125
  0
ENDTAB
  0
TABLE
  2
LAYER
 70
     2
  0
LAYER
  2
0
 70
     0
 62
   255
  6
CONTINUOUS
  0
LAYER
  2
DEFPOINTS
 70
     0
 62
     7
  6
CONTINUOUS
  0
ENDTAB
  0
TABLE
  2
STYLE
 70
     1
  0
STYLE
  2
STANDARD
 70
     0
 40
0.0
 41
0.8
 50
0.0
 71
     0
 42
0.2
  3
txt
  4

  0
ENDTAB
  0
TABLE
  2
VIEW
 70
     0
  0
ENDTAB
  0
TABLE
  2
UCS
 70
     0
  0
ENDTAB
  0
TABLE
  2
APPID
 70
    11
  0
APPID
  2
ACAD
 70
     0
  0
APPID
  2
ACAD_MLEADERVER
 70
     0
  0
APPID
  2
ACAD_EXEMPT_FROM_CAD_STANDARDS
 70
     0
  0
APPID
  2
ACAD_NAV_VCDISPLAY
 70
     0
  0
APPID
  2
ACAECLAYERSTANDARD
 70
     0
  0
APPID
  2
ACCMTRANSPARENCY
 70
     0
  0
APPID
  2
ACAD_DSTYLE_DIMJAG
 70
     0
  0
APPID
  2
ACAD_DSTYLE_DIMTALN
 70
     0
  0
APPID
  2
ACDBATTR
 70
     0
  0
APPID
  2
ACADANNOTATIVE
 70
     0
  0
APPID
  2
DCO15
 70
     0
  0
ENDTAB
  0
TABLE
  2
DIMSTYLE
 70
     1
  0
DIMSTYLE
  2
STANDARD
 70
     0
  3

  4

  5

  6

  7

 40
1.0
 41
0.1875
 42
0.0625
 43
0.38
 44
0.125
 45
0.0
 46
0.0
 47
0.01
 48
0.01
140
0.15625
141
0.09
142
0.0
143
25.3999999999999986
144
1.0
145
0.0
146
1.0
147
0.09
 71
     1
 72
     0
 73
     1
 74
     1
 75
     0
 76
     0
 77
     0
 78
     4
170
     0
171
     2
172
     0
173
     0
174
     0
175
     0
176
     0
177
     0
178
     0
  0
ENDTAB
  0
ENDSEC
  0
SECTION
  2
BLOCKS
  0
BLOCK
  8
0
  2
$MODEL_SPACE
 70
     0
 10
0.0
 20
0.0
 30
0.0
  3
$MODEL_SPACE
  1

  0
ENDBLK
  5
21
  8
0
  0
BLOCK
 67
     1
  8
0
  2
$PAPER_SPACE
 70
     0
 10
0.0
 20
0.0
 30
0.0
  3
$PAPER_SPACE
  1

  0
ENDBLK
  5
1D
 67
     1
  8
0
  0
ENDSEC
  0
SECTION
  2
ENTITIES
  0
ATTDEF
  5
159BF
  8
DEFPOINTS
 10
4432.4196496994409245
 20
442.2849727271284905
 30
0.0
 40
0.001
  1
K-13524IN-4ND
  3

  2
MODELNUMBER
 70
     0
1001
ACDBATTR
1070
     0
1070
     1
  0
ATTDEF
  5
159C0
  8
DEFPOINTS
 10
4432.4195238897846139
 20
442.28330588674919
 30
0.0
 40
0.001
  1
QUALIS
  3

  2
TRADENAME
 70
     0
1001
ACDBATTR
1070
     0
1070
     1
  0
ATTDEF
  5
159C1
  8
DEFPOINTS
 10
4432.4196496994409245
 20
442.2816393937951034
 30
0.0
 40
0.001
  1
BATHROOM SINK FAUCET
  3

  2
PRODUCT
 70
     0
1001
ACDBATTR
1070
     0
1070
     1
  0
LINE
  5
1859C
  8
0
 10
4433.3698782436740657
 20
442.2865115879869222
 30
0.0
 11
4431.4773725746290438
 21
442.2865115879869222
 31
0.0
  0
LINE
  5
1859D
  8
0
 10
4431.970647360068142
 20
452.7589543192869996
 30
0.0
 11
4432.8763808794383294
 21
452.7589543192869996
 31
0.0
  0
LINE
  5
1859E
  8
0
 10
4431.9717249323375654
 20
454.623550488587
 30
0.0
 11
4432.8755263680377539
 21
454.623550488587
 31
0.0
  0
LINE
  5
1859F
  8
0
 10
4431.4984469282399004
 20
454.0778503893869811
 30
0.0
 11
4433.3488042730077723
 21
454.0778503893869811
 31
0.0
  0
LINE
  5
185A0
  8
0
 10
4433.3698782436740657
 20
454.1803678920369975
 30
0.0
 11
4431.4773725746290438
 21
454.1803678920369975
 31
0.0
  0
LINE
  5
185A1
  8
0
 10
4431.9795073419909386
 20
455.3314205820868779
 30
0.0
 11
4431.5784248701311299
 21
455.3314205820868779
 31
0.0
  0
LINE
  5
185A2
  8
0
 10
4432.8677439583843807
 20
455.3314205820868779
 30
0.0
 11
4433.2688264302441894
 21
455.3314205820868779
 31
0.0
  0
ARC
  5
185A3
  8
0
 10
4432.423611436621286
 20
441.0816028991288249
 30
0.0
 40
14.2576948642658703
 50
88.2613678134347737
 51
89.999942881532121
  0
ARC
  5
185A4
  8
0
 10
4432.423611436621286
 20
441.0816028991304165
 30
0.0
 40
14.2576948642642591
 50
89.999942881532121
 51
91.738591974042663
  0
LINE
  5
185A5
  8
0
 10
4431.5159936947393362
 20
455.2706450974869199
 30
0.0
 11
4431.4773725746290438
 21
454.1803678920369975
 31
0.0
  0
ARC
  5
185A6
  8
0
 10
4431.5789659681840931
 20
455.268411014867695
 30
0.0
 40
0.0630118905307153
 50
89.5301342881275417
 51
177.9681558968773913
  0
ARC
  5
185A7
  8
0
 10
4431.9923725961598393
 20
455.2697562123431112
 30
0.0
 40
0.0629921364989705
 50
91.2120586167669245
 51
177.942790384958613
  0
ARC
  5
185A8
  8
0
 10
4398.8424933886335566
 20
456.1694503873288227
 30
0.0
 40
33.0990961890402815
 50
356.5547476298231118
 51
358.4463194780444155
  0
ARC
  5
185A9
  8
0
 10
4429.6021284212802129
 20
454.6001702866004166
 30
0.0
 40
2.5388753896762011
 50
358.3828091741253274
 51
0.5276374877508628
  0
ARC
  5
185AA
  8
0
 10
4432.2849908335847431
 20
454.5214694139609151
 30
0.0
 40
0.145169557455999
 50
177.2164553967178051
 51
187.6875060960971098
  0
ARC
  5
185AB
  8
0
 10
4433.6944499935398198
 20
454.8685673995057073
 30
0.0
 40
1.595979439950957
 50
193.276490706672206
 51
200.1706324320335
  0
ARC
  5
185AC
  8
0
 10
4432.5815228420033236
 20
454.442054847551276
 30
0.0
 40
0.4045800267059822
 50
197.8193765422992101
 51
215.7740076736986907
  0
ARC
  5
185AD
  8
0
 10
4432.3036542614945574
 20
454.2403531926727283
 30
0.0
 40
0.0612363586666822
 50
214.6443062360717136
 51
258.3985078712390759
  0
ARC
  5
185AE
  8
0
 10
4435.023950798574333
 20
453.3038157513695978
 30
0.0
 40
3.1542273027242591
 50
180.2427584447223978
 51
184.8792681045138124
  0
ARC
  5
185AF
  8
0
 10
4428.8849024400433336
 20
452.7657685089093889
 30
0.0
 40
3.0083706152197549
 50
1.5802689255936719
 51
5.1446118200071522
  0
LINE
  5
185B0
  8
0
 10
4431.8697518075377957
 20
453.2904515379868826
 30
0.0
 11
4431.8697518087383287
 21
454.0581651708869231
 31
0.0
  0
ARC
  5
185B1
  8
0
 10
4431.8891056666361692
 20
454.0584973840688008
 30
0.0
 40
0.0193567089434419
 50
91.1208366387700153
 51
180.9833979452527046
  0
LINE
  5
185B2
  8
0
 10
4433.3698782436740657
 20
454.0581653498869059
 30
0.0
 11
4433.3698782436740657
 21
442.2865115879869222
 31
0.0
  0
LINE
  5
185B3
  8
0
 10
4431.4773725746290438
 20
454.0581653498858827
 30
0.0
 11
4431.4773725746290438
 21
442.2865115879869222
 31
0.0
  0
ARC
  5
185B4
  8
0
 10
4431.4995164915862915
 20
454.0555802454766194
 30
0.0
 40
0.0222943002357962
 50
92.6674443324606898
 51
173.3413696186817106
  0
ARC
  5
185B5
  8
0
 10
4431.5003712365769388
 20
454.2239607585493104
 30
0.0
 40
0.1181102371711688
 50
312.0773622364416724
 51
338.3407239695822
  0
ARC
  5
185B6
  8
0
 10
4431.63228726253692
 20
454.0778503893869811
 30
0.0
 40
0.0787401574999986
 50
132.0773620822778867
 51
179.9999999999967031
  0
ARC
  5
185B7
  8
0
 10
4431.9719938111766169
 20
454.6871918851077226
 30
0.0
 40
0.0636419645119185
 50
180.569284719288504
 51
269.7579322283896204
  0
ARC
  5
185B8
  8
0
 10
4435.0239512488742548
 20
451.1511030646042855
 30
0.0
 40
3.1542273027242591
 50
175.1207318954861023
 51
179.7572415552774885
  0
ARC
  5
185B9
  8
0
 10
4428.8853668773317622
 20
451.689115798164778
 30
0.0
 40
3.0079054029825949
 50
354.855250350678773
 51
358.4201441923024731
  0
LINE
  5
185BA
  8
0
 10
4431.8697522578377175
 20
451.1644672779870007
 30
0.0
 11
4431.8697522578377175
 21
442.2865115634870108
 31
0.0
  0
ARC
  5
185BB
  8
0
 10
4432.019591158043113
 20
451.9083788285703918
 30
0.0
 40
0.2124716008553857
 50
271.3040440408046834
 51
281.4021116225467836
  0
ARC
  5
185BC
  8
0
 10
4431.9708706624223851
 20
451.7747039429257256
 30
0.0
 40
0.0787417771448401
 50
180.000950182328296
 51
269.9992835029842126
  0
ARC
  5
185BD
  8
0
 10
4432.4236270282790429
 20
450.7666520935273979
 30
0.0
 40
0.9893348650628414
 50
80.0940248943089301
 51
99.9059751056910841
  0
ARC
  5
185BE
  8
0
 10
4433.233394680283709
 20
446.7034698372295907
 30
0.0
 40
5.1321956730989466
 50
101.0079115866433028
 51
103.1983708613504973
  0
ARC
  5
185BF
  8
0
 10
4429.8233005018009862
 20
453.3038157513695978
 30
0.0
 40
3.1542273027242591
 50
355.1207318954860739
 51
359.7572415552775169
  0
ARC
  5
185C0
  8
0
 10
4429.8233000515010644
 20
451.1511030646042855
 30
0.0
 40
3.1542273027242591
 50
0.2427584447224786
 51
4.8792681045138462
  0
ARC
  5
185C1
  8
0
 10
4435.9618844224805798
 20
451.6891157981251013
 30
0.0
 40
3.0079054024180092
 50
181.5798558072384878
 51
185.1447496495287908
  0
LINE
  5
185C2
  8
0
 10
4432.9774990425394208
 20
451.1644672779870007
 30
0.0
 11
4432.9774990425394208
 21
442.2865115634870108
 31
0.0
  0
ARC
  5
185C3
  8
0
 10
4432.8277199251961065
 20
451.9087612043920785
 30
0.0
 40
0.2128582494252362
 50
258.6024616928796718
 51
268.647503606522605
  0
ARC
  5
185C4
  8
0
 10
4432.8763806384458803
 20
451.7747039426021161
 30
0.0
 40
0.078741776652114
 50
270.0869815574251902
 51
359.9990500530794861
  0
ARC
  5
185C5
  8
0
 10
4431.6138566200916102
 20
446.7034698372295907
 30
0.0
 40
5.1321956730989466
 50
76.8016291386494458
 51
78.9920884133566688
  0
LINE
  5
185C6
  8
0
 10
4433.331257605637802
 20
455.2706450974869199
 30
0.0
 11
4433.3698782436740657
 21
454.1803678920369975
 31
0.0
  0
ARC
  5
185C7
  8
0
 10
4433.2682853321912262
 20
455.268411014867695
 30
0.0
 40
0.0630118905307153
 50
2.0318441031225758
 51
90.4698657118724441
  0
ARC
  5
185C8
  8
0
 10
4432.8548787042163895
 20
455.2697562123431112
 30
0.0
 40
0.0629921364989705
 50
2.057209615041367
 51
88.7879413832330755
  0
ARC
  5
185C9
  8
0
 10
4466.0047579117426721
 20
456.1694503873288227
 30
0.0
 40
33.0990961890402815
 50
181.5536805219556129
 51
183.4452523701768882
  0
ARC
  5
185CA
  8
0
 10
4435.2451228790969253
 20
454.6001702866004166
 30
0.0
 40
2.5388753896762011
 50
179.4723625122491057
 51
181.617190825874701
  0
ARC
  5
185CB
  8
0
 10
4432.5622604667905762
 20
454.5214694139609151
 30
0.0
 40
0.1451695574559953
 50
352.3124939039029186
 51
2.7835446032821589
  0
ARC
  5
185CC
  8
0
 10
4431.1528013068345899
 20
454.8685673995057073
 30
0.0
 40
1.595979439950957
 50
339.8293675679664716
 51
346.7235092933278224
  0
ARC
  5
185CD
  8
0
 10
4432.2657284583719957
 20
454.442054847551276
 30
0.0
 40
0.4045800267059822
 50
324.2259923263011956
 51
342.1806234577006762
  0
ARC
  5
185CE
  8
0
 10
4432.5435970388807618
 20
454.2403531926727283
 30
0.0
 40
0.0612363586666822
 50
281.6014921287609241
 51
325.3556937639256716
  0
ARC
  5
185CF
  8
0
 10
4435.9623488598017502
 20
452.7657685089471897
 30
0.0
 40
3.008370614687184
 50
174.8553881798046916
 51
178.4197310748490963
  0
LINE
  5
185D0
  8
0
 10
4432.9774994928384331
 20
453.2904515379868826
 30
0.0
 11
4432.9774994916369906
 21
454.0581651708869231
 31
0.0
  0
ARC
  5
185D1
  8
0
 10
4432.9581456337400596
 20
454.0584973840688008
 30
0.0
 40
0.0193567089434419
 50
359.0166020547472954
 51
88.8791633612300132
  0
ARC
  5
185D2
  8
0
 10
4433.3477352107329352
 20
454.0555812187139963
 30
0.0
 40
0.0222933093497415
 50
6.6564093933578636
 51
87.3334711673592636
  0
ARC
  5
185D3
  8
0
 10
4433.3468800637992899
 20
454.2239607585493104
 30
0.0
 40
0.1181102371711688
 50
201.6592760304178
 51
227.9226377635584129
  0
ARC
  5
185D4
  8
0
 10
4433.2149640378383992
 20
454.0778503893869811
 30
0.0
 40
0.0787401574999986
 50
0.0000000000032569
 51
47.9226379177220423
  0
ARC
  5
185D5
  8
0
 10
4432.8752574891977929
 20
454.6871918851077226
 30
0.0
 40
0.0636419645119185
 50
270.2420677716104933
 51
359.4307152807115244
  0
ARC
  5
185D6
  8
0
 10
4431.9708707027166383
 20
452.6802120613979241
 30
0.0
 40
0.0787425746302994
 50
90.1625119370616801
 51
180.2512689775633987
  0
ARC
  5
185D7
  8
0
 10
4432.8763815959546264
 20
452.6802134353226847
 30
0.0
 40
0.0787408839675879
 50
359.9264741751273959
 51
90.0005213733126652
  0
LINE
  5
185D9
  8
0
 10
4432.9551224150882263
 20
452.8487315460869809
 30
0.0
 11
4432.9551224150882263
 21
451.6061872698870161
 31
0.0
  0
LINE
  5
185DA
  8
0
 10
4431.8921288852880025
 20
452.8487315460869809
 30
0.0
 11
4431.8921288852880025
 21
451.6061872698869024
 31
0.0
  0
LINE
  5
185DB
  8
0
 10
4431.9708696777379373
 20
451.695962165787023
 30
0.0
 11
4432.2603349973724107
 21
451.6959622239029954
 31
0.0
  0
LINE
  5
185DC
  8
0
 10
4432.5869164738687687
 20
451.6959622566869825
 30
0.0
 11
4432.8765001774390839
 21
451.6959622566869825
 31
0.0
  0
ARC
  5
185DD
  8
0
 10
4432.4272964334531935
 20
452.5661441516260766
 30
0.0
 40
0.8860545742075518
 50
255.0508478965159895
 51
269.7626320134594948
  0
ARC
  5
185DE
  8
0
 10
4432.3518576463884528
 20
452.5704961485874946
 30
0.0
 40
0.8739382381006388
 50
256.672021973780204
 51
259.9086777414123048
  0
ARC
  5
185DF
  8
0
 10
4432.2919846626746221
 20
452.000052344398398
 30
0.0
 40
0.3046012001050143
 50
245.347971816871592
 51
252.1720958563371937
  0
ARC
  5
185E0
  8
0
 10
4432.4235004815882348
 20
452.3050625587869149
 30
0.0
 40
0.5646910185000311
 50
259.2260579961229041
 51
270.0127001002873044
  0
ARC
  5
185E1
  8
0
 10
4432.4361278501173729
 20
452.2795634916266181
 30
0.0
 40
0.583735133794511
 50
248.7468245620370055
 51
268.7727686327713741
  0
ARC
  5
185E2
  8
0
 10
4432.4234055096212614
 20
452.2761851129224056
 30
0.0
 40
0.5515350913442494
 50
254.4488112487366891
 51
270.0228691263631049
  0
ARC
  5
185E3
  8
0
 10
4432.4199548669230353
 20
452.5661441516260766
 30
0.0
 40
0.8860545742075518
 50
270.2373679865403915
 51
284.949152103483982
  0
ARC
  5
185E4
  8
0
 10
4432.4953936539868664
 20
452.5704961485874946
 30
0.0
 40
0.8739382381006388
 50
280.0913222585876952
 51
283.327978026219796
  0
ARC
  5
185E5
  8
0
 10
4432.5552666377006972
 20
452.000052344398398
 30
0.0
 40
0.3046012001050143
 50
287.8279041436626926
 51
294.6520281831283796
  0
ARC
  5
185E6
  8
0
 10
4432.4237508187870844
 20
452.3050625587869149
 30
0.0
 40
0.5646910185000311
 50
269.9872998997125819
 51
280.7739420038770959
  0
ARC
  5
185E7
  8
0
 10
4432.4111234502588559
 20
452.2795634916266181
 30
0.0
 40
0.583735133794511
 50
271.2272313672286259
 51
291.2531754379630229
  0
ARC
  5
185E8
  8
0
 10
4432.4238457907540578
 20
452.2761851129224056
 30
0.0
 40
0.5515350913442494
 50
269.9771308736368951
 51
285.5511887512632825
  0
ENDSEC
  0
EOF
