  0
SECTION
  2
HEADER
  9
$ACADVER
  1
AC1009
  9
$INSBASE
 10
4436.6222682324141715
 20
435.3617744491202188
 30
0.0
  9
$EXTMIN
 10
4435.6760151568560104
 20
429.5101902327177754
 30
0.0
  9
$EXTMAX
 10
4437.5685208259019419
 20
436.3557098565697743
 30
0.0
  9
$LIMMIN
 10
0.0
 20
0.0
  9
$LIMMAX
 10
11.6929133858000007
 20
8.2677165353999982
  9
$ORTHOMODE
 70
     0
  9
$REGENMODE
 70
     1
  9
$FILLMODE
 70
     1
  9
$QTEXTMODE
 70
     0
  9
$MIRRTEXT
 70
     0
  9
$DRAGMODE
 70
     2
  9
$LTSCALE
 40
0.6431102362
  9
$OSMODE
 70
  4095
  9
$ATTMODE
 70
     1
  9
$TEXTSIZE
 40
0.2
  9
$TRACEWID
 40
0.05
  9
$TEXTSTYLE
  7
STANDARD
  9
$CLAYER
  8
0
  9
$CELTYPE
  6
BYLAYER
  9
$CECOLOR
 62
   256
  9
$DIMSCALE
 40
1.0
  9
$DIMASZ
 40
0.1875
  9
$DIMEXO
 40
0.0625
  9
$DIMDLI
 40
0.4443307087
  9
$DIMRND
 40
0.0
  9
$DIMDLE
 40
0.0
  9
$DIMEXE
 40
0.125
  9
$DIMTP
 40
0.01
  9
$DIMTM
 40
0.01
  9
$DIMTXT
 40
2.0
  9
$DIMCEN
 40
0.1052362205
  9
$DIMTSZ
 40
0.0
  9
$DIMTOL
 70
     1
  9
$DIMLIM
 70
     0
  9
$DIMTIH
 70
     1
  9
$DIMTOH
 70
     1
  9
$DIMSE1
 70
     0
  9
$DIMSE2
 70
     0
  9
$DIMTAD
 70
     0
  9
$DIMZIN
 70
     0
  9
$DIMBLK
  1

  9
$DIMASO
 70
     1
  9
$DIMSHO
 70
     1
  9
$DIMPOST
  1
\X
  9
$DIMAPOST
  1

  9
$DIMALT
 70
     1
  9
$DIMALTD
 70
     2
  9
$DIMALTF
 40
25.3999999999999986
  9
$DIMLFAC
 40
1.0
  9
$DIMTOFL
 70
     0
  9
$DIMTVP
 40
0.0
  9
$DIMTIX
 70
     0
  9
$DIMSOXD
 70
     0
  9
$DIMSAH
 70
     0
  9
$DIMBLK1
  1

  9
$DIMBLK2
  1

  9
$DIMSTYLE
  2
STANDARD
  9
$DIMCLRD
 70
     0
  9
$DIMCLRE
 70
     0
  9
$DIMCLRT
 70
     0
  9
$DIMTFAC
 40
1.0
  9
$DIMGAP
 40
0.09
  9
$LUNITS
 70
     2
  9
$LUPREC
 70
     4
  9
$SKETCHINC
 40
0.1
  9
$FILLETRAD
 40
0.0
  9
$AUNITS
 70
     0
  9
$AUPREC
 70
     0
  9
$MENU
  1
.
  9
$ELEVATION
 40
0.0
  9
$PELEVATION
 40
0.0
  9
$THICKNESS
 40
0.0
  9
$LIMCHECK
 70
     0
  9
$BLIPMODE
 70
     0
  9
$CHAMFERA
 40
0.0
  9
$CHAMFERB
 40
0.0
  9
$SKPOLY
 70
     0
  9
$TDCREATE
 40
2458060.468368056230247
  9
$TDUPDATE
 40
2459857.8499537040479481
  9
$TDINDWG
 40
1.4227118518999999
  9
$TDUSRTIMER
 40
1.4227118518999999
  9
$USRTIMER
 70
     1
  9
$ANGBASE
 50
0.0
  9
$ANGDIR
 70
     0
  9
$PDMODE
 70
     0
  9
$PDSIZE
 40
0.3125
  9
$PLINEWID
 40
0.0
  9
$COORDS
 70
     1
  9
$SPLFRAME
 70
     0
  9
$SPLINETYPE
 70
     6
  9
$SPLINESEGS
 70
     8
  9
$ATTDIA
 70
     1
  9
$ATTREQ
 70
     1
  9
$HANDLING
 70
     1
  9
$HANDSEED
  5
1878C
  9
$SURFTAB1
 70
     6
  9
$SURFTAB2
 70
     6
  9
$SURFTYPE
 70
     6
  9
$SURFU
 70
     6
  9
$SURFV
 70
     6
  9
$UCSNAME
  2

  9
$UCSORG
 10
0.0
 20
0.0
 30
0.0
  9
$UCSXDIR
 10
1.0
 20
0.0
 30
0.0
  9
$UCSYDIR
 10
0.0
 20
1.0
 30
0.0
  9
$PUCSNAME
  2

  9
$PUCSORG
 10
0.0
 20
0.0
 30
0.0
  9
$PUCSXDIR
 10
1.0
 20
0.0
 30
0.0
  9
$PUCSYDIR
 10
0.0
 20
1.0
 30
0.0
  9
$USERI1
 70
     0
  9
$USERI2
 70
     0
  9
$USERI3
 70
     0
  9
$USERI4
 70
     0
  9
$USERI5
 70
     0
  9
$USERR1
 40
0.0
  9
$USERR2
 40
0.0
  9
$USERR3
 40
0.0
  9
$USERR4
 40
0.0
  9
$USERR5
 40
0.0
  9
$WORLDVIEW
 70
     1
  9
$SHADEDGE
 70
     3
  9
$SHADEDIF
 70
    70
  9
$TILEMODE
 70
     1
  9
$MAXACTVP
 70
    64
  9
$PLIMCHECK
 70
     0
  9
$PEXTMIN
 10
1.0000000000000000E+20
 20
1.0000000000000000E+20
 30
1.0000000000000000E+20
  9
$PEXTMAX
 10
-1.0000000000000000E+20
 20
-1.0000000000000000E+20
 30
-1.0000000000000000E+20
  9
$PLIMMIN
 10
0.0
 20
0.0
  9
$PLIMMAX
 10
12.0
 20
9.0
  9
$UNITMODE
 70
     0
  9
$VISRETAIN
 70
     1
  9
$PLINEGEN
 70
     0
  9
$PSLTSCALE
 70
     1
  0
ENDSEC
  0
SECTION
  2
TABLES
  0
TABLE
  2
VPORT
 70
     1
  0
VPORT
  2
*ACTIVE
 70
     0
 10
0.0
 20
0.0
 11
1.0
 21
1.0
 12
525.2569115460664761
 22
300.3533449421046839
 13
0.0
 23
0.0
 14
1.0
 24
1.0
 15
0.0
 25
0.0
 16
0.0
 26
0.0
 36
60.4960186965801583
 17
3911.3653564453120453
 27
132.5796051025390057
 37
0.0
 40
6.8989307002410101
 41
2.1471354166666661
 42
50.0
 43
0.0
 44
0.0
 50
0.0
 51
0.0
 71
     0
 72
   100
 73
     1
 74
     1
 75
     0
 76
     0
 77
     0
 78
     0
  0
ENDTAB
  0
TABLE
  2
LTYPE
 70
     2
  0
LTYPE
  2
CONTINUOUS
 70
     0
  3
Solid line
 72
    65
 73
     0
 40
0.0
  0
LTYPE
  2
PHANTOM2
 70
     0
  3
___ _ _ ___ _ _ ___ _ _ ___ _ _
 72
    65
 73
     6
 40
1.25
 49
0.625
 49
-0.125
 49
0.125
 49
-0.125
 49
0.125
 49
-0.125
  0
ENDTAB
  0
TABLE
  2
LAYER
 70
     2
  0
LAYER
  2
0
 70
     0
 62
   255
  6
CONTINUOUS
  0
LAYER
  2
DEFPOINTS
 70
     0
 62
     7
  6
CONTINUOUS
  0
ENDTAB
  0
TABLE
  2
STYLE
 70
     1
  0
STYLE
  2
STANDARD
 70
     0
 40
0.0
 41
0.8
 50
0.0
 71
     0
 42
0.2
  3
txt
  4

  0
ENDTAB
  0
TABLE
  2
VIEW
 70
     0
  0
ENDTAB
  0
TABLE
  2
UCS
 70
     0
  0
ENDTAB
  0
TABLE
  2
APPID
 70
    11
  0
APPID
  2
ACAD
 70
     0
  0
APPID
  2
ACAD_MLEADERVER
 70
     0
  0
APPID
  2
ACAD_EXEMPT_FROM_CAD_STANDARDS
 70
     0
  0
APPID
  2
ACAD_NAV_VCDISPLAY
 70
     0
  0
APPID
  2
ACAECLAYERSTANDARD
 70
     0
  0
APPID
  2
ACCMTRANSPARENCY
 70
     0
  0
APPID
  2
ACAD_DSTYLE_DIMJAG
 70
     0
  0
APPID
  2
ACAD_DSTYLE_DIMTALN
 70
     0
  0
APPID
  2
ACDBATTR
 70
     0
  0
APPID
  2
ACADANNOTATIVE
 70
     0
  0
APPID
  2
DCO15
 70
     0
  0
ENDTAB
  0
TABLE
  2
DIMSTYLE
 70
     1
  0
DIMSTYLE
  2
STANDARD
 70
     0
  3

  4

  5

  6

  7

 40
1.0
 41
0.1875
 42
0.0625
 43
0.38
 44
0.125
 45
0.0
 46
0.0
 47
0.01
 48
0.01
140
0.15625
141
0.09
142
0.0
143
25.3999999999999986
144
1.0
145
0.0
146
1.0
147
0.09
 71
     1
 72
     0
 73
     1
 74
     1
 75
     0
 76
     0
 77
     0
 78
     4
170
     0
171
     2
172
     0
173
     0
174
     0
175
     0
176
     0
177
     0
178
     0
  0
ENDTAB
  0
ENDSEC
  0
SECTION
  2
BLOCKS
  0
BLOCK
  8
0
  2
$MODEL_SPACE
 70
     0
 10
0.0
 20
0.0
 30
0.0
  3
$MODEL_SPACE
  1

  0
ENDBLK
  5
21
  8
0
  0
BLOCK
 67
     1
  8
0
  2
$PAPER_SPACE
 70
     0
 10
0.0
 20
0.0
 30
0.0
  3
$PAPER_SPACE
  1

  0
ENDBLK
  5
1D
 67
     1
  8
0
  0
ENDSEC
  0
SECTION
  2
ENTITIES
  0
ATTDEF
  5
159BF
  8
DEFPOINTS
 10
4436.6172252839378416
 20
435.3603453535604899
 30
0.0
 40
0.001
  1
K-13524IN-4ND
  3

  2
MODELNUMBER
 70
     0
1001
ACDBATTR
1070
     0
1070
     1
  0
ATTDEF
  5
159C0
  8
DEFPOINTS
 10
4436.6170994742824405
 20
435.3586785131813031
 30
0.0
 40
0.001
  1
QUALIS
  3

  2
TRADENAME
 70
     0
1001
ACDBATTR
1070
     0
1070
     1
  0
ATTDEF
  5
159C1
  8
DEFPOINTS
 10
4436.6172252839378416
 20
435.3570120202272165
 30
0.0
 40
0.001
  1
BATHROOM SINK FAUCET
  3

  2
PRODUCT
 70
     0
1001
ACDBATTR
1070
     0
1070
     1
  0
LINE
  5
186BE
  8
0
 10
4437.0750454362605524
 20
429.5101902327177754
 30
0.0
 11
4436.1694910285668811
 21
429.5101902327177754
 31
0.0
  0
LINE
  5
186BF
  8
0
 10
4437.0640948688633216
 20
432.0152497013701804
 30
0.0
 11
4436.1804415959668404
 21
432.0152497013701804
 31
0.0
  0
LINE
  5
186C0
  8
0
 10
4437.1537649973151929
 20
429.5815309698065789
 30
0.0
 11
4437.1537649973151929
 21
434.3286517384942726
 31
0.0
  0
LINE
  5
186C1
  8
0
 10
4436.0907714675140596
 20
429.5815309698207898
 30
0.0
 11
4436.0907714675140596
 21
434.3286517384942726
 31
0.0
  0
ARC
  5
186C2
  8
0
 10
4437.0741318039836187
 20
429.5902995222397749
 30
0.0
 40
0.0801144992599117
 50
270.6534199024188752
 51
353.7163738075918218
  0
LINE
  5
186C3
  8
0
 10
4436.9943001156152604
 20
433.2166395970202757
 30
0.0
 11
4436.9940149617141287
 21
433.85472665552021
 31
0.0
  0
ARC
  5
186C4
  8
0
 10
4473.0251782990726497
 20
433.9924616999559817
 30
0.0
 40
36.0314265938189777
 50
179.2644500147308975
 51
180.2190214682794931
  0
ARC
  5
186C5
  8
0
 10
4437.4388086505487081
 20
434.4516794178488794
 30
0.0
 40
0.4421009291740955
 50
140.0261677753022127
 51
179.5697271508882125
  0
LINE
  5
186C6
  8
0
 10
4436.7516353186147171
 20
434.420581937020188
 30
0.0
 11
4436.4929026124164011
 21
434.4205800276201899
 31
0.0
  0
LINE
  5
186C7
  8
0
 10
4436.9060946282152145
 20
433.3108957091201887
 30
0.0
 11
4436.9060867661146403
 21
434.0775834422202024
 31
0.0
  0
ARC
  5
186C8
  8
0
 10
4436.8420619982007338
 20
434.3397469787801128
 30
0.0
 40
0.0639989272028593
 50
359.5439298216440989
 51
78.318995090065755
  0
ARC
  5
186C9
  8
0
 10
4444.2325749543288111
 20
434.209190829326019
 30
0.0
 40
7.327670139709455
 50
178.9830983494454131
 51
181.0291065435282007
  0
ARC
  5
186CA
  8
0
 10
4436.7449645314036388
 20
434.0792707799272989
 30
0.0
 40
0.3413763397748935
 50
71.1927350421559453
 51
88.8803199374598165
  0
ARC
  5
186CB
  8
0
 10
4436.7311555634660181
 20
433.3105046325769081
 30
0.0
 40
0.1751084435647837
 50
269.8962816682372932
 51
0.1279628464773433
  0
LINE
  5
186CC
  8
0
 10
4436.7308385777150761
 20
433.1353964759201745
 30
0.0
 11
4436.5136999080141322
 21
433.1353964759201745
 31
0.0
  0
ARC
  5
186CD
  8
0
 10
4436.9225223840103354
 20
434.3378528278860244
 30
0.0
 40
0.0165700762534
 50
166.185099084593304
 51
173.4360828056076969
  0
ARC
  5
186CE
  8
0
 10
4438.1293024502338085
 20
433.7360812927097982
 30
0.0
 40
1.4348115067147369
 50
131.821972310662602
 51
135.8378695871707009
  0
ARC
  5
186CF
  8
0
 10
4436.6148539166251794
 20
435.3712480679765804
 30
0.0
 40
0.7945307285603906
 50
314.5805358171593866
 51
358.211880283078699
  0
ARC
  5
186D0
  8
0
 10
4436.8195145416457308
 20
433.2151978389669011
 30
0.0
 40
0.1747915201996925
 50
269.9563445993313735
 51
0.4726063837946042
  0
LINE
  5
186D1
  8
0
 10
4436.8193813626730844
 20
433.0404063695037848
 30
0.0
 11
4436.4251583365658007
 21
433.0404063694704746
 31
0.0
  0
LINE
  5
186D2
  8
0
 10
4437.1165241985154353
 20
434.3233890322201773
 30
0.0
 11
4437.1164758128152243
 21
432.3696518198202057
 31
0.0
  0
LINE
  5
186D3
  8
0
 10
4437.1371237281146023
 20
434.0775771933202236
 30
0.0
 11
4437.1371634477145562
 21
432.3696362360201988
 31
0.0
  0
ARC
  5
186D4
  8
0
 10
4443.6988802983023561
 20
434.1056118336588838
 30
0.0
 40
6.5618164579218199
 50
177.6204146052739929
 51
180.2447906716894863
  0
ARC
  5
186D5
  8
0
 10
4437.4143687550440518
 20
434.3677407647156201
 30
0.0
 40
0.2718423638964909
 50
157.0054335768965075
 51
177.8253033548359099
  0
ARC
  5
186D6
  8
0
 10
4437.7455556339218674
 20
434.3191536702209987
 30
0.0
 40
0.5918668523207002
 50
140.4399553931185096
 51
179.0804982846848077
  0
ARC
  5
186D7
  8
0
 10
4437.0630686374161087
 20
432.0806690102194239
 30
0.0
 40
0.0654273575905399
 50
270.8987240822950184
 51
354.9770122692191876
  0
ARC
  5
186D8
  8
0
 10
4433.5812040418368269
 20
432.3297714983144147
 30
0.0
 40
3.5561828543483691
 50
355.8907439557469843
 51
0.6422979795613064
  0
ARC
  5
186D9
  8
0
 10
4440.5958165575048042
 20
432.3304980017243224
 30
0.0
 40
3.4795610411553848
 50
179.3552646880791883
 51
184.095144695365093
  0
ARC
  5
186DA
  8
0
 10
4437.1269496204185998
 20
432.0824587054003132
 30
0.0
 40
0.0018644305012848
 50
193.8502733142445891
 51
343.8778337541348264
  0
ARC
  5
186DB
  8
0
 10
4437.0996183338502306
 20
434.5027277509332748
 30
0.0
 40
0.0798725084315455
 50
312.2562859279922804
 51
338.259462219831903
  0
ARC
  5
186DC
  8
0
 10
4437.5586353221642639
 20
434.4077614690663722
 30
0.0
 40
0.4000201003333
 50
142.3130480044312094
 51
170.4781462319593004
  0
ARC
  5
186DD
  8
0
 10
4436.6222680164155463
 20
435.3617744491202188
 30
0.0
 40
0.7868788540683147
 50
358.8845264876542274
 51
181.1127954225848953
  0
ARC
  5
186DE
  8
0
 10
4438.1396057622741864
 20
434.3661307513247039
 30
0.0
 40
1.0239739941300201
 50
170.8276747727811937
 51
182.3922793125535975
  0
ARC
  5
186DF
  8
0
 10
4437.4059661021901775
 20
434.472675656574097
 30
0.0
 40
0.2829759713631174
 50
141.2194640949905988
 51
168.4453043036614019
  0
ARC
  5
186E0
  8
0
 10
4436.6222680164155463
 20
435.3617744491202188
 30
0.0
 40
0.9076511270530563
 50
308.3451239796175969
 51
231.6549714285079062
  0
ARC
  5
186E1
  8
0
 10
4436.1718244593139389
 20
429.5918661714874816
 30
0.0
 40
0.0817092643031246
 50
187.2666659218309917
 51
268.3635403673961264
  0
LINE
  5
186E2
  8
0
 10
4436.2502363492149016
 20
433.2166395970202757
 30
0.0
 11
4436.2505215031142143
 21
433.85472665552021
 31
0.0
  0
ARC
  5
186E3
  8
0
 10
4400.2193581657593313
 20
433.9924616999559817
 30
0.0
 40
36.0314265938189777
 50
359.7809785317203932
 51
0.7355499852690718
  0
ARC
  5
186E4
  8
0
 10
4435.8057278142814539
 20
434.4516794178488794
 30
0.0
 40
0.4421009291740955
 50
0.4302728491117992
 51
39.9738322246977873
  0
LINE
  5
186E5
  8
0
 10
4436.3384418366149475
 20
433.3108957091201887
 30
0.0
 11
4436.3384496987146122
 21
434.0775834422202024
 31
0.0
  0
ARC
  5
186E6
  8
0
 10
4436.4024744666294282
 20
434.3397469787801128
 30
0.0
 40
0.0639989272028593
 50
101.6810049099342024
 51
180.4560701783526895
  0
ARC
  5
186E7
  8
0
 10
4429.0119615105004414
 20
434.209190829326019
 30
0.0
 40
7.327670139709455
 50
358.9708934564685023
 51
1.0169016505545441
  0
ARC
  5
186E8
  8
0
 10
4436.4995719334274327
 20
434.0792707799272989
 30
0.0
 40
0.3413763397748935
 50
91.1196800625401977
 51
108.8072649578439979
  0
ARC
  5
186E9
  8
0
 10
4436.5133809013641439
 20
433.3105046325769081
 30
0.0
 40
0.1751084435647837
 50
179.8720371535227116
 51
270.1037183317627068
  0
ARC
  5
186EA
  8
0
 10
4436.3220140808207361
 20
434.3378528278860244
 30
0.0
 40
0.0165700762534
 50
6.5639171943922374
 51
13.8149009154066995
  0
ARC
  5
186EB
  8
0
 10
4435.115234014595444
 20
433.7360812927097982
 30
0.0
 40
1.4348115067147369
 50
44.1621304128292991
 51
48.1780276893373482
  0
ARC
  5
186EC
  8
0
 10
4436.6296825482031636
 20
435.3712480679765804
 30
0.0
 40
0.7945307285603906
 50
181.7854666304222064
 51
225.4194641828406134
  0
ARC
  5
186ED
  8
0
 10
4436.4250219231826122
 20
433.2151978389669011
 30
0.0
 40
0.1747915201996925
 50
179.5273936162053872
 51
270.0436554006686265
  0
LINE
  5
186EE
  8
0
 10
4436.1280634829563496
 20
434.3233890322201773
 30
0.0
 11
4436.1280634829563496
 21
432.3696518198202057
 31
0.0
  0
LINE
  5
186EF
  8
0
 10
4436.1073751728563366
 20
434.0775771933202236
 30
0.0
 11
4436.1073751728563366
 21
432.3696362360201988
 31
0.0
  0
ARC
  5
186F0
  8
0
 10
4429.616476227172825
 20
434.1077427862812215
 30
0.0
 40
6.490969040602601
 50
359.7337273720104918
 51
2.386746826474814
  0
ARC
  5
186F1
  8
0
 10
4435.8301677097870197
 20
434.3677407647156201
 30
0.0
 40
0.2718423638964909
 50
2.1746966451640231
 51
22.9945664231034712
  0
ARC
  5
186F2
  8
0
 10
4436.1814678274140533
 20
432.0806690102194239
 30
0.0
 40
0.0654273575905399
 50
185.0229877307808124
 51
269.1012759177049816
  0
ARC
  5
186F3
  8
0
 10
4440.9754423273398061
 20
432.369445780499575
 30
0.0
 40
4.8680671582099651
 50
179.9977583921578059
 51
183.4683621861256029
  0
ARC
  5
186F4
  8
0
 10
4432.6470661387456857
 20
432.3305820724622208
 30
0.0
 40
3.481216591302513
 50
355.9054189170296922
 51
0.6430449146125713
  0
ARC
  5
186F5
  8
0
 10
4436.1175868444106527
 20
432.0824587054003132
 30
0.0
 40
0.0018644305012848
 50
204.2723251057124116
 51
346.1497266857552972
  0
ARC
  5
186F6
  8
0
 10
4435.6859011426668076
 20
434.4077614690663154
 30
0.0
 40
0.4000201003333688
 50
9.5218537680406463
 51
37.6867230335126067
  0
ARC
  5
186F7
  8
0
 10
4434.6939730872418295
 20
434.3414305834054971
 30
0.0
 40
1.4342038769465639
 50
359.2792293897733202
 51
7.5292112121405266
  0
ARC
  5
186F8
  8
0
 10
4435.8385703626399845
 20
434.472675656574097
 30
0.0
 40
0.2829759713631174
 50
11.5546956963385998
 51
38.7805359050094083
  0
ARC
  5
186F9
  8
0
 10
4436.7267522832753457
 20
436.2045066669779771
 30
0.0
 40
0.0801933948100129
 50
67.6251049053119289
 51
83.8292371695273744
  0
ARC
  5
186FA
  8
0
 10
4436.5180128430492914
 20
436.2012102031105769
 30
0.0
 40
0.0833352532511242
 50
96.2559777387540265
 51
111.6575018435566022
  0
ARC
  5
186FB
  8
0
 10
4435.4989808309092041
 20
434.3191536702209987
 30
0.0
 40
0.5918668523207183
 50
0.9195017153151248
 51
39.5597087936389187
  0
ARC
  5
186FC
  8
0
 10
4436.1449181309799314
 20
434.5027277509332748
 30
0.0
 40
0.0798725084315455
 50
201.740537780168097
 51
227.7437140720076911
  0
ARC
  5
186FE
  8
0
 10
4436.6222679913789761
 20
435.3673191781952028
 30
0.0
 40
0.946252834522582
 50
310.9205079484398766
 51
82.1593201216836775
  0
ARC
  5
186FF
  8
0
 10
4436.6222679913789761
 20
435.3673191781952028
 30
0.0
 40
0.946252834522582
 50
97.8583793001038487
 51
229.0796089923582883
  0
ARC
  5
18700
  8
0
 10
4436.920424910537804
 20
432.4143928671126105
 30
0.0
 40
0.8050785601845419
 50
175.78126626291089
 51
184.1940802542318067
  0
ARC
  5
18701
  8
0
 10
4435.3146535600171774
 20
432.4147383368750184
 30
0.0
 40
0.805030268388489
 50
355.7810134381222724
 51
4.1943330000433692
  0
ARC
  5
18702
  8
0
 10
4436.3241115542932675
 20
432.4143928671126105
 30
0.0
 40
0.8050785601845419
 50
355.8059197457682217
 51
4.2187337370891171
  0
ARC
  5
18703
  8
0
 10
4437.9298829048129846
 20
432.4147383368750184
 30
0.0
 40
0.805030268388489
 50
175.8056669999565997
 51
184.2189865618776139
  0
ARC
  5
18704
  8
0
 10
4436.6221445545588722
 20
436.1664875184766856
 30
0.0
 40
0.1892223380930655
 50
38.7180131162496934
 51
141.0212725813823056
  0
LINE
  5
18705
  8
0
 10
4436.4745068906813685
 20
436.2848438171698717
 30
0.0
 11
4436.7697822184290999
 21
436.2848438171698717
 31
0.0
  0
LINE
  5
18706
  8
0
 10
4436.735722036966763
 20
436.2800860059130059
 30
0.0
 11
4436.7353211751997151
 21
436.2848438171698717
 31
0.0
  0
ARC
  5
18707
  8
0
 10
4436.7535739621025641
 20
431.1346540583109004
 30
0.0
 40
5.1508977614260312
 50
91.4598825651094387
 51
92.963682339963043
  0
ARC
  5
18708
  8
0
 10
4436.6095411994410824
 20
434.2052576350695858
 30
0.0
 40
2.078661678151517
 50
85.92434773215885
 51
89.6470893507953264
  0
LINE
  5
18709
  8
0
 10
4436.5090035881921722
 20
436.2848438171698717
 30
0.0
 11
4436.5085404036981345
 21
436.2797202681782096
 31
0.0
  0
ENDSEC
  0
EOF
