  0
SECTION
  2
HEADER
  9
$ACADVER
  1
AC1009
  9
$INSBASE
 10
5.5440966666999962
 20
6.812073001199983
 30
0.0
  9
$EXTMIN
 10
1.547434077412418
 20
4.0196877065381074
 30
-0.0000000349181948
  9
$EXTMAX
 10
9.5406365829296114
 20
6.8171824232609772
 30
0.0000000814935746
  9
$LIMMIN
 10
0.0
 20
0.0
  9
$LIMMAX
 10
11.6929133858000007
 20
8.2677165353999982
  9
$ORTHOMODE
 70
     1
  9
$REGENMODE
 70
     1
  9
$FILLMODE
 70
     1
  9
$QTEXTMODE
 70
     0
  9
$MIRRTEXT
 70
     0
  9
$DRAGMODE
 70
     2
  9
$LTSCALE
 40
0.6431102362
  9
$OSMODE
 70
  2047
  9
$ATTMODE
 70
     1
  9
$TEXTSIZE
 40
0.2
  9
$TRACEWID
 40
0.05
  9
$TEXTSTYLE
  7
STANDARD
  9
$CLAYER
  8
0
  9
$CELTYPE
  6
BYLAYER
  9
$CECOLOR
 62
   256
  9
$DIMSCALE
 40
1.0
  9
$DIMASZ
 40
0.1875
  9
$DIMEXO
 40
0.0625
  9
$DIMDLI
 40
0.4443307087
  9
$DIMRND
 40
0.0
  9
$DIMDLE
 40
0.0
  9
$DIMEXE
 40
0.125
  9
$DIMTP
 40
0.01
  9
$DIMTM
 40
0.01
  9
$DIMTXT
 40
0.15625
  9
$DIMCEN
 40
0.1052362205
  9
$DIMTSZ
 40
0.0
  9
$DIMTOL
 70
     1
  9
$DIMLIM
 70
     0
  9
$DIMTIH
 70
     1
  9
$DIMTOH
 70
     1
  9
$DIMSE1
 70
     0
  9
$DIMSE2
 70
     0
  9
$DIMTAD
 70
     0
  9
$DIMZIN
 70
     0
  9
$DIMBLK
  1

  9
$DIMASO
 70
     1
  9
$DIMSHO
 70
     1
  9
$DIMPOST
  1

  9
$DIMAPOST
  1

  9
$DIMALT
 70
     0
  9
$DIMALTD
 70
     2
  9
$DIMALTF
 40
25.3999999999999986
  9
$DIMLFAC
 40
1.0
  9
$DIMTOFL
 70
     0
  9
$DIMTVP
 40
0.0
  9
$DIMTIX
 70
     0
  9
$DIMSOXD
 70
     0
  9
$DIMSAH
 70
     0
  9
$DIMBLK1
  1

  9
$DIMBLK2
  1

  9
$DIMSTYLE
  2
STANDARD
  9
$DIMCLRD
 70
     0
  9
$DIMCLRE
 70
     0
  9
$DIMCLRT
 70
     0
  9
$DIMTFAC
 40
1.0
  9
$DIMGAP
 40
0.09
  9
$LUNITS
 70
     2
  9
$LUPREC
 70
     4
  9
$SKETCHINC
 40
0.1
  9
$FILLETRAD
 40
0.0
  9
$AUNITS
 70
     0
  9
$AUPREC
 70
     0
  9
$MENU
  1
.
  9
$ELEVATION
 40
0.0
  9
$PELEVATION
 40
0.0
  9
$THICKNESS
 40
0.0
  9
$LIMCHECK
 70
     0
  9
$BLIPMODE
 70
     0
  9
$CHAMFERA
 40
0.0
  9
$CHAMFERB
 40
0.0
  9
$SKPOLY
 70
     0
  9
$TDCREATE
 40
2457703.4635995370335877
  9
$TDUPDATE
 40
2459031.5279745371080935
  9
$TDINDWG
 40
0.0388598264
  9
$TDUSRTIMER
 40
0.0388598264
  9
$USRTIMER
 70
     1
  9
$ANGBASE
 50
0.0
  9
$ANGDIR
 70
     0
  9
$PDMODE
 70
     0
  9
$PDSIZE
 40
0.3125
  9
$PLINEWID
 40
0.0
  9
$COORDS
 70
     1
  9
$SPLFRAME
 70
     0
  9
$SPLINETYPE
 70
     6
  9
$SPLINESEGS
 70
     8
  9
$ATTDIA
 70
     1
  9
$ATTREQ
 70
     1
  9
$HANDLING
 70
     1
  9
$HANDSEED
  5
F8B
  9
$SURFTAB1
 70
     6
  9
$SURFTAB2
 70
     6
  9
$SURFTYPE
 70
     6
  9
$SURFU
 70
     6
  9
$SURFV
 70
     6
  9
$UCSNAME
  2

  9
$UCSORG
 10
0.0
 20
0.0
 30
0.0
  9
$UCSXDIR
 10
1.0
 20
0.0
 30
0.0
  9
$UCSYDIR
 10
0.0
 20
1.0
 30
0.0
  9
$PUCSNAME
  2

  9
$PUCSORG
 10
0.0
 20
0.0
 30
0.0
  9
$PUCSXDIR
 10
1.0
 20
0.0
 30
0.0
  9
$PUCSYDIR
 10
0.0
 20
1.0
 30
0.0
  9
$USERI1
 70
     0
  9
$USERI2
 70
     0
  9
$USERI3
 70
     0
  9
$USERI4
 70
     0
  9
$USERI5
 70
     0
  9
$USERR1
 40
0.0
  9
$USERR2
 40
0.0
  9
$USERR3
 40
0.0
  9
$USERR4
 40
0.0
  9
$USERR5
 40
0.0
  9
$WORLDVIEW
 70
     1
  9
$SHADEDGE
 70
     3
  9
$SHADEDIF
 70
    70
  9
$TILEMODE
 70
     1
  9
$MAXACTVP
 70
    64
  9
$PLIMCHECK
 70
     0
  9
$PEXTMIN
 10
1.0000000000000000E+20
 20
1.0000000000000000E+20
 30
1.0000000000000000E+20
  9
$PEXTMAX
 10
-1.0000000000000000E+20
 20
-1.0000000000000000E+20
 30
-1.0000000000000000E+20
  9
$PLIMMIN
 10
0.0
 20
0.0
  9
$PLIMMAX
 10
12.0
 20
9.0
  9
$UNITMODE
 70
     0
  9
$VISRETAIN
 70
     1
  9
$PLINEGEN
 70
     0
  9
$PSLTSCALE
 70
     1
  0
ENDSEC
  0
SECTION
  2
TABLES
  0
TABLE
  2
VPORT
 70
     1
  0
VPORT
  2
*ACTIVE
 70
     0
 10
0.0
 20
0.0
 11
1.0
 21
1.0
 12
-0.0000611397081354
 22
-0.0036908611565991
 13
0.0
 23
0.0
 14
1.0
 24
1.0
 15
0.0
 25
0.0
 16
-0.0000000000000053
 26
0.0
 36
24.405563504233541
 17
5.5440964698791504
 27
5.4221259260561414
 37
0.0
 40
2.8235751953869839
 41
2.8398203592814371
 42
50.0
 43
0.0
 44
0.0
 50
0.0
 51
0.0
 71
     0
 72
   100
 73
     1
 74
     1
 75
     0
 76
     0
 77
     0
 78
     0
  0
ENDTAB
  0
TABLE
  2
LTYPE
 70
     2
  0
LTYPE
  2
CONTINUOUS
 70
     0
  3
Solid line
 72
    65
 73
     0
 40
0.0
  0
LTYPE
  2
PHANTOM2
 70
     0
  3
___ _ _ ___ _ _ ___ _ _ ___ _ _
 72
    65
 73
     6
 40
1.25
 49
0.625
 49
-0.125
 49
0.125
 49
-0.125
 49
0.125
 49
-0.125
  0
ENDTAB
  0
TABLE
  2
LAYER
 70
     2
  0
LAYER
  2
0
 70
     0
 62
     7
  6
CONTINUOUS
  0
LAYER
  2
DEFPOINTS
 70
     0
 62
     7
  6
CONTINUOUS
  0
ENDTAB
  0
TABLE
  2
STYLE
 70
     1
  0
STYLE
  2
STANDARD
 70
     0
 40
0.0
 41
0.8
 50
0.0
 71
     0
 42
0.2
  3
txt
  4

  0
ENDTAB
  0
TABLE
  2
VIEW
 70
     0
  0
ENDTAB
  0
TABLE
  2
UCS
 70
     0
  0
ENDTAB
  0
TABLE
  2
APPID
 70
     4
  0
APPID
  2
ACAD
 70
     0
  0
APPID
  2
ACAD_NAV_VCDISPLAY
 70
     0
  0
APPID
  2
ACAD_MLEADERVER
 70
     0
  0
APPID
  2
ACDBATTR
 70
     0
  0
ENDTAB
  0
TABLE
  2
DIMSTYLE
 70
     1
  0
DIMSTYLE
  2
STANDARD
 70
     0
  3

  4

  5

  6

  7

 40
1.0
 41
0.1875
 42
0.0625
 43
0.38
 44
0.125
 45
0.0
 46
0.0
 47
0.01
 48
0.01
140
0.15625
141
0.09
142
0.0
143
25.3999999999999986
144
1.0
145
0.0
146
1.0
147
0.09
 71
     1
 72
     0
 73
     1
 74
     1
 75
     0
 76
     0
 77
     0
 78
     4
170
     0
171
     2
172
     0
173
     0
174
     0
175
     0
176
     0
177
     0
178
     0
  0
ENDTAB
  0
ENDSEC
  0
SECTION
  2
BLOCKS
  0
BLOCK
  8
0
  2
$MODEL_SPACE
 70
     0
 10
0.0
 20
0.0
 30
0.0
  3
$MODEL_SPACE
  1

  0
ENDBLK
  5
21
  8
0
  0
BLOCK
 67
     1
  8
0
  2
$PAPER_SPACE
 70
     0
 10
0.0
 20
0.0
 30
0.0
  3
$PAPER_SPACE
  1

  0
ENDBLK
  5
1D
 67
     1
  8
0
  0
ENDSEC
  0
SECTION
  2
ENTITIES
  0
LINE
  5
938
  8
0
 10
1.548033674599999
 20
4.5425454420999989
 30
0.0
 11
1.548033674599999
 21
4.1000257570999992
 31
0.0
  0
LINE
  5
939
  8
0
 10
2.293327490399995
 20
4.0268379659999951
 30
0.0
 11
2.2869937075999971
 21
4.0701044973
 31
0.0
  0
LINE
  5
93A
  8
0
 10
2.4011650556999982
 20
4.0268379659999951
 30
0.0
 11
2.407498838499996
 21
4.0701044973
 31
0.0
  0
LINE
  5
93B
  8
0
 10
3.092540088799999
 20
4.0268379659999951
 30
0.0
 11
3.0862063060000011
 21
4.0701044973
 31
0.0
  0
LINE
  5
93C
  8
0
 10
3.2003776541000022
 20
4.0268379659999951
 30
0.0
 11
3.2067114369
 21
4.0701044973
 31
0.0
  0
LINE
  5
93D
  8
0
 10
3.8917526872999981
 20
4.0268379659999951
 30
0.0
 11
3.885418904399998
 21
4.0701044973
 31
0.0
  0
LINE
  5
93E
  8
0
 10
2.301118602999999
 20
4.0201044972999957
 30
0.0
 11
2.3933739431000021
 21
4.0201044972999957
 31
0.0
  0
LINE
  5
93F
  8
0
 10
3.1003312013999951
 20
4.0201044972999957
 30
0.0
 11
3.1925865414999981
 21
4.0201044972999957
 31
0.0
  0
LINE
  5
940
  8
0
 10
3.8995437999000009
 20
4.0201044972999957
 30
0.0
 11
3.991799139899995
 21
4.0201044972999957
 31
0.0
  0
LINE
  5
941
  8
0
 10
4.6987563982999978
 20
4.0201044972999957
 30
0.0
 11
4.7910117384000008
 21
4.0201044972999957
 31
0.0
  0
LINE
  5
942
  8
0
 10
5.4979689966999947
 20
4.0201044972999957
 30
0.0
 11
5.5902243367999978
 21
4.0201044972999957
 31
0.0
  0
LINE
  5
943
  8
0
 10
6.2971815950999988
 20
4.0201044972999957
 30
0.0
 11
6.3894369352000018
 21
4.0201044972999957
 31
0.0
  0
LINE
  5
944
  8
0
 10
7.0963941935999983
 20
4.0201044972999957
 30
0.0
 11
7.1886495335999987
 21
4.0201044972999957
 31
0.0
  0
LINE
  5
945
  8
0
 10
7.8956067920000024
 20
4.0201044972999957
 30
0.0
 11
7.9878621320999983
 21
4.0201044972999957
 31
0.0
  0
LINE
  5
946
  8
0
 10
8.6948193903999993
 20
4.0201044972999957
 30
0.0
 11
8.7870747305000023
 21
4.0201044972999957
 31
0.0
  0
LINE
  5
947
  8
0
 10
3.9995902524999991
 20
4.0268379659999951
 30
0.0
 11
4.005924035299997
 21
4.0701044973
 31
0.0
  0
LINE
  5
948
  8
0
 10
9.510238398999995
 20
4.0701044973
 30
0.0
 11
1.577954934499999
 21
4.0701044973
 31
0.0
  0
LINE
  5
949
  8
0
 10
9.5401596589000022
 20
4.5425454420999989
 30
0.0
 11
1.548033674599999
 21
4.5425454420999989
 31
0.0
  0
LINE
  5
94A
  8
0
 10
4.6909652856999946
 20
4.0268379659999951
 30
0.0
 11
4.6846315028999959
 21
4.0701044973
 31
0.0
  0
LINE
  5
94B
  8
0
 10
4.8255927296999976
 20
5.6055375680999973
 30
0.0
 11
4.8255927296999976
 21
4.5425454420999989
 31
0.0
  0
LINE
  5
94C
  8
0
 10
4.798802850899996
 20
4.0268379659999951
 30
0.0
 11
4.8051366337999957
 21
4.0701044973
 31
0.0
  0
LINE
  5
94D
  8
0
 10
6.0020255988999969
 20
6.6450019333999961
 30
0.0
 11
6.0361677345999993
 21
6.679144068999995
 31
0.0
  0
LINE
  5
94E
  8
0
 10
5.0490966667000023
 20
6.792073001199995
 30
0.0
 11
5.0490966667000023
 21
6.6862151368000013
 31
0.0
  0
LINE
  5
94F
  8
0
 10
5.0890966667000006
 20
5.9344051014999968
 30
0.0
 11
5.0890966667000006
 21
6.637930865499996
 31
0.0
  0
LINE
  5
950
  8
0
 10
5.7479580365999956
 20
5.1330966231999957
 30
0.0
 11
5.3402352968999969
 21
5.1330966231999957
 31
0.0
  0
LINE
  5
951
  8
0
 10
5.4901778840999986
 20
4.0268379659999951
 30
0.0
 11
5.4838441012999999
 21
4.0701044973
 31
0.0
  0
LINE
  5
952
  8
0
 10
5.3402352968999969
 20
5.6055375680999973
 30
0.0
 11
5.3402352968999969
 21
5.1330966231999957
 31
0.0
  0
LINE
  5
953
  8
0
 10
5.7479580365999956
 20
5.1330966231999957
 30
0.0
 11
5.7479580365999956
 21
5.6055375680999973
 31
0.0
  0
LINE
  5
954
  8
0
 10
5.598015449400001
 20
4.0268379659999951
 30
0.0
 11
5.6043492321999997
 21
4.0701044973
 31
0.0
  0
LINE
  5
955
  8
0
 10
6.2626006037999948
 20
5.6055375680999973
 30
0.0
 11
4.8255927296999976
 21
5.6055375680999973
 31
0.0
  0
LINE
  5
956
  8
0
 10
5.9990966666999981
 20
5.9344051014999968
 30
0.0
 11
5.9990966666999981
 21
6.6379308656999987
 31
0.0
  0
LINE
  5
957
  8
0
 10
6.0390966666999972
 20
6.792073001199995
 30
0.0
 11
6.0390966666999972
 21
6.6862151368000013
 31
0.0
  0
LINE
  5
958
  8
0
 10
5.052025598899994
 20
6.679144068999995
 30
0.0
 11
5.0861677345999956
 21
6.6450019333999961
 31
0.0
  0
LINE
  5
959
  8
0
 10
6.2893904824999964
 20
4.0268379659999951
 30
0.0
 11
6.2830566996999968
 21
4.0701044973
 31
0.0
  0
LINE
  5
95A
  8
0
 10
6.2626006037999948
 20
5.6055375680999973
 30
0.0
 11
6.2626006037999948
 21
4.5425454420999989
 31
0.0
  0
LINE
  5
95B
  8
0
 10
6.3972280477999979
 20
4.0268379659999951
 30
0.0
 11
6.4035618305999966
 21
4.0701044973
 31
0.0
  0
LINE
  5
95C
  8
0
 10
6.0190966444922864
 20
6.812073001199983
 30
0.0
 11
5.069096688907706
 21
6.812073001199983
 31
0.0
  0
LINE
  5
95D
  8
0
 10
7.0886030809999951
 20
4.0268379659999951
 30
0.0
 11
7.0822692980999937
 21
4.0701044973
 31
0.0
  0
LINE
  5
95E
  8
0
 10
7.1964406461999948
 20
4.0268379659999951
 30
0.0
 11
7.2027744290000006
 21
4.0701044973
 31
0.0
  0
LINE
  5
95F
  8
0
 10
7.8878156793999992
 20
4.0268379659999951
 30
0.0
 11
7.8814818966000004
 21
4.0701044973
 31
0.0
  0
LINE
  5
960
  8
0
 10
7.9956532445999988
 20
4.0268379659999951
 30
0.0
 11
8.0019870275000002
 21
4.0701044973
 31
0.0
  0
LINE
  5
961
  8
0
 10
8.6870282777999961
 20
4.0268379659999951
 30
0.0
 11
8.6806944949999973
 21
4.0701044973
 31
0.0
  0
LINE
  5
962
  8
0
 10
8.7948658430999984
 20
4.0268379659999951
 30
0.0
 11
8.8011996258999972
 21
4.0701044973
 31
0.0
  0
LINE
  5
963
  8
0
 10
9.5401596589000022
 20
4.5425454420999989
 30
0.0
 11
9.5401596589000022
 21
4.1000257570999992
 31
0.0
  0
ARC
  5
980
  8
0
 10
1.577954934499999
 20
4.1000257570999992
 30
0.0
 40
0.0299212598
 50
180.0
 51
270.0
  0
ARC
  5
981
  8
0
 10
2.3011184645
 20
4.0279785129999928
 30
0.0
 40
0.0078740157
 50
188.3285625956997933
 51
270.0010081272998832
  0
ARC
  5
982
  8
0
 10
2.3933740816000011
 20
4.0279785129999928
 30
0.0
 40
0.0078740157
 50
269.9989918727001168
 51
351.6714374042996951
  0
ARC
  5
983
  8
0
 10
3.1925866800999989
 20
4.0279785129999928
 30
0.0
 40
0.0078740157
 50
269.9989918727001168
 51
351.6714374042996951
  0
ARC
  5
984
  8
0
 10
3.100331062899996
 20
4.0279785129999928
 30
0.0
 40
0.0078740157
 50
188.3285625956997933
 51
270.0010081272998832
  0
ARC
  5
985
  8
0
 10
3.9917992784999958
 20
4.0279785129999928
 30
0.0
 40
0.0078740157
 50
269.9989918727001168
 51
351.6714374042996951
  0
ARC
  5
986
  8
0
 10
4.7910118768999999
 20
4.0279785129999928
 30
0.0
 40
0.0078740157
 50
269.9989918727001168
 51
351.6714374042996951
  0
ARC
  5
987
  8
0
 10
4.698756259699997
 20
4.0279785129999928
 30
0.0
 40
0.0078740157
 50
188.3285625956997933
 51
270.0010081272998832
  0
ARC
  5
988
  8
0
 10
5.4979688581999957
 20
4.0279785129999928
 30
0.0
 40
0.0078740157
 50
188.3285625956997933
 51
270.0010081272998832
  0
ARC
  5
989
  8
0
 10
5.2790966666999992
 20
6.0608962078999999
 30
0.0
 40
0.23
 50
215.0968012274001921
 51
247.4596895365000933
  0
ARC
  5
98A
  8
0
 10
5.1640966666999972
 20
5.7838131879000008
 30
0.0
 40
0.07
 50
309.4534797989001049
 51
67.459689536500079
  0
ARC
  5
98B
  8
0
 10
5.0690966666999984
 20
6.792073001199995
 30
0.0
 40
0.02
 50
89.9999363795998164
 51
180.0
  0
ARC
  5
98C
  8
0
 10
5.0591100558999988
 20
6.686220422099999
 30
0.0
 40
0.010013011400001
 50
180.0302421629077969
 51
224.9672111313028893
  0
ARC
  5
98D
  8
0
 10
5.0790966666999964
 20
6.6379308655999969
 30
0.0
 40
0.01
 50
359.9999996723000777
 51
45.0
  0
ARC
  5
98E
  8
0
 10
5.5440966666999989
 20
5.3220730011999962
 30
0.0
 40
0.5280000000000001
 50
32.4704600427925314
 51
50.5465202009000407
  0
ARC
  5
98F
  8
0
 10
5.5440966666999989
 20
5.3220730011999962
 30
0.0
 40
0.5280000000000001
 50
129.4534797990999948
 51
147.5295399572075041
  0
ARC
  5
990
  8
0
 10
9.510238398999995
 20
4.1000257570999992
 30
0.0
 40
0.0299212598
 50
270.0
 51
0.0
  0
ARC
  5
991
  8
0
 10
5.5902244752999968
 20
4.0279785129999928
 30
0.0
 40
0.0078740157
 50
269.9989918727001168
 51
351.6714374042996951
  0
ARC
  5
992
  8
0
 10
6.3894370737999964
 20
4.0279785129999928
 30
0.0
 40
0.0078740157
 50
269.9989918727001168
 51
351.6714374042996951
  0
ARC
  5
993
  8
0
 10
6.2971814565999997
 20
4.0279785129999928
 30
0.0
 40
0.0078740157
 50
188.3285625956997933
 51
270.0010081272998832
  0
ARC
  5
994
  8
0
 10
7.1886496722000004
 20
4.0279785129999928
 30
0.0
 40
0.0078740157
 50
269.9989918727001168
 51
351.6714374042996951
  0
ARC
  5
995
  8
0
 10
7.0963940549999966
 20
4.0279785129999928
 30
0.0
 40
0.0078740157
 50
188.3285625956997933
 51
270.0010081272998832
  0
ARC
  5
996
  8
0
 10
7.9878622705999973
 20
4.0279785129999928
 30
0.0
 40
0.0078740157
 50
269.9989918727001168
 51
351.6714374042996951
  0
ARC
  5
997
  8
0
 10
7.8956066534000007
 20
4.0279785129999928
 30
0.0
 40
0.0078740157
 50
188.3285625956997933
 51
270.0010081272998832
  0
ARC
  5
998
  8
0
 10
8.7870748690000013
 20
4.0279785129999928
 30
0.0
 40
0.0078740157
 50
269.9989918727001168
 51
351.6714374042996951
  0
ARC
  5
999
  8
0
 10
8.6948192519000003
 20
4.0279785129999928
 30
0.0
 40
0.0078740157
 50
188.3285625956997933
 51
270.0010081272998832
  0
ARC
  5
99A
  8
0
 10
5.8090966667000004
 20
6.0608962078999999
 30
0.0
 40
0.23
 50
292.5403104634997931
 51
324.9031987724999908
  0
ARC
  5
99B
  8
0
 10
5.9240966667000023
 20
5.7838131879000008
 30
0.0
 40
0.07
 50
112.5403104634999067
 51
230.5465202010998951
  0
ARC
  5
99C
  8
0
 10
6.0190966667000012
 20
6.792073001199995
 30
0.0
 40
0.02
 50
0.0
 51
90.0000636203997857
  0
ARC
  5
99D
  8
0
 10
6.0290832784999964
 20
6.6862204229999938
 30
0.0
 40
0.0100130114
 50
315.0327817674000812
 51
359.9697527429999013
  0
ARC
  5
99E
  8
0
 10
6.0090966666999961
 20
6.6379308655999969
 30
0.0
 40
0.01
 50
135.0000000002000036
 51
179.9999999998998135
  0
ARC
  5
99F
  8
0
 10
5.0984275134016377
 20
5.9341934966408871
 30
0.0
 40
0.0093332457797899
 50
178.7008694980740984
 51
216.3959316867891118
  0
ARC
  5
9A0
  8
0
 10
5.9894592023446833
 20
5.9342904576563731
 30
0.0
 40
0.009638146212359
 50
324.2216607717634815
 51
0.6815380413031084
  0
ATTDEF
  5
A3D
  8
DEFPOINTS
 10
5.5325646458232853
 20
6.8160742591505246
 30
0.0
 40
0.001
  1
K-13695X
  3

  2
MODELNUMBER
 70
     0
1001
ACDBATTR
1070
     0
1070
     1
  0
ATTDEF
  5
A3E
  8
DEFPOINTS
 10
5.5325646458232853
 20
6.8144075924838603
 30
0.0
 40
0.001
  1

  3

  2
TRADENAME
 70
     0
1001
ACDBATTR
1070
     0
1070
     1
  0
ATTDEF
  5
A3F
  8
DEFPOINTS
 10
5.5325646458232853
 20
6.8127409258171951
 30
0.0
 40
0.001
  1
SHOWERHEAD
  3

  2
PRODUCT
 70
     0
1001
ACDBATTR
1070
     0
1070
     1
  0
ENDSEC
  0
EOF
