  0
SECTION
  2
HEADER
  9
$ACADVER
  1
AC1009
  9
$INSBASE
 10
17.0489796315500008
 20
-2.806792844499999
 30
0.0
  9
$EXTMIN
 10
12.0476373795468898
 20
-5.38659463969186
 30
-0.0000000349181948
  9
$EXTMAX
 10
22.0503255176299398
 20
-2.8010717181359999
 30
0.0000000814935746
  9
$LIMMIN
 10
0.0
 20
0.0
  9
$LIMMAX
 10
11.6929133858000007
 20
8.2677165353999982
  9
$ORTHOMODE
 70
     1
  9
$REGENMODE
 70
     1
  9
$FILLMODE
 70
     1
  9
$QTEXTMODE
 70
     0
  9
$MIRRTEXT
 70
     0
  9
$DRAGMODE
 70
     2
  9
$LTSCALE
 40
0.6431102362
  9
$OSMODE
 70
  2047
  9
$ATTMODE
 70
     1
  9
$TEXTSIZE
 40
0.2
  9
$TRACEWID
 40
0.05
  9
$TEXTSTYLE
  7
STANDARD
  9
$CLAYER
  8
0
  9
$CELTYPE
  6
BYLAYER
  9
$CECOLOR
 62
   256
  9
$DIMSCALE
 40
1.0
  9
$DIMASZ
 40
0.1875
  9
$DIMEXO
 40
0.0625
  9
$DIMDLI
 40
0.4443307087
  9
$DIMRND
 40
0.0
  9
$DIMDLE
 40
0.0
  9
$DIMEXE
 40
0.125
  9
$DIMTP
 40
0.01
  9
$DIMTM
 40
0.01
  9
$DIMTXT
 40
1.0
  9
$DIMCEN
 40
0.1052362205
  9
$DIMTSZ
 40
0.0
  9
$DIMTOL
 70
     1
  9
$DIMLIM
 70
     0
  9
$DIMTIH
 70
     1
  9
$DIMTOH
 70
     1
  9
$DIMSE1
 70
     0
  9
$DIMSE2
 70
     0
  9
$DIMTAD
 70
     0
  9
$DIMZIN
 70
     0
  9
$DIMBLK
  1

  9
$DIMASO
 70
     1
  9
$DIMSHO
 70
     1
  9
$DIMPOST
  1
\X
  9
$DIMAPOST
  1

  9
$DIMALT
 70
     1
  9
$DIMALTD
 70
     2
  9
$DIMALTF
 40
25.3999999999999986
  9
$DIMLFAC
 40
1.0
  9
$DIMTOFL
 70
     0
  9
$DIMTVP
 40
0.0
  9
$DIMTIX
 70
     0
  9
$DIMSOXD
 70
     0
  9
$DIMSAH
 70
     0
  9
$DIMBLK1
  1

  9
$DIMBLK2
  1

  9
$DIMSTYLE
  2
STANDARD
  9
$DIMCLRD
 70
     0
  9
$DIMCLRE
 70
     0
  9
$DIMCLRT
 70
     0
  9
$DIMTFAC
 40
1.0
  9
$DIMGAP
 40
0.09
  9
$LUNITS
 70
     2
  9
$LUPREC
 70
     4
  9
$SKETCHINC
 40
0.1
  9
$FILLETRAD
 40
0.0
  9
$AUNITS
 70
     0
  9
$AUPREC
 70
     0
  9
$MENU
  1
.
  9
$ELEVATION
 40
0.0
  9
$PELEVATION
 40
0.0
  9
$THICKNESS
 40
0.0
  9
$LIMCHECK
 70
     0
  9
$BLIPMODE
 70
     0
  9
$CHAMFERA
 40
0.0
  9
$CHAMFERB
 40
0.0
  9
$SKPOLY
 70
     0
  9
$TDCREATE
 40
2457704.4687268519774079
  9
$TDUPDATE
 40
2459031.5414583338424563
  9
$TDINDWG
 40
0.0379456597
  9
$TDUSRTIMER
 40
0.0379456597
  9
$USRTIMER
 70
     1
  9
$ANGBASE
 50
0.0
  9
$ANGDIR
 70
     0
  9
$PDMODE
 70
     0
  9
$PDSIZE
 40
0.3125
  9
$PLINEWID
 40
0.0
  9
$COORDS
 70
     1
  9
$SPLFRAME
 70
     0
  9
$SPLINETYPE
 70
     6
  9
$SPLINESEGS
 70
     8
  9
$ATTDIA
 70
     1
  9
$ATTREQ
 70
     1
  9
$HANDLING
 70
     1
  9
$HANDSEED
  5
24C5
  9
$SURFTAB1
 70
     6
  9
$SURFTAB2
 70
     6
  9
$SURFTYPE
 70
     6
  9
$SURFU
 70
     6
  9
$SURFV
 70
     6
  9
$UCSNAME
  2

  9
$UCSORG
 10
0.0
 20
0.0
 30
0.0
  9
$UCSXDIR
 10
1.0
 20
0.0
 30
0.0
  9
$UCSYDIR
 10
0.0
 20
1.0
 30
0.0
  9
$PUCSNAME
  2

  9
$PUCSORG
 10
0.0
 20
0.0
 30
0.0
  9
$PUCSXDIR
 10
1.0
 20
0.0
 30
0.0
  9
$PUCSYDIR
 10
0.0
 20
1.0
 30
0.0
  9
$USERI1
 70
     0
  9
$USERI2
 70
     0
  9
$USERI3
 70
     0
  9
$USERI4
 70
     0
  9
$USERI5
 70
     0
  9
$USERR1
 40
0.0
  9
$USERR2
 40
0.0
  9
$USERR3
 40
0.0
  9
$USERR4
 40
0.0
  9
$USERR5
 40
0.0
  9
$WORLDVIEW
 70
     1
  9
$SHADEDGE
 70
     3
  9
$SHADEDIF
 70
    70
  9
$TILEMODE
 70
     1
  9
$MAXACTVP
 70
    64
  9
$PLIMCHECK
 70
     0
  9
$PEXTMIN
 10
1.0000000000000000E+20
 20
1.0000000000000000E+20
 30
1.0000000000000000E+20
  9
$PEXTMAX
 10
-1.0000000000000000E+20
 20
-1.0000000000000000E+20
 30
-1.0000000000000000E+20
  9
$PLIMMIN
 10
0.0
 20
0.0
  9
$PLIMMAX
 10
12.0
 20
9.0
  9
$UNITMODE
 70
     0
  9
$VISRETAIN
 70
     1
  9
$PLINEGEN
 70
     0
  9
$PSLTSCALE
 70
     1
  0
ENDSEC
  0
SECTION
  2
TABLES
  0
TABLE
  2
VPORT
 70
     1
  0
VPORT
  2
*ACTIVE
 70
     0
 10
0.0
 20
0.0
 11
1.0
 21
1.0
 12
0.0000021662092671
 22
-0.0051019281212481
 13
0.0
 23
0.0
 14
1.0
 24
1.0
 15
0.0
 25
0.0
 16
-0.0000000000000071
 26
0.0
 36
29.7686774347583594
 17
17.0489792823791504
 27
-4.0887312507926818
 37
0.0
 40
3.7884444170942442
 41
2.6486111111111108
 42
50.0
 43
0.0
 44
0.0
 50
0.0
 51
0.0
 71
     0
 72
   100
 73
     1
 74
     1
 75
     0
 76
     0
 77
     0
 78
     0
  0
ENDTAB
  0
TABLE
  2
LTYPE
 70
     2
  0
LTYPE
  2
CONTINUOUS
 70
     0
  3
Solid line
 72
    65
 73
     0
 40
0.0
  0
LTYPE
  2
PHANTOM2
 70
     0
  3
___ _ _ ___ _ _ ___ _ _ ___ _ _
 72
    65
 73
     6
 40
1.25
 49
0.625
 49
-0.125
 49
0.125
 49
-0.125
 49
0.125
 49
-0.125
  0
ENDTAB
  0
TABLE
  2
LAYER
 70
     2
  0
LAYER
  2
0
 70
     0
 62
     7
  6
CONTINUOUS
  0
LAYER
  2
DEFPOINTS
 70
     0
 62
     7
  6
CONTINUOUS
  0
ENDTAB
  0
TABLE
  2
STYLE
 70
     1
  0
STYLE
  2
STANDARD
 70
     0
 40
0.0
 41
0.8
 50
0.0
 71
     0
 42
0.2
  3
txt
  4

  0
ENDTAB
  0
TABLE
  2
VIEW
 70
     0
  0
ENDTAB
  0
TABLE
  2
UCS
 70
     0
  0
ENDTAB
  0
TABLE
  2
APPID
 70
     7
  0
APPID
  2
ACAD
 70
     0
  0
APPID
  2
ACAD_DSTYLE_DIMJAG
 70
     0
  0
APPID
  2
ACAD_DSTYLE_DIMTALN
 70
     0
  0
APPID
  2
ACAD_NAV_VCDISPLAY
 70
     0
  0
APPID
  2
ACAD_EXEMPT_FROM_CAD_STANDARDS
 70
     0
  0
APPID
  2
ACAD_MLEADERVER
 70
     0
  0
APPID
  2
ACDBATTR
 70
     0
  0
ENDTAB
  0
TABLE
  2
DIMSTYLE
 70
     1
  0
DIMSTYLE
  2
STANDARD
 70
     0
  3

  4

  5

  6

  7

 40
1.0
 41
0.1875
 42
0.0625
 43
0.38
 44
0.125
 45
0.0
 46
0.0
 47
0.01
 48
0.01
140
0.15625
141
0.09
142
0.0
143
25.3999999999999986
144
1.0
145
0.0
146
1.0
147
0.09
 71
     1
 72
     0
 73
     1
 74
     1
 75
     0
 76
     0
 77
     0
 78
     4
170
     0
171
     2
172
     0
173
     0
174
     0
175
     0
176
     0
177
     0
178
     0
  0
ENDTAB
  0
ENDSEC
  0
SECTION
  2
BLOCKS
  0
BLOCK
  8
0
  2
$MODEL_SPACE
 70
     0
 10
0.0
 20
0.0
 30
0.0
  3
$MODEL_SPACE
  1

  0
ENDBLK
  5
21
  8
0
  0
BLOCK
 67
     1
  8
0
  2
$PAPER_SPACE
 70
     0
 10
0.0
 20
0.0
 30
0.0
  3
$PAPER_SPACE
  1

  0
ENDBLK
  5
1D
 67
     1
  8
0
  0
ENDSEC
  0
SECTION
  2
ENTITIES
  0
LINE
  5
1DD8
  8
0
 10
16.3304756944999987
 20
-4.2727692224
 30
0.0
 11
16.3304756944999987
 21
-4.8633204035000004
 31
0.0
  0
LINE
  5
1DD9
  8
0
 10
16.3600032535999986
 20
-4.2727692224
 30
0.0
 11
16.3600032535999986
 21
-3.8003282774999989
 31
0.0
  0
LINE
  5
1DDC
  8
0
 10
16.553979631499999
 20
-2.826792844499999
 30
0.0
 11
16.553979631499999
 21
-3.3449696376999989
 31
0.0
  0
LINE
  5
1DDD
  8
0
 10
16.8521298534999993
 20
-3.3449696375000002
 30
0.0
 11
16.8521298534999993
 21
-2.9809349802999989
 31
0.0
  0
LINE
  5
1DE1
  8
0
 10
17.7674804769999994
 20
-4.2727692224
 30
0.0
 11
17.7379560094999995
 21
-4.2727692224
 31
0.0
  0
LINE
  5
1DE2
  8
0
 10
16.3600032535999986
 20
-4.2727692224
 30
0.0
 11
16.3304787860000005
 21
-4.2727692224
 31
0.0
  0
LINE
  5
1DE5
  8
0
 10
17.2458294091000006
 20
-2.980934208799999
 30
0.0
 11
17.2458294091000006
 21
-3.3449696376999989
 31
0.0
  0
LINE
  5
1DE7
  8
0
 10
17.7379560094999995
 20
-3.8003282774999989
 30
0.0
 11
16.3600032535999986
 21
-3.8003282774999989
 31
0.0
  0
LINE
  5
1DE8
  8
0
 10
17.5439796315000009
 20
-2.826792844499999
 30
0.0
 11
17.5439796315000009
 21
-3.3449696376999989
 31
0.0
  0
LINE
  5
1DE9
  8
0
 10
17.7379560094999995
 20
-3.8003282774999989
 30
0.0
 11
17.7379560094999995
 21
-4.2727692224
 31
0.0
  0
LINE
  5
1DEA
  8
0
 10
17.7674835684999906
 20
-4.2727692224
 30
0.0
 11
17.7674835684999906
 21
-4.8633204035000004
 31
0.0
  0
LINE
  5
1DED
  8
0
 10
16.553979631499999
 20
-3.3449696376999989
 30
0.0
 11
16.8521298534999993
 21
-3.3449696375026319
 31
0.0
  0
LINE
  5
1DEE
  8
0
 10
17.2458294091000006
 20
-3.3449696377000002
 30
0.0
 11
17.5439796315000009
 21
-3.3449696376999989
 31
0.0
  0
LINE
  5
1DF3
  8
0
 10
16.5739805382000007
 20
-2.806792844499999
 30
0.0
 11
17.523978724900001
 21
-2.806792844499999
 31
0.0
  0
ARC
  5
1E92
  8
0
 10
17.049014981900001
 20
-4.0838244417
 30
0.0
 40
0.5280467307
 50
129.4542626886999983
 51
147.5264221790000079
  0
ARC
  5
1E93
  8
0
 10
17.0489630084999995
 20
-4.0838065381000002
 30
0.0
 40
0.5280211959000001
 50
32.4798686126000007
 51
50.546072063799997
  0
ARC
  5
1E98
  8
0
 10
16.7839796314999994
 20
-3.3449696376999989
 30
0.0
 40
0.23
 50
180.0
 51
247.459689536500008
  0
ARC
  5
1E99
  8
0
 10
17.3139796315000005
 20
-3.3449696376999989
 30
0.0
 40
0.23
 50
292.5403104635000204
 51
360.0
  0
ARC
  5
1E9A
  8
0
 10
17.428979631499999
 20
-3.622052657799999
 30
0.0
 40
0.07
 50
112.5403104635000062
 51
230.5465202009000052
  0
ARC
  5
1E9B
  8
0
 10
16.6689796315000009
 20
-3.622052657799999
 30
0.0
 40
0.07
 50
309.4534797991000232
 51
67.4596895364999938
  0
ARC
  5
1E9E
  8
0
 10
16.5739796314999985
 20
-2.826792844499999
 30
0.0
 40
0.02
 50
90.0
 51
180.0
  0
ARC
  5
1E9F
  8
0
 10
17.5239796315000014
 20
-2.826792844499999
 30
0.0
 40
0.02
 50
0.0
 51
90.0
  0
LINE
  5
1FC3
  8
0
 10
12.0489796315
 20
-4.8633204035000004
 30
0.0
 11
12.0489796315
 21
-5.3058400885000001
 31
0.0
  0
LINE
  5
1FC4
  8
0
 10
12.8218324984999992
 20
-5.3790278530999993
 30
0.0
 11
12.8154987196000008
 21
-5.3357613484000002
 31
0.0
  0
LINE
  5
1FC5
  8
0
 10
12.9296700715000004
 20
-5.3790278530999993
 30
0.0
 11
12.9360038505000006
 21
-5.3357613484000002
 31
0.0
  0
LINE
  5
1FC6
  8
0
 10
13.8651395850999997
 20
-5.3790278530999993
 30
0.0
 11
13.8588058061999995
 21
-5.3357613484000002
 31
0.0
  0
LINE
  5
1FC7
  8
0
 10
13.9729771581000008
 20
-5.3790278530999993
 30
0.0
 11
13.9793109370999993
 21
-5.3357613484000002
 31
0.0
  0
LINE
  5
1FC8
  8
0
 10
14.9084466717000002
 20
-5.3790278530999993
 30
0.0
 11
14.9021128928
 21
-5.3357613484000002
 31
0.0
  0
LINE
  5
1FC9
  8
0
 10
15.0162842447999996
 20
-5.3790278530999993
 30
0.0
 11
15.0226180236999998
 21
-5.3357613484000002
 31
0.0
  0
LINE
  5
1FCA
  8
0
 10
12.8296234764000001
 20
-5.3857613483999991
 30
0.0
 11
12.9218790935999994
 21
-5.3857613483999991
 31
0.0
  0
LINE
  5
1FCB
  8
0
 10
13.8729305630000006
 20
-5.3857613483999991
 30
0.0
 11
13.9651861801999999
 21
-5.3857613483999991
 31
0.0
  0
LINE
  5
1FCC
  8
0
 10
14.9162376496999993
 20
-5.3857613483999991
 30
0.0
 11
15.0084932668000004
 21
-5.3857613483999991
 31
0.0
  0
LINE
  5
1FCD
  8
0
 10
15.9595447362999998
 20
-5.3857613483999991
 30
0.0
 11
16.0518003534000009
 21
-5.3857613483999991
 31
0.0
  0
LINE
  5
1FCE
  8
0
 10
17.0028518228999985
 20
-5.3857613483999991
 30
0.0
 11
17.0951074401000014
 21
-5.3857613483999991
 31
0.0
  0
LINE
  5
1FCF
  8
0
 10
18.0461589095000008
 20
-5.3857613483999991
 30
0.0
 11
18.1384145267000001
 21
-5.3857613483999991
 31
0.0
  0
LINE
  5
1FD0
  8
0
 10
19.0894659960999995
 20
-5.3857613483999991
 30
0.0
 11
19.1817216132999988
 21
-5.3857613483999991
 31
0.0
  0
LINE
  5
1FD1
  8
0
 10
20.1327730827000018
 20
-5.3857613483999991
 30
0.0
 11
20.2250286999000011
 21
-5.3857613483999991
 31
0.0
  0
LINE
  5
1FD2
  8
0
 10
21.1760801693000005
 20
-5.3857613483999991
 30
0.0
 11
21.2683357864999998
 21
-5.3857613483999991
 31
0.0
  0
LINE
  5
1FD3
  8
0
 10
22.0190583715999999
 20
-5.3357613484000002
 30
0.0
 11
12.0789008913
 21
-5.3357613484000002
 31
0.0
  0
LINE
  5
1FD4
  8
0
 10
15.9517537583000006
 20
-5.3790278530999993
 30
0.0
 11
15.9454199794000004
 21
-5.3357613484000002
 31
0.0
  0
LINE
  5
1FD5
  8
0
 10
16.0595913314000001
 20
-5.3790278530999993
 30
0.0
 11
16.0659251103000003
 21
-5.3357613484000002
 31
0.0
  0
LINE
  5
1FD6
  8
0
 10
22.0489796315
 20
-4.8633204035000004
 30
0.0
 11
12.0489796315
 21
-4.8633204035000004
 31
0.0
  0
LINE
  5
1FD7
  8
0
 10
16.9950608450000011
 20
-5.3790278530999993
 30
0.0
 11
16.9887270659999992
 21
-5.3357613484000002
 31
0.0
  0
LINE
  5
1FD8
  8
0
 10
17.1028984179999988
 20
-5.3790278530999993
 30
0.0
 11
17.109232196899999
 21
-5.3357613484000002
 31
0.0
  0
LINE
  5
1FD9
  8
0
 10
18.0383679315999998
 20
-5.3790278530999993
 30
0.0
 11
18.0320341526000014
 21
-5.3357613484000002
 31
0.0
  0
LINE
  5
1FDA
  8
0
 10
18.146205504600001
 20
-5.3790278530999993
 30
0.0
 11
18.1525392835000012
 21
-5.3357613484000002
 31
0.0
  0
LINE
  5
1FDB
  8
0
 10
19.0816750181999986
 20
-5.3790278530999993
 30
0.0
 11
19.0753412392000001
 21
-5.3357613484000002
 31
0.0
  0
LINE
  5
1FDC
  8
0
 10
19.1895125911999997
 20
-5.3790278530999993
 30
0.0
 11
19.1958463702000017
 21
-5.3357613484000002
 31
0.0
  0
LINE
  5
1FDD
  8
0
 10
20.1249821048000008
 20
-5.3790278530999993
 30
0.0
 11
20.1186483259000006
 21
-5.3357613484000002
 31
0.0
  0
LINE
  5
1FDE
  8
0
 10
20.2328196777999985
 20
-5.3790278530999993
 30
0.0
 11
20.2391534568000004
 21
-5.3357613484000002
 31
0.0
  0
LINE
  5
1FDF
  8
0
 10
21.1682891913999995
 20
-5.3790278530999993
 30
0.0
 11
21.1619554124999993
 21
-5.3357613484000002
 31
0.0
  0
LINE
  5
1FE0
  8
0
 10
21.2761267644000007
 20
-5.3790278530999993
 30
0.0
 11
21.2824605433999992
 21
-5.3357613484000002
 31
0.0
  0
LINE
  5
1FE1
  8
0
 10
22.0489796315
 20
-4.8633204035000004
 30
0.0
 11
22.0489796315
 21
-5.3058400885000001
 31
0.0
  0
ARC
  5
1FE2
  8
0
 10
12.0789008913
 20
-5.3058400885000001
 30
0.0
 40
0.0299212598
 50
180.0
 51
270.0
  0
ARC
  5
1FE3
  8
0
 10
17.0028518228999985
 20
-5.3778873326000003
 30
0.0
 40
0.0078740157
 50
188.3283668704999911
 51
270.0
  0
ARC
  5
1FE4
  8
0
 10
12.8296234764000001
 20
-5.3778873326000003
 30
0.0
 40
0.0078740157
 50
188.3283668704999911
 51
270.0
  0
ARC
  5
1FE5
  8
0
 10
12.9218790935999994
 20
-5.3778873326000003
 30
0.0
 40
0.0078740157
 50
270.0
 51
351.6716331294999804
  0
ARC
  5
1FE6
  8
0
 10
13.8729305630000006
 20
-5.3778873326000003
 30
0.0
 40
0.0078740157
 50
188.3283668704999911
 51
270.0
  0
ARC
  5
1FE7
  8
0
 10
13.9651861801999999
 20
-5.3778873326000003
 30
0.0
 40
0.0078740157
 50
270.0
 51
351.6716331294999804
  0
ARC
  5
1FE8
  8
0
 10
14.9162376496999993
 20
-5.3778873326000003
 30
0.0
 40
0.0078740157
 50
188.3283668704999911
 51
270.0
  0
ARC
  5
1FE9
  8
0
 10
15.0084932668000004
 20
-5.3778873326000003
 30
0.0
 40
0.0078740157
 50
270.0
 51
351.6716331294999804
  0
ARC
  5
1FEA
  8
0
 10
15.9595447362999998
 20
-5.3778873326000003
 30
0.0
 40
0.0078740157
 50
188.3283668704999911
 51
270.0
  0
ARC
  5
1FEB
  8
0
 10
16.0518003534000009
 20
-5.3778873326000003
 30
0.0
 40
0.0078740157
 50
270.0
 51
351.6716331294999804
  0
ARC
  5
1FEC
  8
0
 10
22.0190583715999999
 20
-5.3058400885000001
 30
0.0
 40
0.0299212598
 50
270.0
 51
0.0
  0
ARC
  5
1FED
  8
0
 10
17.0951074401000014
 20
-5.3778873326000003
 30
0.0
 40
0.0078740157
 50
270.0
 51
351.6716331294999804
  0
ARC
  5
1FEE
  8
0
 10
18.1384145267000001
 20
-5.3778873326000003
 30
0.0
 40
0.0078740157
 50
270.0
 51
351.6716331294999804
  0
ARC
  5
1FEF
  8
0
 10
18.0461589095000008
 20
-5.3778873326000003
 30
0.0
 40
0.0078740157
 50
188.3283668704999911
 51
270.0
  0
ARC
  5
1FF0
  8
0
 10
19.1817216132999988
 20
-5.3778873326000003
 30
0.0
 40
0.0078740157
 50
270.0
 51
351.6716331294999804
  0
ARC
  5
1FF1
  8
0
 10
19.0894659960999995
 20
-5.3778873326000003
 30
0.0
 40
0.0078740157
 50
188.3283668704999911
 51
270.0
  0
ARC
  5
1FF2
  8
0
 10
20.2250286999000011
 20
-5.3778873326000003
 30
0.0
 40
0.0078740157
 50
270.0
 51
351.6716331294999804
  0
ARC
  5
1FF3
  8
0
 10
20.1327730827000018
 20
-5.3778873326000003
 30
0.0
 40
0.0078740157
 50
188.3283668704999911
 51
270.0
  0
ARC
  5
1FF4
  8
0
 10
21.2683357864999998
 20
-5.3778873326000003
 30
0.0
 40
0.0078740157
 50
270.0
 51
351.6716331294999804
  0
ARC
  5
1FF5
  8
0
 10
21.1760801693000005
 20
-5.3778873326000003
 30
0.0
 40
0.0078740157
 50
188.3283668704999911
 51
270.0
  0
ARC
  5
1FF6
  8
0
 10
16.9525889550047886
 20
-3.3442143788102929
 30
0.0
 40
0.1004619405090401
 50
180.430745642804311
 51
218.8999865821413948
  0
ARC
  5
1FF7
  8
0
 10
17.015334336890291
 20
-3.2874876512048141
 30
0.0
 40
0.1849762724153603
 50
220.3700273308041915
 51
257.6009233035144916
  0
ARC
  5
1FF8
  8
0
 10
17.0486196435954582
 20
-3.1792372710178651
 30
0.0
 40
0.297992880039925
 50
255.8191419528326946
 51
288.2330778090841932
  0
ARC
  5
1FF9
  8
0
 10
17.1026582680811607
 20
-3.3157864150700109
 30
0.0
 40
0.1516360240920803
 50
284.9812557097433228
 51
325.4588160191659085
  0
ARC
  5
1FFA
  8
0
 10
17.1421207142453689
 20
-3.342949987564853
 30
0.0
 40
0.1037283594866653
 50
325.4588160191659085
 51
358.8843480979676883
  0
ARC
  5
1FFB
  8
0
 10
17.0489787794518897
 20
-3.437224989589807
 30
0.0
 40
0.504572685216525
 50
68.8032187941266358
 51
111.1966007787295041
  0
ARC
  5
1FFC
  8
0
 10
17.2178793112054294
 20
-3.0017008537770011
 30
0.0
 40
0.0374445844752795
 50
50.2006141707282794
 51
68.8032187941284548
  0
ARC
  5
1FFD
  8
0
 10
17.234743818523679
 20
-2.9814590022101921
 30
0.0
 40
0.0110979687165133
 50
2.706349960231015
 51
50.2006141707270501
  0
ARC
  5
1FFE
  8
0
 10
16.8780045742460487
 20
-2.998461817832935
 30
0.0
 40
0.0336835671668997
 50
109.8974098699274009
 51
128.0782566206690944
  0
ARC
  5
1FFF
  8
0
 10
16.8656126677920284
 20
-2.9826454761658279
 30
0.0
 40
0.0135908816994005
 50
128.0782566206686113
 51
172.7698155980959882
  0
ATTDEF
  5
2188
  8
DEFPOINTS
 10
17.0347301476318584
 20
-2.8026699286527288
 30
0.0
 40
0.001
  1
K-13696X
  3

  2
MODELNUMBER
 70
     0
1001
ACDBATTR
1070
     0
1070
     1
  0
ATTDEF
  5
2189
  8
DEFPOINTS
 10
17.0347301476318584
 20
-2.8043365953193939
 30
0.0
 40
0.001
  1

  3

  2
TRADENAME
 70
     0
1001
ACDBATTR
1070
     0
1070
     1
  0
ATTDEF
  5
218A
  8
DEFPOINTS
 10
17.0347301476318584
 20
-2.8060032619860591
 30
0.0
 40
0.001
  1
SHOWERHEAD
  3

  2
PRODUCT
 70
     0
1001
ACDBATTR
1070
     0
1070
     1
  0
ENDSEC
  0
EOF
