  0
SECTION
  2
HEADER
  9
$ACADVER
  1
AC1009
  9
$INSBASE
 10
3337.7952096972258005
 20
306.4361693771284081
 30
0.0
  9
$EXTMIN
 10
3326.9901490608899621
 20
297.8037741926680155
 30
-0.0015258207003583
  9
$EXTMAX
 10
3348.4486644560511195
 20
315.0620476477860166
 30
0.0000000349246037
  9
$LIMMIN
 10
0.0
 20
0.0
  9
$LIMMAX
 10
11.6929133858000007
 20
8.2677165353999982
  9
$ORTHOMODE
 70
     1
  9
$REGENMODE
 70
     1
  9
$FILLMODE
 70
     1
  9
$QTEXTMODE
 70
     0
  9
$MIRRTEXT
 70
     0
  9
$DRAGMODE
 70
     2
  9
$LTSCALE
 40
0.6431102362
  9
$OSMODE
 70
  4095
  9
$ATTMODE
 70
     1
  9
$TEXTSIZE
 40
0.2
  9
$TRACEWID
 40
0.05
  9
$TEXTSTYLE
  7
STANDARD
  9
$CLAYER
  8
DEFPOINTS
  9
$CELTYPE
  6
BYLAYER
  9
$CECOLOR
 62
   256
  9
$DIMSCALE
 40
1.0
  9
$DIMASZ
 40
0.1875
  9
$DIMEXO
 40
0.0625
  9
$DIMDLI
 40
0.4443307087
  9
$DIMRND
 40
0.0
  9
$DIMDLE
 40
0.0
  9
$DIMEXE
 40
0.125
  9
$DIMTP
 40
0.01
  9
$DIMTM
 40
0.01
  9
$DIMTXT
 40
2.0
  9
$DIMCEN
 40
0.1052362205
  9
$DIMTSZ
 40
0.0
  9
$DIMTOL
 70
     1
  9
$DIMLIM
 70
     0
  9
$DIMTIH
 70
     1
  9
$DIMTOH
 70
     1
  9
$DIMSE1
 70
     0
  9
$DIMSE2
 70
     0
  9
$DIMTAD
 70
     0
  9
$DIMZIN
 70
     0
  9
$DIMBLK
  1

  9
$DIMASO
 70
     1
  9
$DIMSHO
 70
     1
  9
$DIMPOST
  1
\X
  9
$DIMAPOST
  1

  9
$DIMALT
 70
     1
  9
$DIMALTD
 70
     2
  9
$DIMALTF
 40
25.3999999999999986
  9
$DIMLFAC
 40
1.0
  9
$DIMTOFL
 70
     0
  9
$DIMTVP
 40
0.0
  9
$DIMTIX
 70
     0
  9
$DIMSOXD
 70
     0
  9
$DIMSAH
 70
     0
  9
$DIMBLK1
  1

  9
$DIMBLK2
  1

  9
$DIMSTYLE
  2
STANDARD
  9
$DIMCLRD
 70
     0
  9
$DIMCLRE
 70
     0
  9
$DIMCLRT
 70
     0
  9
$DIMTFAC
 40
1.0
  9
$DIMGAP
 40
0.09
  9
$LUNITS
 70
     2
  9
$LUPREC
 70
     4
  9
$SKETCHINC
 40
0.1
  9
$FILLETRAD
 40
0.0
  9
$AUNITS
 70
     0
  9
$AUPREC
 70
     0
  9
$MENU
  1
.
  9
$ELEVATION
 40
0.0
  9
$PELEVATION
 40
0.0
  9
$THICKNESS
 40
0.0
  9
$LIMCHECK
 70
     0
  9
$BLIPMODE
 70
     0
  9
$CHAMFERA
 40
0.0
  9
$CHAMFERB
 40
0.0
  9
$SKPOLY
 70
     0
  9
$TDCREATE
 40
2458060.468368056230247
  9
$TDUPDATE
 40
2459404.4723842591047287
  9
$TDINDWG
 40
0.4662585069
  9
$TDUSRTIMER
 40
0.4662585069
  9
$USRTIMER
 70
     1
  9
$ANGBASE
 50
0.0
  9
$ANGDIR
 70
     0
  9
$PDMODE
 70
     0
  9
$PDSIZE
 40
0.3125
  9
$PLINEWID
 40
0.0
  9
$COORDS
 70
     1
  9
$SPLFRAME
 70
     0
  9
$SPLINETYPE
 70
     6
  9
$SPLINESEGS
 70
     8
  9
$ATTDIA
 70
     1
  9
$ATTREQ
 70
     1
  9
$HANDLING
 70
     1
  9
$HANDSEED
  5
797F
  9
$SURFTAB1
 70
     6
  9
$SURFTAB2
 70
     6
  9
$SURFTYPE
 70
     6
  9
$SURFU
 70
     6
  9
$SURFV
 70
     6
  9
$UCSNAME
  2

  9
$UCSORG
 10
0.0
 20
0.0
 30
0.0
  9
$UCSXDIR
 10
1.0
 20
0.0
 30
0.0
  9
$UCSYDIR
 10
0.0
 20
1.0
 30
0.0
  9
$PUCSNAME
  2

  9
$PUCSORG
 10
0.0
 20
0.0
 30
0.0
  9
$PUCSXDIR
 10
1.0
 20
0.0
 30
0.0
  9
$PUCSYDIR
 10
0.0
 20
1.0
 30
0.0
  9
$USERI1
 70
     0
  9
$USERI2
 70
     0
  9
$USERI3
 70
     0
  9
$USERI4
 70
     0
  9
$USERI5
 70
     0
  9
$USERR1
 40
0.0
  9
$USERR2
 40
0.0
  9
$USERR3
 40
0.0
  9
$USERR4
 40
0.0
  9
$USERR5
 40
0.0
  9
$WORLDVIEW
 70
     1
  9
$SHADEDGE
 70
     3
  9
$SHADEDIF
 70
    70
  9
$TILEMODE
 70
     1
  9
$MAXACTVP
 70
    64
  9
$PLIMCHECK
 70
     0
  9
$PEXTMIN
 10
1.0000000000000000E+20
 20
1.0000000000000000E+20
 30
1.0000000000000000E+20
  9
$PEXTMAX
 10
-1.0000000000000000E+20
 20
-1.0000000000000000E+20
 30
-1.0000000000000000E+20
  9
$PLIMMIN
 10
0.0
 20
0.0
  9
$PLIMMAX
 10
12.0
 20
9.0
  9
$UNITMODE
 70
     0
  9
$VISRETAIN
 70
     1
  9
$PLINEGEN
 70
     0
  9
$PSLTSCALE
 70
     1
  0
ENDSEC
  0
SECTION
  2
TABLES
  0
TABLE
  2
VPORT
 70
     1
  0
VPORT
  2
*ACTIVE
 70
     0
 10
0.0
 20
0.0
 11
1.0
 21
1.0
 12
-0.0757592571544592
 22
-0.0032615651245465
 13
0.0
 23
0.0
 14
1.0
 24
1.0
 15
0.0
 25
0.0
 16
0.0
 26
0.0
 36
104.1320542035713999
 17
3337.795166015625
 27
306.4361724853516193
 37
0.0
 40
17.402354370430789
 41
2.0410052910052912
 42
50.0
 43
0.0
 44
0.0
 50
0.0
 51
0.0
 71
     0
 72
   100
 73
     1
 74
     1
 75
     0
 76
     0
 77
     0
 78
     0
  0
ENDTAB
  0
TABLE
  2
LTYPE
 70
     2
  0
LTYPE
  2
CONTINUOUS
 70
     0
  3
Solid line
 72
    65
 73
     0
 40
0.0
  0
LTYPE
  2
PHANTOM2
 70
     0
  3
___ _ _ ___ _ _ ___ _ _ ___ _ _
 72
    65
 73
     6
 40
1.25
 49
0.625
 49
-0.125
 49
0.125
 49
-0.125
 49
0.125
 49
-0.125
  0
ENDTAB
  0
TABLE
  2
LAYER
 70
     2
  0
LAYER
  2
0
 70
     0
 62
   255
  6
CONTINUOUS
  0
LAYER
  2
DEFPOINTS
 70
     0
 62
     7
  6
CONTINUOUS
  0
ENDTAB
  0
TABLE
  2
STYLE
 70
     1
  0
STYLE
  2
STANDARD
 70
     0
 40
0.0
 41
0.8
 50
0.0
 71
     0
 42
0.2
  3
txt
  4

  0
ENDTAB
  0
TABLE
  2
VIEW
 70
     0
  0
ENDTAB
  0
TABLE
  2
UCS
 70
     0
  0
ENDTAB
  0
TABLE
  2
APPID
 70
     9
  0
APPID
  2
ACAD
 70
     0
  0
APPID
  2
ACAD_MLEADERVER
 70
     0
  0
APPID
  2
ACAD_EXEMPT_FROM_CAD_STANDARDS
 70
     0
  0
APPID
  2
ACAD_NAV_VCDISPLAY
 70
     0
  0
APPID
  2
ACAECLAYERSTANDARD
 70
     0
  0
APPID
  2
ACCMTRANSPARENCY
 70
     0
  0
APPID
  2
ACAD_DSTYLE_DIMJAG
 70
     0
  0
APPID
  2
ACAD_DSTYLE_DIMTALN
 70
     0
  0
APPID
  2
ACDBATTR
 70
     0
  0
ENDTAB
  0
TABLE
  2
DIMSTYLE
 70
     1
  0
DIMSTYLE
  2
STANDARD
 70
     0
  3

  4

  5

  6

  7

 40
1.0
 41
0.1875
 42
0.0625
 43
0.38
 44
0.125
 45
0.0
 46
0.0
 47
0.01
 48
0.01
140
0.15625
141
0.09
142
0.0
143
25.3999999999999986
144
1.0
145
0.0
146
1.0
147
0.09
 71
     1
 72
     0
 73
     1
 74
     1
 75
     0
 76
     0
 77
     0
 78
     4
170
     0
171
     2
172
     0
173
     0
174
     0
175
     0
176
     0
177
     0
178
     0
  0
ENDTAB
  0
ENDSEC
  0
SECTION
  2
BLOCKS
  0
BLOCK
  8
0
  2
$MODEL_SPACE
 70
     0
 10
0.0
 20
0.0
 30
0.0
  3
$MODEL_SPACE
  1

  0
ENDBLK
  5
21
  8
0
  0
BLOCK
 67
     1
  8
0
  2
$PAPER_SPACE
 70
     0
 10
0.0
 20
0.0
 30
0.0
  3
$PAPER_SPACE
  1

  0
ENDBLK
  5
1D
 67
     1
  8
0
  0
ENDSEC
  0
SECTION
  2
ENTITIES
  0
ATTDEF
  5
3930
  8
DEFPOINTS
 10
3337.7844045639299111
 20
306.4355603450580929
 30
0.0
 40
0.001
  1
K-14008T-PD
  3

  2
MODELNUMBER
 70
     0
1001
ACDBATTR
1070
     0
1070
     1
  0
ATTDEF
  5
3931
  8
DEFPOINTS
 10
3337.7844045639299111
 20
306.4338936783914278
 30
0.0
 40
0.001
  1
LAUREATE
  3

  2
TRADENAME
 70
     0
1001
ACDBATTR
1070
     0
1070
     1
  0
ATTDEF
  5
3932
  8
DEFPOINTS
 10
3337.7844045639299111
 20
306.4322270117248195
 30
0.0
 40
0.001
  1
BATHROOM SINK
  3

  2
PRODUCT
 70
     0
1001
ACDBATTR
1070
     0
1070
     1
  0
CIRCLE
  5
7539
  8
0
 10
3337.7951096972269625
 20
311.2461693769207045
 30
0.0
 40
1.0625
  0
CIRCLE
  5
753A
  8
0
 10
3337.7951096972269625
 20
311.2461693769207045
 30
0.0
 40
0.7845
  0
ARC
  5
753B
  8
0
 10
3335.1483792117837766
 20
306.4361693769207022
 30
0.0
 40
7.904433052199999
 50
120.1055602459022964
 51
239.8944397544919127
  0
ARC
  5
753C
  8
0
 10
3337.7952097596157728
 20
310.0926336705439894
 30
0.0
 40
11.1104497408232596
 50
229.4581805735103899
 51
269.9999996782715925
  0
ARC
  5
753D
  8
0
 10
3334.7643836685479073
 20
306.4489567863394086
 30
0.0
 40
6.371791705272102
 50
131.029517863605605
 51
228.8720694568903866
  0
ARC
  5
7540
  8
0
 10
3337.7952103111338147
 20
301.8711647235647888
 30
0.0
 40
13.1812675534559194
 50
90.0000026685116552
 51
120.1055548058796063
  0
ARC
  5
7541
  8
0
 10
3337.8404954773368445
 20
302.8449834628980852
 30
0.0
 40
11.1099254473395099
 50
90.233547134927889
 51
130.7959807881082099
  0
ARC
  5
7542
  8
0
 10
3337.7952144472687905
 20
311.0011894098582275
 30
0.0
 40
13.1812829330383394
 50
239.8944631731064021
 51
269.9999793527371139
  0
ARC
  5
7543
  8
0
 10
3337.7889273378841608
 20
298.6956985544243821
 30
0.0
 40
0.8924608894853292
 50
89.596670674475817
 51
105.0696957452960021
  0
ARC
  5
7544
  8
0
 10
3337.6759291316411691
 20
299.1153709425649936
 30
0.0
 40
0.4578420818140275
 50
105.0696957452960021
 51
129.3255412552873054
  0
ARC
  5
7545
  8
0
 10
3337.4375607940169175
 20
299.4063354126520835
 30
0.0
 40
0.0817040921953443
 50
129.3255412552873054
 51
230.8604819633407885
  0
ARC
  5
7546
  8
0
 10
3337.6867731434740563
 20
299.7462773276183725
 30
0.0
 40
0.5031227768291882
 50
233.2849370390476054
 51
263.616066930143802
  0
ARC
  5
7547
  8
0
 10
3337.7937501916171641
 20
300.2648617914675242
 30
0.0
 40
1.0315343499676739
 50
260.9127173515158802
 51
270.0810671420745734
  0
ARC
  5
7548
  8
0
 10
3340.4420401826691887
 20
306.4361693769207022
 30
0.0
 40
7.904433052199999
 50
300.105560245508002
 51
59.8944397540976183
  0
ARC
  5
7549
  8
0
 10
3337.7952096348381019
 20
310.0926336705439894
 30
0.0
 40
11.1104497408232206
 50
270.0000003217284075
 51
310.5418194264894964
  0
ARC
  5
754A
  8
0
 10
3340.8260357259059674
 20
306.4489567863394086
 30
0.0
 40
6.371791705272102
 50
311.127930543109585
 51
48.9704821363943381
  0
ARC
  5
754B
  8
0
 10
3337.79520908332006
 20
301.8711647235647888
 30
0.0
 40
13.1812675534559194
 50
59.8944451941203511
 51
89.999997331488359
  0
ARC
  5
754C
  8
0
 10
3337.7499239171170302
 20
302.8449834628980852
 30
0.0
 40
11.1099254473395099
 50
49.2040192118917687
 51
89.7664528650721252
  0
ARC
  5
754D
  8
0
 10
3337.7952049471850842
 20
311.0011894098582275
 30
0.0
 40
13.1812829330383394
 50
270.0000206472628861
 51
300.1055368268936263
  0
ARC
  5
754E
  8
0
 10
3337.8014920565701686
 20
298.6956985544243821
 30
0.0
 40
0.8924608894853292
 50
74.9303042547039837
 51
90.4033293255241972
  0
ARC
  5
754F
  8
0
 10
3337.9144902628131604
 20
299.1153709425649936
 30
0.0
 40
0.4578420818140275
 50
50.6744587447127088
 51
74.9303042547039837
  0
ARC
  5
7550
  8
0
 10
3338.1528586004360477
 20
299.4063354126520835
 30
0.0
 40
0.0817040921953443
 50
309.1395180366591831
 51
50.6744587447127088
  0
ARC
  5
7551
  8
0
 10
3337.9036462509789089
 20
299.7462773276183725
 30
0.0
 40
0.5031227768291882
 50
276.3839330698560843
 51
306.7150629609524799
  0
ARC
  5
7552
  8
0
 10
3337.7966692028371654
 20
300.2648617914675242
 30
0.0
 40
1.0315343499676739
 50
269.9189328579254266
 51
279.0872826484841198
  0
ENDSEC
  0
EOF
