  0
SECTION
  2
HEADER
  9
$ACADVER
  1
AC1009
  9
$INSBASE
 10
3276.4312893442888708
 20
99.4142045716166365
 30
0.0
  9
$EXTMIN
 10
3240.2558621994448913
 20
79.1392675065009712
 30
-0.0015258207003583
  9
$EXTMAX
 10
3312.5333568132959954
 20
101.1472620703821974
 30
0.0000000349246037
  9
$LIMMIN
 10
0.0
 20
0.0
  9
$LIMMAX
 10
11.6929133858000007
 20
8.2677165353999982
  9
$ORTHOMODE
 70
     0
  9
$REGENMODE
 70
     1
  9
$FILLMODE
 70
     1
  9
$QTEXTMODE
 70
     0
  9
$MIRRTEXT
 70
     0
  9
$DRAGMODE
 70
     2
  9
$LTSCALE
 40
0.6431102362
  9
$OSMODE
 70
  4095
  9
$ATTMODE
 70
     1
  9
$TEXTSIZE
 40
0.2
  9
$TRACEWID
 40
0.05
  9
$TEXTSTYLE
  7
STANDARD
  9
$CLAYER
  8
0
  9
$CELTYPE
  6
BYLAYER
  9
$CECOLOR
 62
   256
  9
$DIMSCALE
 40
1.0
  9
$DIMASZ
 40
0.1875
  9
$DIMEXO
 40
0.0625
  9
$DIMDLI
 40
0.4443307087
  9
$DIMRND
 40
0.0
  9
$DIMDLE
 40
0.0
  9
$DIMEXE
 40
0.125
  9
$DIMTP
 40
0.01
  9
$DIMTM
 40
0.01
  9
$DIMTXT
 40
2.0
  9
$DIMCEN
 40
0.1052362205
  9
$DIMTSZ
 40
0.0
  9
$DIMTOL
 70
     1
  9
$DIMLIM
 70
     0
  9
$DIMTIH
 70
     1
  9
$DIMTOH
 70
     1
  9
$DIMSE1
 70
     0
  9
$DIMSE2
 70
     0
  9
$DIMTAD
 70
     0
  9
$DIMZIN
 70
     0
  9
$DIMBLK
  1

  9
$DIMASO
 70
     1
  9
$DIMSHO
 70
     1
  9
$DIMPOST
  1
\X
  9
$DIMAPOST
  1

  9
$DIMALT
 70
     1
  9
$DIMALTD
 70
     2
  9
$DIMALTF
 40
25.3999999999999986
  9
$DIMLFAC
 40
1.0
  9
$DIMTOFL
 70
     0
  9
$DIMTVP
 40
0.0
  9
$DIMTIX
 70
     0
  9
$DIMSOXD
 70
     0
  9
$DIMSAH
 70
     0
  9
$DIMBLK1
  1

  9
$DIMBLK2
  1

  9
$DIMSTYLE
  2
STANDARD
  9
$DIMCLRD
 70
     0
  9
$DIMCLRE
 70
     0
  9
$DIMCLRT
 70
     0
  9
$DIMTFAC
 40
1.0
  9
$DIMGAP
 40
0.09
  9
$LUNITS
 70
     2
  9
$LUPREC
 70
     4
  9
$SKETCHINC
 40
0.1
  9
$FILLETRAD
 40
0.0
  9
$AUNITS
 70
     0
  9
$AUPREC
 70
     0
  9
$MENU
  1
.
  9
$ELEVATION
 40
0.0
  9
$PELEVATION
 40
0.0
  9
$THICKNESS
 40
0.0
  9
$LIMCHECK
 70
     0
  9
$BLIPMODE
 70
     0
  9
$CHAMFERA
 40
0.0
  9
$CHAMFERB
 40
0.0
  9
$SKPOLY
 70
     0
  9
$TDCREATE
 40
2458060.468368056230247
  9
$TDUPDATE
 40
2459943.6736574079841375
  9
$TDINDWG
 40
0.2931552083
  9
$TDUSRTIMER
 40
0.2931552083
  9
$USRTIMER
 70
     1
  9
$ANGBASE
 50
0.0
  9
$ANGDIR
 70
     0
  9
$PDMODE
 70
     0
  9
$PDSIZE
 40
0.3125
  9
$PLINEWID
 40
0.0
  9
$COORDS
 70
     1
  9
$SPLFRAME
 70
     0
  9
$SPLINETYPE
 70
     6
  9
$SPLINESEGS
 70
     8
  9
$ATTDIA
 70
     1
  9
$ATTREQ
 70
     1
  9
$HANDLING
 70
     1
  9
$HANDSEED
  5
6393
  9
$SURFTAB1
 70
     6
  9
$SURFTAB2
 70
     6
  9
$SURFTYPE
 70
     6
  9
$SURFU
 70
     6
  9
$SURFV
 70
     6
  9
$UCSNAME
  2

  9
$UCSORG
 10
0.0
 20
0.0
 30
0.0
  9
$UCSXDIR
 10
1.0
 20
0.0
 30
0.0
  9
$UCSYDIR
 10
0.0
 20
1.0
 30
0.0
  9
$PUCSNAME
  2

  9
$PUCSORG
 10
0.0
 20
0.0
 30
0.0
  9
$PUCSXDIR
 10
1.0
 20
0.0
 30
0.0
  9
$PUCSYDIR
 10
0.0
 20
1.0
 30
0.0
  9
$USERI1
 70
     0
  9
$USERI2
 70
     0
  9
$USERI3
 70
     0
  9
$USERI4
 70
     0
  9
$USERI5
 70
     0
  9
$USERR1
 40
0.0
  9
$USERR2
 40
0.0
  9
$USERR3
 40
0.0
  9
$USERR4
 40
0.0
  9
$USERR5
 40
0.0
  9
$WORLDVIEW
 70
     1
  9
$SHADEDGE
 70
     3
  9
$SHADEDIF
 70
    70
  9
$TILEMODE
 70
     1
  9
$MAXACTVP
 70
    64
  9
$PLIMCHECK
 70
     0
  9
$PEXTMIN
 10
1.0000000000000000E+20
 20
1.0000000000000000E+20
 30
1.0000000000000000E+20
  9
$PEXTMAX
 10
-1.0000000000000000E+20
 20
-1.0000000000000000E+20
 30
-1.0000000000000000E+20
  9
$PLIMMIN
 10
0.0
 20
0.0
  9
$PLIMMAX
 10
12.0
 20
9.0
  9
$UNITMODE
 70
     0
  9
$VISRETAIN
 70
     1
  9
$PLINEGEN
 70
     0
  9
$PSLTSCALE
 70
     1
  0
ENDSEC
  0
SECTION
  2
TABLES
  0
TABLE
  2
VPORT
 70
     1
  0
VPORT
  2
*ACTIVE
 70
     0
 10
0.0
 20
0.0
 11
1.0
 21
1.0
 12
356.639238412620216
 22
2.8686142147111289
 13
0.0
 23
0.0
 14
1.0
 24
1.0
 15
0.0
 25
0.0
 16
0.0
 26
0.0
 36
219.472417637602689
 17
2919.75537109375
 27
87.2746505737304688
 37
0.0
 40
45.573795842725211
 41
1.593589743589743
 42
50.0
 43
0.0
 44
0.0
 50
0.0
 51
0.0
 71
     0
 72
   100
 73
     1
 74
     1
 75
     0
 76
     0
 77
     0
 78
     0
  0
ENDTAB
  0
TABLE
  2
LTYPE
 70
     2
  0
LTYPE
  2
CONTINUOUS
 70
     0
  3
Solid line
 72
    65
 73
     0
 40
0.0
  0
LTYPE
  2
PHANTOM2
 70
     0
  3
___ _ _ ___ _ _ ___ _ _ ___ _ _
 72
    65
 73
     6
 40
1.25
 49
0.625
 49
-0.125
 49
0.125
 49
-0.125
 49
0.125
 49
-0.125
  0
ENDTAB
  0
TABLE
  2
LAYER
 70
     2
  0
LAYER
  2
0
 70
     0
 62
   255
  6
CONTINUOUS
  0
LAYER
  2
DEFPOINTS
 70
     0
 62
     7
  6
CONTINUOUS
  0
ENDTAB
  0
TABLE
  2
STYLE
 70
     1
  0
STYLE
  2
STANDARD
 70
     0
 40
0.0
 41
0.8
 50
0.0
 71
     0
 42
0.2
  3
txt
  4

  0
ENDTAB
  0
TABLE
  2
VIEW
 70
     0
  0
ENDTAB
  0
TABLE
  2
UCS
 70
     0
  0
ENDTAB
  0
TABLE
  2
APPID
 70
     9
  0
APPID
  2
ACAD
 70
     0
  0
APPID
  2
ACAD_MLEADERVER
 70
     0
  0
APPID
  2
ACAD_EXEMPT_FROM_CAD_STANDARDS
 70
     0
  0
APPID
  2
ACAD_NAV_VCDISPLAY
 70
     0
  0
APPID
  2
ACAECLAYERSTANDARD
 70
     0
  0
APPID
  2
ACCMTRANSPARENCY
 70
     0
  0
APPID
  2
ACAD_DSTYLE_DIMJAG
 70
     0
  0
APPID
  2
ACAD_DSTYLE_DIMTALN
 70
     0
  0
APPID
  2
ACDBATTR
 70
     0
  0
ENDTAB
  0
TABLE
  2
DIMSTYLE
 70
     1
  0
DIMSTYLE
  2
STANDARD
 70
     0
  3

  4

  5

  6

  7

 40
1.0
 41
0.1875
 42
0.0625
 43
0.38
 44
0.125
 45
0.0
 46
0.0
 47
0.01
 48
0.01
140
0.15625
141
0.09
142
0.0
143
25.3999999999999986
144
1.0
145
0.0
146
1.0
147
0.09
 71
     1
 72
     0
 73
     1
 74
     1
 75
     0
 76
     0
 77
     0
 78
     4
170
     0
171
     2
172
     0
173
     0
174
     0
175
     0
176
     0
177
     0
178
     0
  0
ENDTAB
  0
ENDSEC
  0
SECTION
  2
BLOCKS
  0
BLOCK
  8
0
  2
$MODEL_SPACE
 70
     0
 10
0.0
 20
0.0
 30
0.0
  3
$MODEL_SPACE
  1

  0
ENDBLK
  5
21
  8
0
  0
BLOCK
 67
     1
  8
0
  2
$PAPER_SPACE
 70
     0
 10
0.0
 20
0.0
 30
0.0
  3
$PAPER_SPACE
  1

  0
ENDBLK
  5
1D
 67
     1
  8
0
  0
BLOCK
  8
0
  2
_FILLED
 70
     0
 10
0.0
 20
0.0
 30
0.0
  3
_FILLED
  1

  0
SOLID
  5
599B
  8
0
  6
BYBLOCK
 62
     0
 10
0.0
 20
0.0
 30
0.0
 11
-1.0
 21
0.1666666667
 31
0.0
 12
-1.0
 22
-0.1666666667
 32
0.0
 13
-1.0
 23
-0.1666666667
 33
0.0
  0
ENDBLK
  5
599C
  8
0
  6
BYBLOCK
 62
     0
  0
ENDSEC
  0
SECTION
  2
ENTITIES
  0
ATTDEF
  5
3930
  8
DEFPOINTS
 10
3276.428024166897103
 20
99.4193078333821774
 30
0.0
 40
0.001
  1
K-1418-JHH
  3

  2
MODELNUMBER
 70
     0
1001
ACDBATTR
1070
     0
1070
     1
  0
ATTDEF
  5
3931
  8
DEFPOINTS
 10
3276.428024166897103
 20
99.4176411667155122
 30
0.0
 40
0.001
  1
MEMOIRS
  3

  2
TRADENAME
 70
     0
1001
ACDBATTR
1070
     0
1070
     1
  0
ATTDEF
  5
3932
  8
DEFPOINTS
 10
3276.428024166897103
 20
99.4159745000488471
 30
0.0
 40
0.001
  1
BATH
  3

  2
PRODUCT
 70
     0
1001
ACDBATTR
1070
     0
1070
     1
  0
LINE
  5
6249
  8
0
 10
3277.1812893442888708
 20
79.1441586523166336
 30
0.0
 11
3275.6812893442888708
 21
79.1441586523166336
 31
0.0
  0
LINE
  5
624A
  8
0
 10
3260.9312893442879613
 20
79.1441586523166336
 30
0.0
 11
3259.4312893442879613
 21
79.1441586523166336
 31
0.0
  0
LINE
  5
624B
  8
0
 10
3258.4312893442888708
 20
81.4615488514295976
 30
0.0
 11
3258.4312893442888708
 21
80.7660726804166416
 31
0.0
  0
LINE
  5
624C
  8
0
 10
3259.4312893442879613
 20
81.0370262960165917
 30
0.0
 11
3259.4312893442879613
 21
79.1441586523166336
 31
0.0
  0
LINE
  5
624D
  8
0
 10
3260.9312893442879613
 20
81.003501336716667
 30
0.0
 11
3260.9312893442879613
 21
79.1441586523166336
 31
0.0
  0
LINE
  5
624E
  8
0
 10
3273.4312893442879613
 20
80.281786923703919
 30
0.0
 11
3273.4312893442879613
 21
80.2384070935166278
 31
0.0
  0
LINE
  5
624F
  8
0
 10
3275.6812893442888708
 20
80.5175158648166587
 30
0.0
 11
3275.6812893442888708
 21
79.1441586523166336
 31
0.0
  0
ARC
  5
6250
  8
0
 10
3277.7915489800889191
 20
254.1282061724166965
 30
0.0
 40
173.9010907086999964
 50
268.5632599707416261
 51
269.3047085679427823
  0
ARC
  5
6251
  8
0
 10
3241.7170238982639603
 20
99.3828538667813746
 30
0.0
 40
1.2870887745816579
 50
146.1084429644411102
 51
178.6042604235616125
  0
ARC
  5
6252
  8
0
 10
3239.5661468755961323
 20
100.8282055370674044
 30
0.0
 40
1.3043034334063801
 50
326.0908556549758828
 51
348.8023912847896781
  0
ARC
  5
6253
  8
0
 10
3241.1095061574919782
 20
100.5243244973702019
 30
0.0
 40
0.2686918640487723
 50
100.7827990310340027
 51
169.1465764132856862
  0
ARC
  5
6254
  8
0
 10
3240.9956400968699199
 20
101.0190162096508004
 30
0.0
 40
0.2393479448106604
 50
285.4092253059732798
 51
341.1825940395837051
  0
ARC
  5
6255
  8
0
 10
3241.5461616175762174
 20
100.8040999350279066
 30
0.0
 40
0.3520217728249121
 50
104.9695939857110005
 51
156.9703002519435984
  0
LINE
  5
6256
  8
0
 10
3311.4073465500709972
 20
101.1441751596165943
 30
0.0
 11
3241.4552321385071991
 21
101.1441751596165943
 31
0.0
  0
LINE
  5
6257
  8
0
 10
3258.4312893442888708
 20
80.7660726804166416
 30
0.0
 11
3259.4312893442879613
 21
80.7308949746233253
 31
0.0
  0
LINE
  5
6258
  8
0
 10
3260.9312893442879613
 20
80.6781284159333154
 30
0.0
 11
3273.4312893442879613
 21
80.2384070935166278
 31
0.0
  0
ARC
  5
6259
  8
0
 10
3238.7482160595409368
 20
82.0533270470330507
 30
0.0
 40
13.7732825439750197
 50
17.2915048556525406
 51
33.0712754978188315
  0
ARC
  5
625A
  8
0
 10
3271.7073260820861833
 20
104.8495841753881024
 30
0.0
 40
26.3094668530711893
 50
194.0829321116057997
 51
215.506529411831707
  0
LINE
  5
625B
  8
0
 10
3291.9312893442888708
 20
79.1441586523166336
 30
0.0
 11
3293.4312893442888708
 21
79.1441586523166336
 31
0.0
  0
LINE
  5
625C
  8
0
 10
3294.4271863606918487
 20
81.4614970261617657
 30
0.0
 11
3294.4312893442879613
 21
80.7660726804166416
 31
0.0
  0
LINE
  5
625D
  8
0
 10
3293.4312893442888708
 20
81.0370383872165974
 30
0.0
 11
3293.4312893442888708
 21
79.1441586523166336
 31
0.0
  0
LINE
  5
625E
  8
0
 10
3294.4290269081070619
 20
81.1495383131231449
 30
0.0
 11
3297.4728613667889476
 21
81.2792692059166058
 31
0.0
  0
LINE
  5
625F
  8
0
 10
3291.9312893442888708
 20
81.003501336716667
 30
0.0
 11
3291.9312893442888708
 21
79.1441586523166336
 31
0.0
  0
LINE
  5
6260
  8
0
 10
3279.4312893442888708
 20
80.281786923703919
 30
0.0
 11
3279.4312893442888708
 21
80.2384070935166278
 31
0.0
  0
LINE
  5
6261
  8
0
 10
3277.1812893442888708
 20
80.5175158648414424
 30
0.0
 11
3277.1812893442888708
 21
79.1441586523166336
 31
0.0
  0
ARC
  5
6262
  8
0
 10
3311.1455547903128718
 20
99.3828538667813746
 30
0.0
 40
1.2870887745816579
 50
1.3957395764375979
 51
33.8915570355588684
  0
ARC
  5
6263
  8
0
 10
3313.296431812982064
 20
100.8282055370674044
 30
0.0
 40
1.3043034334063801
 50
191.1976087152102934
 51
213.9091443450220993
  0
ARC
  5
6264
  8
0
 10
3311.7530725310862181
 20
100.5243244973702019
 30
0.0
 40
0.2686918640487723
 50
10.8534235867143192
 51
79.2172009689659262
  0
ARC
  5
6265
  8
0
 10
3311.8669385917078216
 20
101.0190162096508004
 30
0.0
 40
0.2393479448106604
 50
198.8174059604162949
 51
254.5907746940266065
  0
ARC
  5
6266
  8
0
 10
3311.3164170710010694
 20
100.8040999350279066
 30
0.0
 40
0.3520217728249121
 50
23.029699748056391
 51
75.0304060142889853
  0
LINE
  5
6267
  8
0
 10
3294.4312893442879613
 20
80.7660726804166416
 30
0.0
 11
3293.4312893442888708
 21
80.7308949746233253
 31
0.0
  0
LINE
  5
6268
  8
0
 10
3291.9312893442888708
 20
80.6781284159333012
 30
0.0
 11
3279.4312893442888708
 21
80.2384070935166278
 31
0.0
  0
ARC
  5
6269
  8
0
 10
3314.1143626290368047
 20
82.0533270470330507
 30
0.0
 40
13.7732825439750197
 50
146.9287245021812112
 51
162.7084951443474097
  0
ARC
  5
626A
  8
0
 10
3281.155252606492013
 20
104.8495841753881024
 30
0.0
 40
26.3094668530711893
 50
324.493470588168293
 51
346.0010193949648283
  0
LINE
  5
626B
  8
0
 10
3240.4303169980889834
 20
99.4142045716166365
 30
0.0
 11
3312.4322616904892129
 21
99.4142045716166365
 31
0.0
  0
ARC
  5
626C
  8
0
 10
3260.1794385846142177
 20
149.5679696679563904
 30
0.0
 40
68.4528564561939277
 50
265.9304040668641846
 51
268.5366211258167937
  0
ARC
  5
626D
  8
0
 10
3287.7100587006611931
 20
1312.7340345940469888
 30
0.0
 40
1232.0215943913599403
 50
268.6847662037636724
 51
268.7545418778483963
  0
ARC
  5
626E
  8
0
 10
3276.4312893390888348
 20
394.9496384340631039
 30
0.0
 40
314.4330170376417186
 50
269.8633353599880138
 51
270.1366646419140238
  0
ARC
  5
626F
  8
0
 10
3265.8525563328830685
 20
1280.9796854079309014
 30
0.0
 40
1200.259531373774962
 50
271.2449965096595861
 51
271.3166186470218122
  0
ARC
  5
6270
  8
0
 10
3275.2713701407628832
 20
853.2826867043569337
 30
0.0
 40
772.4340480889734408
 50
270.0860377660449103
 51
271.4213447890534781
  0
LINE
  5
6271
  8
0
 10
3241.0537288115820047
 20
100.7871632416399024
 30
0.0
 11
3311.8088498769961916
 21
100.7871632416399024
 31
0.0
  0
LINE
  5
6272
  8
0
 10
3258.4312893442888708
 20
81.4615488514295976
 30
0.0
 11
3276.4312083042900667
 21
81.2247340889166054
 31
0.0
  0
LINE
  5
6273
  8
0
 10
3276.4312083042900667
 20
81.2247340889166054
 30
0.0
 11
3294.4271863606918487
 21
81.4614970261617657
 31
0.0
  0
LINE
  5
6274
  8
0
 10
3276.4312893442861423
 20
80.8495095074165704
 30
0.0
 11
3258.4312893442888708
 21
81.0862994863144451
 31
0.0
  0
ARC
  5
6275
  8
0
 10
3309.6474929897431139
 20
97.6651298737978237
 30
0.0
 40
3.0755139972564289
 50
145.339700614698188
 51
164.5352400550945902
  0
ARC
  5
6276
  8
0
 10
3243.2644963163270404
 20
97.6848089445307153
 30
0.0
 40
3.0220122554326889
 50
14.6242754679415192
 51
34.9084100759129967
  0
ARC
  5
6277
  8
0
 10
3238.6752146289481971
 20
82.3024902194757431
 30
0.0
 40
13.7713721225246797
 50
6.9317606965843384
 51
16.2113725589174607
  0
ARC
  5
6278
  8
0
 10
3255.5491019247820077
 20
84.5329609851089998
 30
0.0
 40
3.253223405169487
 50
190.0630821730752871
 51
265.9876072477699154
  0
ARC
  5
6279
  8
0
 10
3297.3102076307977768
 20
84.5336114120542703
 30
0.0
 40
3.2584044304660429
 50
272.8612922425734268
 51
349.0444573249582731
  0
ARC
  5
627A
  8
0
 10
3314.2316299956241892
 20
82.2847817995591271
 30
0.0
 40
13.8188226171667505
 50
163.7693638737030994
 51
173.2276611272133096
  0
CIRCLE
  5
627B
  8
0
 10
3260.4151942855201014
 20
87.1214990123221753
 30
0.0
 40
0.9194627978727202
  0
CIRCLE
  5
627C
  8
0
 10
3276.4312083644908853
 20
88.6252467312317265
 30
0.0
 40
0.9162004478849215
  0
CIRCLE
  5
627D
  8
0
 10
3292.409635956432794
 20
87.0987828739630743
 30
0.0
 40
0.9420914678394872
  0
ARC
  5
627E
  8
0
 10
3254.655956490544213
 20
90.7618334236573219
 30
0.0
 40
4.2078503246683914
 50
195.4669383232744906
 51
220.3486389778462922
  0
ARC
  5
627F
  8
0
 10
3249.010942786258056
 20
87.7719699552796442
 30
0.0
 40
2.4525491960126482
 50
6.2157873242752579
 51
49.5997899768434465
  0
ARC
  5
6280
  8
0
 10
3258.3007869874718381
 20
92.6815633178422615
 30
0.0
 40
8.2256736134102795
 50
202.3114639067667895
 51
213.4005786029331091
  0
LINE
  5
6282
  8
0
 10
3275.0899899210889998
 20
80.0637966396166263
 30
0.0
 11
3275.6812893442888708
 21
80.0637966396166263
 31
0.0
  0
LINE
  5
6283
  8
0
 10
3277.1812893442888708
 20
80.0637966396166263
 30
0.0
 11
3277.7725887673891521
 21
80.0637966396166263
 31
0.0
  0
ARC
  5
6284
  8
0
 10
3275.1121044468650325
 20
80.5410819897328167
 30
0.0
 40
0.4777974023431001
 50
216.9206780029996082
 51
267.3471563110178977
  0
ARC
  5
6285
  8
0
 10
3277.7594758688328511
 20
80.5285964720807357
 30
0.0
 40
0.464984765736688
 50
271.6159956617249236
 51
324.5183290107182188
  0
LINE
  5
6286
  8
0
 10
3279.4312893442888708
 20
80.281786923703919
 30
0.0
 11
3277.1812893442888708
 21
80.2416171536934542
 31
0.0
  0
ENDSEC
  0
EOF
