  0
SECTION
  2
HEADER
  9
$ACADVER
  1
AC1009
  9
$INSBASE
 10
576.0018840112159069
 20
66.7894556679698894
 30
0.0
  9
$EXTMIN
 10
568.8134538644811755
 20
58.7894556679698894
 30
0.0
  9
$EXTMAX
 10
583.1903141579508656
 20
66.7954252513421238
 30
0.0
  9
$LIMMIN
 10
0.0
 20
0.0
  9
$LIMMAX
 10
11.6929133858000007
 20
8.2677165353999982
  9
$ORTHOMODE
 70
     1
  9
$REGENMODE
 70
     1
  9
$FILLMODE
 70
     1
  9
$QTEXTMODE
 70
     0
  9
$MIRRTEXT
 70
     0
  9
$DRAGMODE
 70
     2
  9
$LTSCALE
 40
0.6431102362
  9
$OSMODE
 70
  3839
  9
$ATTMODE
 70
     1
  9
$TEXTSIZE
 40
0.2
  9
$TRACEWID
 40
0.05
  9
$TEXTSTYLE
  7
STANDARD
  9
$CLAYER
  8
0
  9
$CELTYPE
  6
BYLAYER
  9
$CECOLOR
 62
   256
  9
$DIMSCALE
 40
1.0
  9
$DIMASZ
 40
0.1875
  9
$DIMEXO
 40
0.0625
  9
$DIMDLI
 40
0.4443307087
  9
$DIMRND
 40
0.0
  9
$DIMDLE
 40
0.0
  9
$DIMEXE
 40
0.125
  9
$DIMTP
 40
0.01
  9
$DIMTM
 40
0.01
  9
$DIMTXT
 40
2.0
  9
$DIMCEN
 40
0.1052362205
  9
$DIMTSZ
 40
0.0
  9
$DIMTOL
 70
     1
  9
$DIMLIM
 70
     0
  9
$DIMTIH
 70
     1
  9
$DIMTOH
 70
     1
  9
$DIMSE1
 70
     0
  9
$DIMSE2
 70
     0
  9
$DIMTAD
 70
     0
  9
$DIMZIN
 70
     0
  9
$DIMBLK
  1

  9
$DIMASO
 70
     1
  9
$DIMSHO
 70
     1
  9
$DIMPOST
  1
\X
  9
$DIMAPOST
  1

  9
$DIMALT
 70
     1
  9
$DIMALTD
 70
     2
  9
$DIMALTF
 40
25.3999999999999986
  9
$DIMLFAC
 40
1.0
  9
$DIMTOFL
 70
     0
  9
$DIMTVP
 40
0.0
  9
$DIMTIX
 70
     0
  9
$DIMSOXD
 70
     0
  9
$DIMSAH
 70
     0
  9
$DIMBLK1
  1

  9
$DIMBLK2
  1

  9
$DIMSTYLE
  2
STANDARD
  9
$DIMCLRD
 70
     0
  9
$DIMCLRE
 70
     0
  9
$DIMCLRT
 70
     0
  9
$DIMTFAC
 40
1.0
  9
$DIMGAP
 40
0.09
  9
$LUNITS
 70
     2
  9
$LUPREC
 70
     4
  9
$SKETCHINC
 40
0.1
  9
$FILLETRAD
 40
0.0
  9
$AUNITS
 70
     0
  9
$AUPREC
 70
     0
  9
$MENU
  1
.
  9
$ELEVATION
 40
0.0
  9
$PELEVATION
 40
0.0
  9
$THICKNESS
 40
0.0
  9
$LIMCHECK
 70
     0
  9
$BLIPMODE
 70
     0
  9
$CHAMFERA
 40
0.0
  9
$CHAMFERB
 40
0.0
  9
$SKPOLY
 70
     0
  9
$TDCREATE
 40
2458060.468368056230247
  9
$TDUPDATE
 40
2459016.757372684776783
  9
$TDINDWG
 40
0.2843923264
  9
$TDUSRTIMER
 40
0.2843923264
  9
$USRTIMER
 70
     1
  9
$ANGBASE
 50
0.0
  9
$ANGDIR
 70
     0
  9
$PDMODE
 70
     0
  9
$PDSIZE
 40
0.3125
  9
$PLINEWID
 40
0.0
  9
$COORDS
 70
     1
  9
$SPLFRAME
 70
     0
  9
$SPLINETYPE
 70
     6
  9
$SPLINESEGS
 70
     8
  9
$ATTDIA
 70
     1
  9
$ATTREQ
 70
     1
  9
$HANDLING
 70
     1
  9
$HANDSEED
  5
4796
  9
$SURFTAB1
 70
     6
  9
$SURFTAB2
 70
     6
  9
$SURFTYPE
 70
     6
  9
$SURFU
 70
     6
  9
$SURFV
 70
     6
  9
$UCSNAME
  2

  9
$UCSORG
 10
0.0
 20
0.0
 30
0.0
  9
$UCSXDIR
 10
1.0
 20
0.0
 30
0.0
  9
$UCSYDIR
 10
0.0
 20
1.0
 30
0.0
  9
$PUCSNAME
  2

  9
$PUCSORG
 10
0.0
 20
0.0
 30
0.0
  9
$PUCSXDIR
 10
1.0
 20
0.0
 30
0.0
  9
$PUCSYDIR
 10
0.0
 20
1.0
 30
0.0
  9
$USERI1
 70
     0
  9
$USERI2
 70
     0
  9
$USERI3
 70
     0
  9
$USERI4
 70
     0
  9
$USERI5
 70
     0
  9
$USERR1
 40
0.0
  9
$USERR2
 40
0.0
  9
$USERR3
 40
0.0
  9
$USERR4
 40
0.0
  9
$USERR5
 40
0.0
  9
$WORLDVIEW
 70
     1
  9
$SHADEDGE
 70
     3
  9
$SHADEDIF
 70
    70
  9
$TILEMODE
 70
     1
  9
$MAXACTVP
 70
    64
  9
$PLIMCHECK
 70
     0
  9
$PEXTMIN
 10
1.0000000000000000E+20
 20
1.0000000000000000E+20
 30
1.0000000000000000E+20
  9
$PEXTMAX
 10
-1.0000000000000000E+20
 20
-1.0000000000000000E+20
 30
-1.0000000000000000E+20
  9
$PLIMMIN
 10
0.0
 20
0.0
  9
$PLIMMAX
 10
12.0
 20
9.0
  9
$UNITMODE
 70
     0
  9
$VISRETAIN
 70
     1
  9
$PLINEGEN
 70
     0
  9
$PSLTSCALE
 70
     1
  0
ENDSEC
  0
SECTION
  2
TABLES
  0
TABLE
  2
VPORT
 70
     1
  0
VPORT
  2
*ACTIVE
 70
     0
 10
0.0
 20
0.0
 11
1.0
 21
1.0
 12
2.0739780650273039
 22
0.0
 13
0.0
 23
0.0
 14
1.0
 24
1.0
 15
0.0
 25
0.0
 16
0.0
 26
0.0
 36
46.3160100507051666
 17
576.00189208984375
 27
62.7924403325802274
 37
0.0
 40
16.455662375436809
 41
2.3528591352859132
 42
50.0
 43
0.0
 44
0.0
 50
0.0
 51
0.0
 71
     0
 72
   100
 73
     1
 74
     1
 75
     0
 76
     0
 77
     0
 78
     0
  0
ENDTAB
  0
TABLE
  2
LTYPE
 70
     2
  0
LTYPE
  2
CONTINUOUS
 70
     0
  3
Solid line
 72
    65
 73
     0
 40
0.0
  0
LTYPE
  2
PHANTOM2
 70
     0
  3
___ _ _ ___ _ _ ___ _ _ ___ _ _
 72
    65
 73
     6
 40
1.25
 49
0.625
 49
-0.125
 49
0.125
 49
-0.125
 49
0.125
 49
-0.125
  0
ENDTAB
  0
TABLE
  2
LAYER
 70
     2
  0
LAYER
  2
0
 70
     0
 62
   255
  6
CONTINUOUS
  0
LAYER
  2
DEFPOINTS
 70
     0
 62
     7
  6
CONTINUOUS
  0
ENDTAB
  0
TABLE
  2
STYLE
 70
     1
  0
STYLE
  2
STANDARD
 70
     0
 40
0.0
 41
0.8
 50
0.0
 71
     0
 42
0.2
  3
txt
  4

  0
ENDTAB
  0
TABLE
  2
VIEW
 70
     0
  0
ENDTAB
  0
TABLE
  2
UCS
 70
     0
  0
ENDTAB
  0
TABLE
  2
APPID
 70
     9
  0
APPID
  2
ACAD
 70
     0
  0
APPID
  2
ACAD_MLEADERVER
 70
     0
  0
APPID
  2
ACAD_EXEMPT_FROM_CAD_STANDARDS
 70
     0
  0
APPID
  2
ACAD_NAV_VCDISPLAY
 70
     0
  0
APPID
  2
ACAECLAYERSTANDARD
 70
     0
  0
APPID
  2
ACCMTRANSPARENCY
 70
     0
  0
APPID
  2
ACAD_DSTYLE_DIMJAG
 70
     0
  0
APPID
  2
ACAD_DSTYLE_DIMTALN
 70
     0
  0
APPID
  2
ACDBATTR
 70
     0
  0
ENDTAB
  0
TABLE
  2
DIMSTYLE
 70
     1
  0
DIMSTYLE
  2
STANDARD
 70
     0
  3

  4

  5

  6

  7

 40
1.0
 41
0.1875
 42
0.0625
 43
0.38
 44
0.125
 45
0.0
 46
0.0
 47
0.01
 48
0.01
140
0.15625
141
0.09
142
0.0
143
25.3999999999999986
144
1.0
145
0.0
146
1.0
147
0.09
 71
     1
 72
     0
 73
     1
 74
     1
 75
     0
 76
     0
 77
     0
 78
     4
170
     0
171
     2
172
     0
173
     0
174
     0
175
     0
176
     0
177
     0
178
     0
  0
ENDTAB
  0
ENDSEC
  0
SECTION
  2
BLOCKS
  0
BLOCK
  8
0
  2
$MODEL_SPACE
 70
     0
 10
0.0
 20
0.0
 30
0.0
  3
$MODEL_SPACE
  1

  0
ENDBLK
  5
21
  8
0
  0
BLOCK
 67
     1
  8
0
  2
$PAPER_SPACE
 70
     0
 10
0.0
 20
0.0
 30
0.0
  3
$PAPER_SPACE
  1

  0
ENDBLK
  5
1D
 67
     1
  8
0
  0
ENDSEC
  0
SECTION
  2
ENTITIES
  0
ATTDEF
  5
3930
  8
DEFPOINTS
 10
575.9955022378925378
 20
66.7944252513420906
 30
0.0
 40
0.001
  1
K-14273T-SMC
  3

  2
MODELNUMBER
 70
     0
1001
ACDBATTR
1070
     0
1070
     1
  0
ATTDEF
  5
3931
  8
DEFPOINTS
 10
575.9955022378925378
 20
66.7927585846754255
 30
0.0
 40
0.001
  1
EMPRESS BOUQUET
  3

  2
TRADENAME
 70
     0
1001
ACDBATTR
1070
     0
1070
     1
  0
ATTDEF
  5
3932
  8
DEFPOINTS
 10
575.9955022378925378
 20
66.7910919180087603
 30
0.0
 40
0.001
  1
BATHROOM SINK
  3

  2
PRODUCT
 70
     0
1001
ACDBATTR
1070
     0
1070
     1
  0
LINE
  5
4498
  8
0
 10
575.4656122304509154
 20
58.7894556679698894
 30
0.0
 11
577.151839694850878
 21
58.7894556679698894
 31
0.0
  0
LINE
  5
4499
  8
0
 10
577.3977713101508016
 20
58.9945375138698935
 30
0.0
 11
577.5834813998509389
 21
60.011319775969902
 31
0.0
  0
LINE
  5
449A
  8
0
 10
583.1903141579508656
 20
66.7894556679698894
 30
0.0
 11
583.1903141579508656
 21
66.3494556679698917
 31
0.0
  0
ARC
  5
449B
  8
0
 10
577.6111141579509649
 20
67.4442837365699006
 30
0.0
 40
8.6926223059000005
 50
188.092753601099588
 51
252.935027068022606
  0
ARC
  5
449C
  8
0
 10
575.1671586304507855
 20
67.7117005909698975
 30
0.0
 40
7.9400711774000001
 50
288.9691063923993966
 51
349.2265565239005127
  0
ARC
  5
449D
  8
0
 10
574.986304696049956
 20
58.8948564691903087
 30
0.0
 40
0.2506620989069297
 50
16.8270252947987693
 51
72.8514725496164317
  0
ARC
  5
449E
  8
0
 10
575.491248582665321
 20
59.0739141253678994
 30
0.0
 40
0.2856113382555243
 50
201.8925672081223013
 51
264.8502242522627057
  0
ARC
  5
449F
  8
0
 10
577.1361735494033383
 20
59.0582423160007082
 30
0.0
 40
0.2692428091385705
 50
273.3356927154324012
 51
346.3136160602675773
  0
ARC
  5
44A0
  8
0
 10
583.1258930475737543
 20
66.1858553031997303
 30
0.0
 40
0.1639894959020764
 50
93.9478761431306282
 51
165.2906583561160119
  0
ARC
  5
44A1
  8
0
 10
568.8562458307790166
 20
66.1992926025446167
 30
0.0
 40
0.1503253443908234
 50
8.1374780482470666
 51
87.3374871123765644
  0
LINE
  5
44A2
  8
0
 10
568.8632288779864439
 20
66.3494556679698917
 30
0.0
 11
583.1903141579508656
 21
66.3494556679698917
 31
0.0
  0
LINE
  5
44A3
  8
0
 10
583.1903141579508656
 20
66.7894556679698894
 30
0.0
 11
569.0729433961864743
 21
66.7894556679698894
 31
0.0
  0
ARC
  5
44A4
  8
0
 10
569.3104598620616343
 20
66.349448789994284
 30
0.0
 40
0.5000201238226863
 50
118.3602494315395006
 51
173.6199414055994055
  0
ARC
  5
44A5
  8
0
 10
568.8661409399976492
 20
66.4020622057891359
 30
0.0
 40
0.0526870755165258
 50
176.7898987220459901
 51
266.8315962007848725
  0
ARC
  5
44A6
  8
0
 10
577.8294252083552465
 20
59.9663902322550584
 30
0.0
 40
0.2500140412858433
 50
108.971892553554099
 51
169.6472431529381026
  0
ARC
  5
44A7
  8
0
 10
569.6140557640477482
 20
66.1891168489552228
 30
0.0
 40
0.1606239466628034
 50
14.1951246204769799
 51
86.5855841430343673
  0
ARC
  5
44A8
  8
0
 10
577.5644540203841188
 20
67.7413044433903337
 30
0.0
 40
7.9401244751591831
 50
190.9834711363783128
 51
239.8600477038251881
  0
ARC
  5
44A9
  8
0
 10
576.2604180241964968
 20
65.1929112766217713
 30
0.0
 40
5.0837640380590292
 50
238.1483764573193014
 51
268.54769098424822
  0
ARC
  5
44AA
  8
0
 10
576.3321135509455644
 20
70.8307903303095685
 30
0.0
 40
10.7218856678985706
 50
268.9282736944313115
 51
277.5891807435431247
  0
ENDSEC
  0
EOF
