  0
SECTION
  2
HEADER
  9
$ACADVER
  1
AC1009
  9
$INSBASE
 10
8519.3177110578071733
 20
2089.4738385946620838
 30
0.0
  9
$EXTMIN
 10
8515.2232228687553288
 20
2085.8517913505620527
 30
0.0
  9
$EXTMAX
 10
8523.4121992468590179
 20
2089.47835442397718
 30
0.0
  9
$LIMMIN
 10
0.0
 20
0.0
  9
$LIMMAX
 10
11.6929133858000007
 20
8.2677165353999982
  9
$ORTHOMODE
 70
     0
  9
$REGENMODE
 70
     1
  9
$FILLMODE
 70
     1
  9
$QTEXTMODE
 70
     0
  9
$MIRRTEXT
 70
     0
  9
$DRAGMODE
 70
     2
  9
$LTSCALE
 40
0.6431102362
  9
$OSMODE
 70
  4095
  9
$ATTMODE
 70
     1
  9
$TEXTSIZE
 40
0.2
  9
$TRACEWID
 40
0.05
  9
$TEXTSTYLE
  7
STANDARD
  9
$CLAYER
  8
0
  9
$CELTYPE
  6
BYLAYER
  9
$CECOLOR
 62
   256
  9
$DIMSCALE
 40
1.0
  9
$DIMASZ
 40
0.1875
  9
$DIMEXO
 40
0.0625
  9
$DIMDLI
 40
0.4443307087
  9
$DIMRND
 40
0.0
  9
$DIMDLE
 40
0.0
  9
$DIMEXE
 40
0.125
  9
$DIMTP
 40
0.01
  9
$DIMTM
 40
0.01
  9
$DIMTXT
 40
2.0
  9
$DIMCEN
 40
0.1052362205
  9
$DIMTSZ
 40
0.0
  9
$DIMTOL
 70
     1
  9
$DIMLIM
 70
     0
  9
$DIMTIH
 70
     1
  9
$DIMTOH
 70
     1
  9
$DIMSE1
 70
     0
  9
$DIMSE2
 70
     0
  9
$DIMTAD
 70
     0
  9
$DIMZIN
 70
     0
  9
$DIMBLK
  1

  9
$DIMASO
 70
     1
  9
$DIMSHO
 70
     1
  9
$DIMPOST
  1
\X
  9
$DIMAPOST
  1

  9
$DIMALT
 70
     1
  9
$DIMALTD
 70
     2
  9
$DIMALTF
 40
25.3999999999999986
  9
$DIMLFAC
 40
1.0
  9
$DIMTOFL
 70
     0
  9
$DIMTVP
 40
0.0
  9
$DIMTIX
 70
     0
  9
$DIMSOXD
 70
     0
  9
$DIMSAH
 70
     0
  9
$DIMBLK1
  1

  9
$DIMBLK2
  1

  9
$DIMSTYLE
  2
STANDARD
  9
$DIMCLRD
 70
     0
  9
$DIMCLRE
 70
     0
  9
$DIMCLRT
 70
     0
  9
$DIMTFAC
 40
1.0
  9
$DIMGAP
 40
0.09
  9
$LUNITS
 70
     2
  9
$LUPREC
 70
     4
  9
$SKETCHINC
 40
0.1
  9
$FILLETRAD
 40
0.0197
  9
$AUNITS
 70
     0
  9
$AUPREC
 70
     0
  9
$MENU
  1
.
  9
$ELEVATION
 40
0.0
  9
$PELEVATION
 40
0.0
  9
$THICKNESS
 40
0.0
  9
$LIMCHECK
 70
     0
  9
$BLIPMODE
 70
     0
  9
$CHAMFERA
 40
0.0
  9
$CHAMFERB
 40
0.0
  9
$SKPOLY
 70
     0
  9
$TDCREATE
 40
2458060.468368056230247
  9
$TDUPDATE
 40
2460545.6769444448873401
  9
$TDINDWG
 40
0.4636760417
  9
$TDUSRTIMER
 40
0.4636760417
  9
$USRTIMER
 70
     1
  9
$ANGBASE
 50
0.0
  9
$ANGDIR
 70
     0
  9
$PDMODE
 70
     0
  9
$PDSIZE
 40
0.3125
  9
$PLINEWID
 40
0.0
  9
$COORDS
 70
     0
  9
$SPLFRAME
 70
     0
  9
$SPLINETYPE
 70
     6
  9
$SPLINESEGS
 70
     8
  9
$ATTDIA
 70
     1
  9
$ATTREQ
 70
     1
  9
$HANDLING
 70
     1
  9
$HANDSEED
  5
10CB7
  9
$SURFTAB1
 70
     6
  9
$SURFTAB2
 70
     6
  9
$SURFTYPE
 70
     6
  9
$SURFU
 70
     6
  9
$SURFV
 70
     6
  9
$UCSNAME
  2

  9
$UCSORG
 10
0.0
 20
0.0
 30
0.0
  9
$UCSXDIR
 10
1.0
 20
0.0
 30
0.0
  9
$UCSYDIR
 10
0.0
 20
1.0
 30
0.0
  9
$PUCSNAME
  2

  9
$PUCSORG
 10
0.0
 20
0.0
 30
0.0
  9
$PUCSXDIR
 10
1.0
 20
0.0
 30
0.0
  9
$PUCSYDIR
 10
0.0
 20
1.0
 30
0.0
  9
$USERI1
 70
     0
  9
$USERI2
 70
     0
  9
$USERI3
 70
     0
  9
$USERI4
 70
     0
  9
$USERI5
 70
     0
  9
$USERR1
 40
0.0
  9
$USERR2
 40
0.0
  9
$USERR3
 40
0.0
  9
$USERR4
 40
0.0
  9
$USERR5
 40
0.0
  9
$WORLDVIEW
 70
     1
  9
$SHADEDGE
 70
     3
  9
$SHADEDIF
 70
    70
  9
$TILEMODE
 70
     1
  9
$MAXACTVP
 70
    64
  9
$PLIMCHECK
 70
     0
  9
$PEXTMIN
 10
1.0000000000000000E+20
 20
1.0000000000000000E+20
 30
1.0000000000000000E+20
  9
$PEXTMAX
 10
-1.0000000000000000E+20
 20
-1.0000000000000000E+20
 30
-1.0000000000000000E+20
  9
$PLIMMIN
 10
0.0
 20
0.0
  9
$PLIMMAX
 10
12.0
 20
9.0
  9
$UNITMODE
 70
     0
  9
$VISRETAIN
 70
     1
  9
$PLINEGEN
 70
     0
  9
$PSLTSCALE
 70
     1
  0
ENDSEC
  0
SECTION
  2
TABLES
  0
TABLE
  2
VPORT
 70
     1
  0
VPORT
  2
*ACTIVE
 70
     0
 10
0.0
 20
0.0
 11
1.0
 21
1.0
 12
3704.0193712140589923
 22
1839.8564486196910366
 13
0.0
 23
0.0
 14
1.0
 24
1.0
 15
0.0
 25
0.0
 16
0.0
 26
0.0
 36
9.5192988075487186
 17
4815.2983398437490905
 27
247.8086242675780966
 37
0.0
 40
3.6635531052024022
 41
2.2423167848699759
 42
50.0
 43
0.0
 44
0.0
 50
0.0
 51
0.0
 71
     0
 72
   100
 73
     1
 74
     1
 75
     0
 76
     0
 77
     0
 78
     0
  0
ENDTAB
  0
TABLE
  2
LTYPE
 70
     2
  0
LTYPE
  2
CONTINUOUS
 70
     0
  3
Solid line
 72
    65
 73
     0
 40
0.0
  0
LTYPE
  2
PHANTOM2
 70
     0
  3
___ _ _ ___ _ _ ___ _ _ ___ _ _
 72
    65
 73
     6
 40
1.25
 49
0.625
 49
-0.125
 49
0.125
 49
-0.125
 49
0.125
 49
-0.125
  0
ENDTAB
  0
TABLE
  2
LAYER
 70
     2
  0
LAYER
  2
0
 70
     0
 62
   255
  6
CONTINUOUS
  0
LAYER
  2
DEFPOINTS
 70
     0
 62
     7
  6
CONTINUOUS
  0
ENDTAB
  0
TABLE
  2
STYLE
 70
     1
  0
STYLE
  2
STANDARD
 70
     0
 40
0.0
 41
0.8
 50
0.0
 71
     0
 42
0.2
  3
txt
  4

  0
ENDTAB
  0
TABLE
  2
VIEW
 70
     0
  0
ENDTAB
  0
TABLE
  2
UCS
 70
     0
  0
ENDTAB
  0
TABLE
  2
APPID
 70
    10
  0
APPID
  2
ACAD
 70
     0
  0
APPID
  2
ACAD_MLEADERVER
 70
     0
  0
APPID
  2
ACAD_EXEMPT_FROM_CAD_STANDARDS
 70
     0
  0
APPID
  2
ACAD_NAV_VCDISPLAY
 70
     0
  0
APPID
  2
ACAECLAYERSTANDARD
 70
     0
  0
APPID
  2
ACCMTRANSPARENCY
 70
     0
  0
APPID
  2
ACAD_DSTYLE_DIMJAG
 70
     0
  0
APPID
  2
ACAD_DSTYLE_DIMTALN
 70
     0
  0
APPID
  2
ACDBATTR
 70
     0
  0
APPID
  2
ACADANNOTATIVE
 70
     0
  0
ENDTAB
  0
TABLE
  2
DIMSTYLE
 70
     2
  0
DIMSTYLE
  2
STANDARD
 70
     0
  3

  4

  5

  6

  7

 40
1.0
 41
0.1875
 42
0.0625
 43
0.38
 44
0.125
 45
0.0
 46
0.0
 47
0.01
 48
0.01
140
0.15625
141
0.09
142
0.0
143
25.3999999999999986
144
1.0
145
0.0
146
1.0
147
0.09
 71
     1
 72
     0
 73
     1
 74
     1
 75
     0
 76
     0
 77
     0
 78
     4
170
     0
171
     2
172
     0
173
     0
174
     0
175
     0
176
     0
177
     0
178
     0
  0
DIMSTYLE
  2
ANNOTATIVE
 70
     0
  3

  4

  5

  6

  7

 40
0.0
 41
0.18
 42
0.0625
 43
0.38
 44
0.18
 45
0.0
 46
0.0
 47
0.0
 48
0.0
140
0.18
141
0.09
142
0.0
143
25.3999999999999986
144
1.0
145
0.0
146
1.0
147
0.09
 71
     0
 72
     0
 73
     1
 74
     1
 75
     0
 76
     0
 77
     0
 78
     0
170
     0
171
     2
172
     0
173
     0
174
     0
175
     0
176
     0
177
     0
178
     0
  0
ENDTAB
  0
ENDSEC
  0
SECTION
  2
BLOCKS
  0
BLOCK
  8
0
  2
$MODEL_SPACE
 70
     0
 10
0.0
 20
0.0
 30
0.0
  3
$MODEL_SPACE
  1

  0
ENDBLK
  5
21
  8
0
  0
BLOCK
 67
     1
  8
0
  2
$PAPER_SPACE
 70
     0
 10
0.0
 20
0.0
 30
0.0
  3
$PAPER_SPACE
  1

  0
ENDBLK
  5
1D
 67
     1
  8
0
  0
BLOCK
  8
0
  2
_FILLED
 70
     0
 10
0.0
 20
0.0
 30
0.0
  3
_FILLED
  1

  0
SOLID
  5
D8EA
  8
0
  6
BYBLOCK
 62
     0
 10
0.0
 20
0.0
 30
0.0
 11
-1.0
 21
0.1666666667
 31
0.0
 12
-1.0
 22
-0.1666666667
 32
0.0
 13
-1.0
 23
-0.1666666667
 33
0.0
  0
ENDBLK
  5
D8EB
  8
0
  6
BYBLOCK
 62
     0
  0
ENDSEC
  0
SECTION
  2
ENTITIES
  0
ATTDEF
  5
3930
  8
DEFPOINTS
 10
8519.3070426548165415
 20
2089.4773544239760668
 30
0.0
 40
0.001
  1
K-14377
  3

  2
MODELNUMBER
 70
     0
1001
ACDBATTR
1070
     0
1070
     1
  0
ATTDEF
  5
3931
  8
DEFPOINTS
 10
8519.3070426548165415
 20
2089.47568775730997
 30
0.0
 40
0.001
  1
PURIST
  3

  2
TRADENAME
 70
     0
1001
ACDBATTR
1070
     0
1070
     1
  0
ATTDEF
  5
3932
  8
DEFPOINTS
 10
8519.3070426548165415
 20
2089.4740210906429638
 30
0.0
 40
0.001
  1
TOILET PAPER HOLDER
  3

  2
PRODUCT
 70
     0
1001
ACDBATTR
1070
     0
1070
     1
  0
LINE
  5
10A12
  8
0
 10
8515.2232228687553288
 20
2089.2376330828619757
 30
0.0
 11
8515.2232228687553288
 21
2089.4738385946620838
 31
0.0
  0
LINE
  5
10A13
  8
0
 10
8515.5578685381588002
 20
2085.8517913505620527
 30
0.0
 11
8515.5578685381588002
 21
2086.8517913505620527
 31
0.0
  0
LINE
  5
10A14
  8
0
 10
8517.0145614515586203
 20
2085.8517913505620527
 30
0.0
 11
8517.0145614515586203
 21
2086.8517913505620527
 31
0.0
  0
LINE
  5
10A15
  8
0
 10
8515.2232228687553288
 20
2089.4738385946620838
 30
0.0
 11
8517.1129866484589002
 21
2089.4738385946620838
 31
0.0
  0
LINE
  5
10A16
  8
0
 10
8515.5578685381588002
 20
2085.8517913505620527
 30
0.0
 11
8517.0145614515586203
 21
2085.8517913505620527
 31
0.0
  0
LINE
  5
10A17
  8
0
 10
8515.5578685381588002
 20
2086.8517913505620527
 30
0.0
 11
8515.7350338924588868
 21
2086.8517913505620527
 31
0.0
  0
LINE
  5
10A18
  8
0
 10
8515.7389709003582539
 20
2086.8517913505620527
 30
0.0
 11
8515.7940890105583094
 21
2086.8517913505620527
 31
0.0
  0
LINE
  5
10A19
  8
0
 10
8517.0145614515586203
 20
2086.7258070985631093
 30
0.0
 11
8521.5618055460581672
 21
2086.7258070985631093
 31
0.0
  0
LINE
  5
10A1A
  8
0
 10
8517.0145614515586203
 20
2085.9777756025619055
 30
0.0
 11
8521.5618055460581672
 21
2085.9777756025619055
 31
0.0
  0
LINE
  5
10A1B
  8
0
 10
8515.242922868757887
 20
2089.217933082862146
 30
0.0
 11
8517.0932866484581609
 21
2089.217933082862146
 31
0.0
  0
ARC
  5
10A1C
  8
0
 10
8515.3807031838568946
 20
2088.6431429698618558
 30
0.0
 40
0.5905511811000385
 50
62.5556138062082425
 51
76.7330118657022524
  0
ARC
  5
10A1D
  8
0
 10
8515.5258645758676721
 20
2088.922657491893915
 30
0.0
 40
0.2755905524920491
 50
3.825269145371796
 51
62.5555893681727611
  0
LINE
  5
10A1E
  8
0
 10
8515.813774049956919
 20
2088.9226574922631698
 30
0.0
 11
8516.5224354672573099
 21
2088.9226574922618056
 31
0.0
  0
ARC
  5
10A1F
  8
0
 10
8515.8204972630846896
 20
2088.9423574922620901
 30
0.0
 40
0.0197
 50
183.825269145319794
 51
270.0
  0
LINE
  5
10A20
  8
0
 10
8515.813774049956919
 20
2088.9226574922631698
 30
0.0
 11
8515.813774049956919
 21
2086.6746559174621325
 31
0.0
  0
ARC
  5
10A21
  8
0
 10
8515.242922868757887
 20
2089.2376330828619757
 30
0.0
 40
0.0197
 50
180.0
 51
270.0
  0
LINE
  5
10A22
  8
0
 10
8515.8531740499583975
 20
2086.6352559174620183
 30
0.0
 11
8516.4830354672576505
 21
2086.6352559174620183
 31
0.0
  0
ARC
  5
10A23
  8
0
 10
8515.8531740499583975
 20
2086.6746559174621325
 30
0.0
 40
0.0394
 50
180.0
 51
270.0
  0
LINE
  5
10A24
  8
0
 10
8515.7940890105583094
 20
2086.6076968623619905
 30
0.0
 11
8516.030309483057863
 21
2086.6076968623619905
 31
0.0
  0
LINE
  5
10A25
  8
0
 10
8516.305900034160004
 20
2086.6076968623619905
 30
0.0
 11
8516.5421205066577386
 21
2086.6076968623619905
 31
0.0
  0
LINE
  5
10A26
  8
0
 10
8515.7940890105583094
 20
2086.8517913505620527
 30
0.0
 11
8515.7940890105583094
 21
2086.6076968623619905
 31
0.0
  0
LINE
  5
10A27
  8
0
 10
8515.7940890105583094
 20
2086.8517913505620527
 30
0.0
 11
8515.813774049956919
 21
2086.8371939973080771
 31
0.0
  0
LINE
  5
10A28
  8
0
 10
8515.7389709003582539
 20
2086.8517913505620527
 30
0.0
 11
8515.7389709003582539
 21
2086.1942708780620706
 31
0.0
  0
LINE
  5
10A29
  8
0
 10
8515.7350338924588868
 20
2086.8517913505620527
 30
0.0
 11
8515.7350338924588868
 21
2086.1903338702632027
 31
0.0
  0
LINE
  5
10A2A
  8
0
 10
8515.7350338924588868
 20
2086.8517913505620527
 30
0.0
 11
8515.7389709003582539
 21
2086.8483845444620783
 31
0.0
  0
LINE
  5
10A2B
  8
0
 10
8517.1129866484589002
 20
2089.2376330828619757
 30
0.0
 11
8517.1129866484589002
 21
2089.4738385946620838
 31
0.0
  0
ARC
  5
10A2C
  8
0
 10
8516.9555063333573344
 20
2088.6431429698618558
 30
0.0
 40
0.5905511811000385
 50
103.266988134297705
 51
117.4443861937918001
  0
ARC
  5
10A2D
  8
0
 10
8516.810344939614879
 20
2088.9226574929512026
 30
0.0
 40
0.2755905504642169
 50
117.4443861937918001
 51
176.1747311395506017
  0
LINE
  5
10A2F
  8
0
 10
8516.5224354672573099
 20
2088.9226574922631698
 30
0.0
 11
8516.5224354672573099
 21
2086.6746559174621325
 31
0.0
  0
ARC
  5
10A30
  8
0
 10
8517.0932866484581609
 20
2089.2376330828619757
 30
0.0
 40
0.0197
 50
270.0
 51
0.0
  0
LINE
  5
10A31
  8
0
 10
8517.0145614515586203
 20
2086.8517913505620527
 30
0.0
 11
8516.6011756247571611
 21
2086.8517913505620527
 31
0.0
  0
LINE
  5
10A32
  8
0
 10
8516.5972386168577941
 20
2086.8517913505620527
 30
0.0
 11
8516.5421205066577386
 21
2086.8517913505620527
 31
0.0
  0
ARC
  5
10A33
  8
0
 10
8516.4830354672576505
 20
2086.6746559174621325
 30
0.0
 40
0.0394
 50
270.0
 51
0.0
  0
LINE
  5
10A34
  8
0
 10
8516.5421205066577386
 20
2086.8517913505620527
 30
0.0
 11
8516.5421205066577386
 21
2086.6076968623619905
 31
0.0
  0
LINE
  5
10A35
  8
0
 10
8516.5421205066577386
 20
2086.8517913505620527
 30
0.0
 11
8516.5224354672573099
 21
2086.8371939973080771
 31
0.0
  0
LINE
  5
10A36
  8
0
 10
8516.6011756247571611
 20
2086.8517913505620527
 30
0.0
 11
8516.5972386168577941
 21
2086.8483845444620783
 31
0.0
  0
LINE
  5
10A37
  8
0
 10
8516.5972386168577941
 20
2086.8517913505620527
 30
0.0
 11
8516.5972386168577941
 21
2086.1942708780620706
 31
0.0
  0
LINE
  5
10A38
  8
0
 10
8516.6011756247571611
 20
2086.8517913505620527
 30
0.0
 11
8516.6011756247571611
 21
2086.1903338702632027
 31
0.0
  0
LINE
  5
10A39
  8
0
 10
8523.4121992468571989
 20
2089.2376330828619757
 30
0.0
 11
8523.4121992468571989
 21
2089.4738385946620838
 31
0.0
  0
LINE
  5
10A3A
  8
0
 10
8523.0184984594598063
 20
2085.8517913505620527
 30
0.0
 11
8523.0184984594598063
 21
2086.8517913505620527
 31
0.0
  0
LINE
  5
10A3B
  8
0
 10
8521.5618055460581672
 20
2085.8517913505620527
 30
0.0
 11
8521.5618055460581672
 21
2086.8517913505620527
 31
0.0
  0
LINE
  5
10A3C
  8
0
 10
8523.4121992468571989
 20
2089.4738385946620838
 30
0.0
 11
8521.5224354671572655
 21
2089.4738385946620838
 31
0.0
  0
LINE
  5
10A3D
  8
0
 10
8523.0184984594598063
 20
2085.8517913505620527
 30
0.0
 11
8521.5618055460581672
 21
2085.8517913505620527
 31
0.0
  0
LINE
  5
10A3E
  8
0
 10
8523.3924992468582786
 20
2089.217933082862146
 30
0.0
 11
8521.5421354671561858
 21
2089.217933082862146
 31
0.0
  0
ARC
  5
10A3F
  8
0
 10
8523.2547189317574521
 20
2088.6431429698618558
 30
0.0
 40
0.5905511811000385
 50
103.266988134297705
 51
117.4443861937918001
  0
ARC
  5
10A40
  8
0
 10
8523.1095575380149967
 20
2088.9226574929512026
 30
0.0
 40
0.2755905504642169
 50
117.4443861937918001
 51
176.1747311395506017
  0
LINE
  5
10A41
  8
0
 10
8522.8216480656556087
 20
2088.9226574922631698
 30
0.0
 11
8522.1129866483570368
 21
2088.9226574922631698
 31
0.0
  0
LINE
  5
10A43
  8
0
 10
8522.8216480656556087
 20
2088.9226574922631698
 30
0.0
 11
8522.8216480656556087
 21
2086.8460648499649324
 31
0.0
  0
ARC
  5
10A44
  8
0
 10
8523.3924992468582786
 20
2089.2376330828619757
 30
0.0
 40
0.0197
 50
270.0
 51
0.0
  0
LINE
  5
10A45
  8
0
 10
8521.5224354671572655
 20
2089.2376330828619757
 30
0.0
 11
8521.5224354671572655
 21
2089.4738385946620838
 31
0.0
  0
ARC
  5
10A46
  8
0
 10
8521.6799157822570123
 20
2088.6431429698618558
 30
0.0
 40
0.5905511811000385
 50
62.5556138062082425
 51
76.7330118657022524
  0
ARC
  5
10A47
  8
0
 10
8521.8250771742677898
 20
2088.922657491893915
 30
0.0
 40
0.2755905524920491
 50
3.825269145371796
 51
62.5555893681727611
  0
ARC
  5
10A48
  8
0
 10
8522.1197098614848073
 20
2088.9423574922620901
 30
0.0
 40
0.0197
 50
183.825269145319794
 51
270.0
  0
LINE
  5
10A49
  8
0
 10
8522.1129866483570368
 20
2088.9226574922631698
 30
0.0
 11
8522.1129866483570368
 21
2086.8460929404409399
 31
0.0
  0
ARC
  5
10A4A
  8
0
 10
8521.5421354671561858
 20
2089.2376330828619757
 30
0.0
 40
0.0197
 50
180.0
 51
270.0
  0
LINE
  5
10A4B
  8
0
 10
8521.5618055460581672
 20
2086.8517913505620527
 30
0.0
 11
8522.1051370702116401
 21
2086.8517913505620527
 31
0.0
  0
LINE
  5
10A4C
  8
0
 10
8522.8294754390371963
 20
2086.8517913505620527
 30
0.0
 11
8523.0184984594598063
 21
2086.8517913505620527
 31
0.0
  0
ARC
  5
10A4D
  8
0
 10
8522.9364480118165375
 20
2087.9886692140830746
 30
0.0
 40
1.4083924020674099
 50
233.8248798085172098
 51
239.8768716632260123
  0
ARC
  5
10A4E
  8
0
 10
8522.5686438267457561
 20
2087.3547635958680075
 30
0.0
 40
0.675510248265864
 50
239.8768716632260123
 51
249.1831273863768104
  0
ARC
  5
10A4F
  8
0
 10
8522.4795903821232059
 20
2087.1205365530831841
 30
0.0
 40
0.424925285487206
 50
249.1831273863768104
 51
263.6137852665135028
  0
ARC
  5
10A50
  8
0
 10
8522.4673454676303663
 20
2087.0570117898669196
 30
0.0
 40
0.3604688355647422
 50
264.4249368428846765
 51
286.2022865514807108
  0
ARC
  5
10A51
  8
0
 10
8522.3989097289468191
 20
2087.2841725392390799
 30
0.0
 40
0.5977074781364661
 50
286.4259373960397284
 51
299.243396910370393
  0
ARC
  5
10A52
  8
0
 10
8522.0612235196931579
 20
2087.8936779667501469
 30
0.0
 40
1.2945032763824891
 50
299.1058727718381078
 51
306.4038068264017056
  0
LINE
  5
10A53
  8
0
 10
8515.8176709003582801
 20
2086.1155708780620444
 30
0.0
 11
8516.5185386168577679
 21
2086.1155708780620444
 31
0.0
  0
LINE
  5
10A54
  8
0
 10
8515.813733892457094
 20
2086.1116338702618123
 30
0.0
 11
8516.5224756247571349
 21
2086.1116338702618123
 31
0.0
  0
ARC
  5
10A55
  8
0
 10
8515.8176709003582801
 20
2086.1942708780620706
 30
0.0
 40
0.0787
 50
180.0
 51
270.0
  0
ARC
  5
10A56
  8
0
 10
8515.813733892457094
 20
2086.1903338702632027
 30
0.0
 40
0.0787
 50
180.0
 51
270.0
  0
ARC
  5
10A57
  8
0
 10
8516.5185386168577679
 20
2086.1942708780620706
 30
0.0
 40
0.0787
 50
270.0
 51
0.0
  0
ARC
  5
10A58
  8
0
 10
8516.5224756247571349
 20
2086.1903338702632027
 30
0.0
 40
0.0787
 50
270.0
 51
0.0
  0
LINE
  5
10A59
  8
0
 10
8515.9909394042570057
 20
2086.6076968623619905
 30
0.0
 11
8515.9909394042570057
 21
2086.4540700867978558
 31
0.0
  0
LINE
  5
10A5A
  8
0
 10
8516.030309483057863
 20
2086.6352559174620183
 30
0.0
 11
8516.030309483057863
 21
2086.4516532274760721
 31
0.0
  0
ARC
  5
10A5B
  8
0
 10
8516.1681047586571367
 20
2086.3517913505620527
 30
0.0
 40
0.1968503937000001
 50
158.211603833244709
 51
21.78839622278295
  0
LINE
  5
10A5C
  8
0
 10
8516.3452701129572233
 20
2086.6076968623619905
 30
0.0
 11
8516.3452701129572233
 21
2086.4540700870479668
 31
0.0
  0
LINE
  5
10A5D
  8
0
 10
8516.305900034160004
 20
2086.6352559174620183
 30
0.0
 11
8516.305900034160004
 21
2086.4516532276570615
 31
0.0
  0
ARC
  5
10A5E
  8
0
 10
8516.4239701129572495
 20
2086.4540700870479668
 30
0.0
 40
0.0787
 50
180.0
 51
201.7883962228071084
  0
ARC
  5
10A5F
  8
0
 10
8515.9122394042551605
 20
2086.4540700867978558
 30
0.0
 40
0.0787
 50
338.2116038332205221
 51
0.0
  0
ARC
  5
10A60
  8
0
 10
8516.1681047586571367
 20
2086.3754133977618039
 30
0.0
 40
0.1574803149999999
 50
151.044975609375399
 51
28.9550244657762299
  0
LINE
  5
10A61
  8
0
 10
8516.030309483057863
 20
2086.4516532274760721
 30
0.0
 11
8516.3059000342582294
 21
2086.4516532274760721
 31
0.0
  0
CIRCLE
  5
10A63
  8
0
 10
8516.1681047586571367
 20
2088.6667519804618678
 30
0.0
 40
0.1181105509799685
  0
CIRCLE
  5
10A64
  8
0
 10
8522.46731735695721
 20
2088.6667519804618678
 30
0.0
 40
0.1181105509799685
  0
LINE
  5
10A65
  8
0
 10
8515.9853171564645891
 20
2086.424858237619901
 30
0.0
 11
8516.0185880123590323
 21
2086.424858237619901
 31
0.0
  0
LINE
  5
10A66
  8
0
 10
8516.3176215049588791
 20
2086.424858237619901
 30
0.0
 11
8516.3508923608515033
 21
2086.424858237619901
 31
0.0
  0
ARC
  5
10B6E
  8
0
 10
8516.5157122461878316
 20
2088.9423574922620901
 30
0.0
 40
0.0197
 50
270.0
 51
356.1747311391820858
  0
ARC
  5
10B6F
  8
0
 10
8522.8149248445861303
 20
2088.9423574922620901
 30
0.0
 40
0.0197
 50
270.0
 51
356.1747311391820858
  0
ENDSEC
  0
EOF
