  0
SECTION
  2
HEADER
  9
$ACADVER
  1
AC1009
  9
$INSBASE
 10
4965.0506920752986844
 20
12.4703288490393494
 30
0.0
  9
$EXTMIN
 10
4959.1909497838078096
 20
12.4702301495815107
 30
-0.0015258207003583
  9
$EXTMAX
 10
4966.7532224281130766
 20
20.2161020899502297
 30
0.0000000349246037
  9
$LIMMIN
 10
0.0
 20
0.0
  9
$LIMMAX
 10
11.6929133858000007
 20
8.2677165353999982
  9
$ORTHOMODE
 70
     0
  9
$REGENMODE
 70
     1
  9
$FILLMODE
 70
     1
  9
$QTEXTMODE
 70
     0
  9
$MIRRTEXT
 70
     0
  9
$DRAGMODE
 70
     2
  9
$LTSCALE
 40
0.6431102362
  9
$OSMODE
 70
  4095
  9
$ATTMODE
 70
     1
  9
$TEXTSIZE
 40
0.2
  9
$TRACEWID
 40
0.05
  9
$TEXTSTYLE
  7
STANDARD
  9
$CLAYER
  8
0
  9
$CELTYPE
  6
BYLAYER
  9
$CECOLOR
 62
   256
  9
$DIMSCALE
 40
1.0
  9
$DIMASZ
 40
0.1875
  9
$DIMEXO
 40
0.0625
  9
$DIMDLI
 40
0.4443307087
  9
$DIMRND
 40
0.0
  9
$DIMDLE
 40
0.0
  9
$DIMEXE
 40
0.125
  9
$DIMTP
 40
0.01
  9
$DIMTM
 40
0.01
  9
$DIMTXT
 40
2.0
  9
$DIMCEN
 40
0.1052362205
  9
$DIMTSZ
 40
0.0
  9
$DIMTOL
 70
     1
  9
$DIMLIM
 70
     0
  9
$DIMTIH
 70
     1
  9
$DIMTOH
 70
     1
  9
$DIMSE1
 70
     0
  9
$DIMSE2
 70
     0
  9
$DIMTAD
 70
     0
  9
$DIMZIN
 70
     0
  9
$DIMBLK
  1

  9
$DIMASO
 70
     1
  9
$DIMSHO
 70
     1
  9
$DIMPOST
  1
\X
  9
$DIMAPOST
  1

  9
$DIMALT
 70
     1
  9
$DIMALTD
 70
     2
  9
$DIMALTF
 40
25.3999999999999986
  9
$DIMLFAC
 40
1.0
  9
$DIMTOFL
 70
     0
  9
$DIMTVP
 40
0.0
  9
$DIMTIX
 70
     0
  9
$DIMSOXD
 70
     0
  9
$DIMSAH
 70
     0
  9
$DIMBLK1
  1

  9
$DIMBLK2
  1

  9
$DIMSTYLE
  2
STANDARD
  9
$DIMCLRD
 70
     0
  9
$DIMCLRE
 70
     0
  9
$DIMCLRT
 70
     0
  9
$DIMTFAC
 40
1.0
  9
$DIMGAP
 40
0.09
  9
$LUNITS
 70
     2
  9
$LUPREC
 70
     4
  9
$SKETCHINC
 40
0.1
  9
$FILLETRAD
 40
0.0
  9
$AUNITS
 70
     0
  9
$AUPREC
 70
     0
  9
$MENU
  1
.
  9
$ELEVATION
 40
0.0
  9
$PELEVATION
 40
0.0
  9
$THICKNESS
 40
0.0
  9
$LIMCHECK
 70
     0
  9
$BLIPMODE
 70
     0
  9
$CHAMFERA
 40
0.0
  9
$CHAMFERB
 40
0.0
  9
$SKPOLY
 70
     0
  9
$TDCREATE
 40
2458060.468368056230247
  9
$TDUPDATE
 40
2460544.5449768519029021
  9
$TDINDWG
 40
0.6115579861
  9
$TDUSRTIMER
 40
0.6115579861
  9
$USRTIMER
 70
     1
  9
$ANGBASE
 50
0.0
  9
$ANGDIR
 70
     0
  9
$PDMODE
 70
     0
  9
$PDSIZE
 40
0.3125
  9
$PLINEWID
 40
0.0
  9
$COORDS
 70
     1
  9
$SPLFRAME
 70
     0
  9
$SPLINETYPE
 70
     6
  9
$SPLINESEGS
 70
     8
  9
$ATTDIA
 70
     1
  9
$ATTREQ
 70
     1
  9
$HANDLING
 70
     1
  9
$HANDSEED
  5
26A70
  9
$SURFTAB1
 70
     6
  9
$SURFTAB2
 70
     6
  9
$SURFTYPE
 70
     6
  9
$SURFU
 70
     6
  9
$SURFV
 70
     6
  9
$UCSNAME
  2

  9
$UCSORG
 10
0.0
 20
0.0
 30
0.0
  9
$UCSXDIR
 10
1.0
 20
0.0
 30
0.0
  9
$UCSYDIR
 10
0.0
 20
1.0
 30
0.0
  9
$PUCSNAME
  2

  9
$PUCSORG
 10
0.0
 20
0.0
 30
0.0
  9
$PUCSXDIR
 10
1.0
 20
0.0
 30
0.0
  9
$PUCSYDIR
 10
0.0
 20
1.0
 30
0.0
  9
$USERI1
 70
     0
  9
$USERI2
 70
     0
  9
$USERI3
 70
     0
  9
$USERI4
 70
     0
  9
$USERI5
 70
     0
  9
$USERR1
 40
0.0
  9
$USERR2
 40
0.0
  9
$USERR3
 40
0.0
  9
$USERR4
 40
0.0
  9
$USERR5
 40
0.0
  9
$WORLDVIEW
 70
     1
  9
$SHADEDGE
 70
     3
  9
$SHADEDIF
 70
    70
  9
$TILEMODE
 70
     1
  9
$MAXACTVP
 70
    64
  9
$PLIMCHECK
 70
     0
  9
$PEXTMIN
 10
1.0000000000000000E+20
 20
1.0000000000000000E+20
 30
1.0000000000000000E+20
  9
$PEXTMAX
 10
-1.0000000000000000E+20
 20
-1.0000000000000000E+20
 30
-1.0000000000000000E+20
  9
$PLIMMIN
 10
0.0
 20
0.0
  9
$PLIMMAX
 10
12.0
 20
9.0
  9
$UNITMODE
 70
     0
  9
$VISRETAIN
 70
     1
  9
$PLINEGEN
 70
     0
  9
$PSLTSCALE
 70
     1
  0
ENDSEC
  0
SECTION
  2
TABLES
  0
TABLE
  2
VPORT
 70
     1
  0
VPORT
  2
*ACTIVE
 70
     0
 10
0.0
 20
0.0
 11
1.0
 21
1.0
 12
1170.6141759497099883
 22
-103.8374903133396003
 13
0.0
 23
0.0
 14
1.0
 24
1.0
 15
0.0
 25
0.0
 16
0.0
 26
0.0
 36
5.1040778033513332
 17
3792.35791015625
 27
120.1806564331053977
 37
0.0
 40
7.7992304152736551
 41
2.1827586206896541
 42
50.0
 43
0.0
 44
0.0
 50
0.0
 51
0.0
 71
     0
 72
   100
 73
     1
 74
     1
 75
     0
 76
     0
 77
     0
 78
     0
  0
ENDTAB
  0
TABLE
  2
LTYPE
 70
     2
  0
LTYPE
  2
CONTINUOUS
 70
     0
  3
Solid line
 72
    65
 73
     0
 40
0.0
  0
LTYPE
  2
PHANTOM2
 70
     0
  3
___ _ _ ___ _ _ ___ _ _ ___ _ _
 72
    65
 73
     6
 40
1.25
 49
0.625
 49
-0.125
 49
0.125
 49
-0.125
 49
0.125
 49
-0.125
  0
ENDTAB
  0
TABLE
  2
LAYER
 70
     2
  0
LAYER
  2
0
 70
     0
 62
   255
  6
CONTINUOUS
  0
LAYER
  2
DEFPOINTS
 70
     0
 62
     7
  6
CONTINUOUS
  0
ENDTAB
  0
TABLE
  2
STYLE
 70
     1
  0
STYLE
  2
STANDARD
 70
     0
 40
0.0
 41
0.8
 50
0.0
 71
     0
 42
0.2
  3
txt
  4

  0
ENDTAB
  0
TABLE
  2
VIEW
 70
     0
  0
ENDTAB
  0
TABLE
  2
UCS
 70
     0
  0
ENDTAB
  0
TABLE
  2
APPID
 70
     9
  0
APPID
  2
ACAD
 70
     0
  0
APPID
  2
ACAD_MLEADERVER
 70
     0
  0
APPID
  2
ACAD_EXEMPT_FROM_CAD_STANDARDS
 70
     0
  0
APPID
  2
ACAD_NAV_VCDISPLAY
 70
     0
  0
APPID
  2
ACAECLAYERSTANDARD
 70
     0
  0
APPID
  2
ACCMTRANSPARENCY
 70
     0
  0
APPID
  2
ACAD_DSTYLE_DIMJAG
 70
     0
  0
APPID
  2
ACAD_DSTYLE_DIMTALN
 70
     0
  0
APPID
  2
ACDBATTR
 70
     0
  0
ENDTAB
  0
TABLE
  2
DIMSTYLE
 70
     1
  0
DIMSTYLE
  2
STANDARD
 70
     0
  3

  4

  5

  6

  7

 40
1.0
 41
0.1875
 42
0.0625
 43
0.38
 44
0.125
 45
0.0
 46
0.0
 47
0.01
 48
0.01
140
0.15625
141
0.09
142
0.0
143
25.3999999999999986
144
1.0
145
0.0
146
1.0
147
0.09
 71
     1
 72
     0
 73
     1
 74
     1
 75
     0
 76
     0
 77
     0
 78
     4
170
     0
171
     2
172
     0
173
     0
174
     0
175
     0
176
     0
177
     0
178
     0
  0
ENDTAB
  0
ENDSEC
  0
SECTION
  2
BLOCKS
  0
BLOCK
  8
0
  2
$MODEL_SPACE
 70
     0
 10
0.0
 20
0.0
 30
0.0
  3
$MODEL_SPACE
  1

  0
ENDBLK
  5
21
  8
0
  0
BLOCK
 67
     1
  8
0
  2
$PAPER_SPACE
 70
     0
 10
0.0
 20
0.0
 30
0.0
  3
$PAPER_SPACE
  1

  0
ENDBLK
  5
1D
 67
     1
  8
0
  0
ENDSEC
  0
SECTION
  2
ENTITIES
  0
ATTDEF
  5
2589B
  8
DEFPOINTS
 10
4965.0483220723635895
 20
12.4739270401887605
 30
0.0
 40
0.001
  1
K-14402-4A
  3

  2
MODELNUMBER
 70
     0
1001
ACDBATTR
1070
     0
1070
     1
  0
ATTDEF
  5
2589C
  8
DEFPOINTS
 10
4965.0483220723635895
 20
12.4722603735221007
 30
0.0
 40
0.001
  1
PURIST
  3

  2
TRADENAME
 70
     0
1001
ACDBATTR
1070
     0
1070
     1
  0
ATTDEF
  5
2589D
  8
DEFPOINTS
 10
4965.0483220723635895
 20
12.4705937068554302
 30
0.0
 40
0.001
  1
BATHROOM SINK FAUCET
  3

  2
PRODUCT
 70
     0
1001
ACDBATTR
1070
     0
1070
     1
  0
LINE
  5
269A1
  8
0
 10
4960.9733229650491921
 20
16.4803288490393705
 30
0.0
 11
4964.1406920753497616
 21
16.4803288490393705
 31
0.0
  0
LINE
  5
269A2
  8
0
 10
4964.1406920753497616
 20
12.8203288490393703
 30
0.0
 11
4964.1406920753497616
 21
15.67032884903937
 31
0.0
  0
LINE
  5
269A3
  8
0
 10
4964.1406920753497616
 20
16.4803288490393705
 30
0.0
 11
4964.1406920753497616
 21
17.9253288490393601
 31
0.0
  0
ARC
  5
269A4
  8
0
 10
4963.96069207535038
 20
12.8203288490393703
 30
0.0
 40
0.1799999999999997
 50
270.0
 51
0.0
  0
LINE
  5
269A5
  8
0
 10
4964.1406920753497616
 20
17.9253288490393601
 30
0.0
 11
4965.9606920752494261
 21
17.9253288490393601
 31
0.0
  0
LINE
  5
269A6
  8
0
 10
4964.1721726210489578
 20
17.9500882286548809
 30
0.0
 11
4965.0262498813799539
 21
17.9500882286548809
 31
0.0
  0
ARC
  5
269A7
  8
0
 10
4964.1722235462048047
 20
17.9798403798673014
 30
0.0
 40
0.0297521947953323
 50
177.5560240044181057
 51
269.9019299954480857
  0
LINE
  5
269A8
  8
0
 10
4964.1424984141485766
 20
17.9811090876548683
 30
0.0
 11
4964.1684612301260131
 21
18.7262040001319185
 31
0.0
  0
LINE
  5
269A9
  8
0
 10
4964.1984373924005922
 20
18.7551569921393089
 30
0.0
 11
4965.902946758197686
 21
18.7551569921393089
 31
0.0
  0
LINE
  5
269AA
  8
0
 10
4964.8504828368322706
 20
19.3300892378505189
 30
0.0
 11
4965.2517413355490135
 21
19.3300892378505189
 31
0.0
  0
ARC
  5
269AB
  8
0
 10
4964.1984430647407862
 20
18.7251568781554596
 30
0.0
 40
0.0300001145201206
 50
90.0108333305278165
 51
177.9997456844577925
  0
ARC
  5
269AC
  8
0
 10
4964.4781438646832612
 20
19.0899861374031907
 30
0.0
 40
0.3483071877692481
 50
285.9106025938199878
 51
359.2394641632126877
  0
ARC
  5
269AD
  8
0
 10
4964.8509647280134232
 20
19.3094554780671892
 30
0.0
 40
0.0206393861804784
 50
91.3378711845575282
 51
180.7584026493431111
  0
ARC
  5
269AE
  8
0
 10
4964.8513914544173531
 20
19.3501009977915004
 30
0.0
 40
0.0200323768398152
 50
180.2563393515694941
 51
267.4003174815886155
  0
ARC
  5
269AF
  8
0
 10
4966.1406920752488077
 20
12.8203288490393703
 30
0.0
 40
0.1799999999999997
 50
180.0
 51
270.0
  0
LINE
  5
269B0
  8
0
 10
4965.9501579254492754
 20
18.2705134971548802
 30
0.0
 11
4965.9473794595332947
 21
18.3501353119380184
 31
0.0
  0
LINE
  5
269B1
  8
0
 10
4965.9348190347500349
 20
18.710087468154871
 30
0.0
 11
4965.934256295537125
 21
18.7262025966548613
 31
0.0
  0
ARC
  5
269B2
  8
0
 10
4965.9042244998427122
 20
18.7251333443019412
 30
0.0
 40
0.0300508245007171
 50
2.039098177497022
 51
92.4369141886116381
  0
ARC
  5
269B3
  8
0
 10
4965.6232402859141075
 20
19.0899861374007216
 30
0.0
 40
0.3483071877664087
 50
180.7605358363344976
 51
254.0893974062904022
  0
ARC
  5
269B4
  8
0
 10
4965.2510150577127206
 20
19.3100791741020004
 30
0.0
 40
0.0200232397657406
 50
0.9734752223021235
 51
87.9213261584338142
  0
ARC
  5
269B5
  8
0
 10
4965.251356149714411
 20
19.3500887342764401
 30
0.0
 40
0.0200032053786066
 50
271.1033675104970939
 51
359.9962773465783243
  0
LINE
  5
269B6
  8
0
 10
4960.9733229650491921
 20
15.67032884903937
 30
0.0
 11
4964.1406920753497616
 21
15.67032884903937
 31
0.0
  0
ARC
  5
269B7
  8
0
 10
4963.3445489358628038
 20
16.0753288490393693
 30
0.0
 40
0.8932350746317435
 50
333.0374460237591734
 51
26.9625539762395015
  0
ARC
  5
269B8
  8
0
 10
4960.9733229650555586
 20
14.7393288490140293
 30
0.0
 40
0.93100000002533
 50
90.0000000003647642
 51
144.9999999948917093
  0
LINE
  5
269B9
  8
0
 10
4960.2106924118497773
 20
15.2733285113393595
 30
0.0
 11
4960.1070428348439236
 21
15.12616530047951
 31
0.0
  0
LINE
  5
269BA
  8
0
 10
4960.1041452783283603
 20
15.1220513066459308
 30
0.0
 11
4959.89686452595015
 21
14.8277510118393696
 31
0.0
  0
ARC
  5
269BB
  8
0
 10
4959.8876534131468361
 20
14.83544539499478
 30
0.0
 40
0.0120020052993173
 50
274.8732553382494075
 51
320.1267445057865757
  0
ARC
  5
269BC
  8
0
 10
4959.8894340478436789
 20
14.8359004940229404
 30
0.0
 40
0.0124370243460217
 50
238.5082161521534942
 51
266.4917838478560839
  0
LINE
  5
269BD
  8
0
 10
4959.8829372411855729
 20
14.8252952557964601
 30
0.0
 11
4959.2382786408488755
 21
15.2766900672393593
 31
0.0
  0
ARC
  5
269BE
  8
0
 10
4959.2440003732353944
 20
15.2848914257573192
 30
0.0
 40
0.0100000251519011
 50
145.0000597644817901
 51
235.0981887872682137
  0
LINE
  5
269BF
  8
0
 10
4959.235808826207176
 20
15.2906271960028608
 30
0.0
 11
4959.4413939406122154
 21
15.5859598568598994
 31
0.0
  0
LINE
  5
269C0
  8
0
 10
4959.4443413158896874
 20
15.5901938997079892
 30
0.0
 11
4959.5471792559492314
 21
15.7379254247393501
 31
0.0
  0
ARC
  5
269C1
  8
0
 10
4960.9733229650510111
 20
14.7393288490326508
 30
0.0
 40
1.7410000000067121
 50
90.0000000000521254
 51
144.9999999993709991
  0
ARC
  5
269C2
  8
0
 10
4959.4459672774182764
 20
15.5799788340347192
 30
0.0
 40
0.0075291462716624
 50
64.0664634069334227
 51
127.4030200716609045
  0
ARC
  5
269C3
  8
0
 10
4960.0961573040431176
 20
15.1239645114620096
 30
0.0
 40
0.0082138958985369
 50
346.5307809935544014
 51
43.4116500378023176
  0
LINE
  5
269C4
  8
0
 10
4959.4443413158896874
 20
15.5901938997079892
 30
0.0
 11
4960.1070428348439236
 21
15.12616530047951
 31
0.0
  0
ARC
  5
269C5
  8
0
 10
4965.8256920753492523
 20
17.9753288490393395
 30
0.0
 40
0.0600000000000046
 50
180.0
 51
236.4426902380043032
  0
LINE
  5
269C6
  8
0
 10
4965.7656920753497616
 20
17.9753288490393395
 30
0.0
 11
4965.7656920753497616
 21
18.235275654234119
 31
0.0
  0
ARC
  5
269C7
  8
0
 10
4965.0258514951574398
 20
18.07008758250306
 30
0.0
 40
0.1200000151481857
 50
270.1902157350767766
 51
293.9999496487951092
  0
LINE
  5
269C8
  8
0
 10
4965.0746598021496538
 20
17.9604620708548595
 30
0.0
 11
4965.6794075535717639
 21
18.2297124803669597
 31
0.0
  0
ARC
  5
269C9
  8
0
 10
4965.7282170188127566
 20
18.1200843672420611
 30
0.0
 40
0.1200028628178535
 50
90.0005221473055741
 51
113.999949648795095
  0
LINE
  5
269CA
  8
0
 10
4965.7282159252063138
 20
18.2400872300549288
 30
0.0
 11
4965.92077616934057
 21
18.2400889848928394
 31
0.0
  0
ARC
  5
269CB
  8
0
 10
4965.9207759014152543
 20
18.2694888692241086
 30
0.0
 40
0.0293998843324759
 50
270.0005221472533776
 51
1.997244148335648
  0
ARC
  5
269CC
  8
0
 10
4965.9293384051497924
 20
18.3800874727548802
 30
0.0
 40
0.0200000000000281
 50
315.6986915840608958
 51
347.8033045480623855
  0
ARC
  5
269CD
  8
0
 10
4965.2353644676941258
 20
18.5300880533798313
 30
0.0
 40
0.7300000000391184
 50
347.8033045480623855
 51
12.1965993124269296
  0
ARC
  5
269CE
  8
0
 10
4965.929338651982107
 20
18.6800874684995115
 30
0.0
 40
0.0200000049731873
 50
12.1965993124300205
 51
79.1055387826386038
  0
ARC
  5
269CF
  8
0
 10
4966.8135194611122643
 20
18.5605542372069685
 30
0.0
 40
0.8913330614566591
 50
170.3421853845696035
 51
193.6548316317054059
  0
ARC
  5
269D0
  8
0
 10
4964.4261973197453699
 20
19.3696993157998811
 30
0.0
 40
0.8453895503272729
 50
358.6706970371258762
 51
90.0115200036340752
  0
ARC
  5
269D1
  8
0
 10
4964.4260148748253414
 20
19.3692864186348999
 30
0.0
 40
0.40580243048302
 50
357.2775066907803989
 51
90.0
  0
ARC
  5
269D2
  8
0
 10
4964.2756920752999577
 20
17.9753288490393395
 30
0.0
 40
0.0599999999999975
 50
303.5573097619957252
 51
335.1226628890852908
  0
LINE
  5
269D3
  8
0
 10
4965.7656920753497616
 20
18.235275654234119
 30
0.0
 11
4965.7608805598229083
 21
18.2400875277339409
 31
0.0
  0
LINE
  5
269D4
  8
0
 10
4965.7656920753497616
 20
18.235275654234119
 30
0.0
 11
4965.6945769461981399
 21
18.235275654234119
 31
0.0
  0
LINE
  5
269D5
  8
0
 10
4964.8303271499007678
 20
19.3091822902650705
 30
0.0
 11
4964.8264203678736521
 21
19.0853628942587505
 31
0.0
  0
LINE
  5
269D6
  8
0
 10
4965.2710354074752104
 20
19.3104193595424505
 30
0.0
 11
4965.2749637827264451
 21
19.0853628942559901
 31
0.0
  0
LINE
  5
269D7
  8
0
 10
4961.8006920752995939
 20
19.7850888490393295
 30
0.0
 11
4961.8006920752995939
 21
20.2050867204114795
 31
0.0
  0
ARC
  5
269D8
  8
0
 10
4961.8106920754598832
 20
20.2050888486525615
 30
0.0
 40
0.0100000003867804
 50
90.0000009180776317
 51
180.012196054971497
  0
ARC
  5
269D9
  8
0
 10
4961.8106945516101405
 20
19.7850898872648813
 30
0.0
 40
0.0100024763639244
 50
180.0059471215872122
 51
270.9716043179893177
  0
LINE
  5
269DA
  8
0
 10
4961.8106920754598832
 20
20.2150888490393292
 30
0.0
 11
4964.42602734403863
 21
20.2150888490393292
 31
0.0
  0
LINE
  5
269DB
  8
0
 10
4961.8108641624194206
 20
19.7750888490393386
 30
0.0
 11
4964.4260148748253414
 21
19.7750888490393386
 31
0.0
  0
LINE
  5
269DC
  8
0
 10
4963.96069207535038
 20
12.4703288490393494
 30
0.0
 11
4966.1406920752488077
 21
12.4703288490393494
 31
0.0
  0
LINE
  5
269DD
  8
0
 10
4963.96069207535038
 20
12.6403288490393706
 30
0.0
 11
4966.1406920752488077
 21
12.6403288490393706
 31
0.0
  0
ARC
  5
269DE
  8
0
 10
4963.9606329823300257
 20
12.5001861858690599
 30
0.0
 40
0.0298573953074926
 50
179.7262310153031137
 51
270.1133984690392822
  0
ARC
  5
269DF
  8
0
 10
4963.9606329823300257
 20
12.6104715122096298
 30
0.0
 40
0.0298573953075017
 50
89.8866015330451091
 51
180.2737689868106088
  0
ARC
  5
269E0
  8
0
 10
4966.140751168269162
 20
12.5001861858690297
 30
0.0
 40
0.0298573953074653
 50
269.8866015309085924
 51
0.2737689798619527
  0
ARC
  5
269E1
  8
0
 10
4966.140751168269162
 20
12.6104715122096902
 30
0.0
 40
0.0298573953074601
 50
359.726231020138016
 51
90.1133984669549051
  0
LINE
  5
269E2
  8
0
 10
4966.1706082227419756
 20
12.6103288490356995
 30
0.0
 11
4966.1706082227419756
 21
12.5003288490419102
 31
0.0
  0
LINE
  5
269E3
  8
0
 10
4963.9307759278572121
 20
12.6103288490356995
 30
0.0
 11
4963.9307759278572121
 21
12.5003288490419102
 31
0.0
  0
LINE
  5
269E4
  8
0
 10
4965.9606920752494261
 20
12.8203288490393401
 30
0.0
 11
4965.9606920752494261
 21
13.7203288494873608
 31
0.0
  0
LINE
  5
269E5
  8
0
 10
4966.4406920752999213
 20
13.7358288490393505
 30
0.0
 11
4966.4406920752999213
 21
14.1108288490393505
 31
0.0
  0
LINE
  5
269E6
  8
0
 10
4965.9606920752494261
 20
15.8453288485915404
 30
0.0
 11
4965.9606920752494261
 21
17.9253288490393317
 31
0.0
  0
ARC
  5
269E7
  8
0
 10
4966.866367480604822
 20
13.9254306868256901
 30
0.0
 40
0.9286090154359893
 50
180.1296848614150008
 51
192.7601351650237973
  0
LINE
  5
269E8
  8
0
 10
4965.937760843849901
 20
13.9233288491393399
 30
0.0
 11
4965.937760843849901
 21
15.6423244439320595
 31
0.0
  0
ARC
  5
269E9
  8
0
 10
4966.8655281798228316
 20
15.6403218636189507
 30
0.0
 40
0.927769497250245
 50
167.2341297544508905
 51
179.8763275905141086
  0
LINE
  5
269EA
  8
0
 10
4966.4406920752999213
 20
13.7358288490393505
 30
0.0
 11
4965.9573208114752561
 21
13.7358288490393505
 31
0.0
  0
LINE
  5
269EB
  8
0
 10
4966.4406920752999213
 20
14.1108288490393505
 30
0.0
 11
4965.937760843849901
 21
14.1108288490393505
 31
0.0
  0
LINE
  5
269EC
  8
0
 10
4965.9606920752494261
 20
12.8203288490393703
 30
0.0
 11
4964.1406920753497616
 21
12.8203288490393703
 31
0.0
  0
ENDSEC
  0
EOF
