  0
SECTION
  2
HEADER
  9
$ACADVER
  1
AC1009
  9
$INSBASE
 10
3884.8830059325800903
 20
212.203699471920487
 30
0.0
  9
$EXTMIN
 10
3883.763089785136799
 20
212.1970425816012096
 30
0.0
  9
$EXTMAX
 10
3886.0029220800220173
 20
220.0491640389205088
 30
0.0
  9
$LIMMIN
 10
0.0
 20
0.0
  9
$LIMMAX
 10
11.6929133858000007
 20
8.2677165353999982
  9
$ORTHOMODE
 70
     0
  9
$REGENMODE
 70
     1
  9
$FILLMODE
 70
     1
  9
$QTEXTMODE
 70
     0
  9
$MIRRTEXT
 70
     0
  9
$DRAGMODE
 70
     2
  9
$LTSCALE
 40
0.6431102362
  9
$OSMODE
 70
  4095
  9
$ATTMODE
 70
     1
  9
$TEXTSIZE
 40
0.2
  9
$TRACEWID
 40
0.05
  9
$TEXTSTYLE
  7
STANDARD
  9
$CLAYER
  8
0
  9
$CELTYPE
  6
BYLAYER
  9
$CECOLOR
 62
   256
  9
$DIMSCALE
 40
1.0
  9
$DIMASZ
 40
0.1875
  9
$DIMEXO
 40
0.0625
  9
$DIMDLI
 40
0.4443307087
  9
$DIMRND
 40
0.0
  9
$DIMDLE
 40
0.0
  9
$DIMEXE
 40
0.125
  9
$DIMTP
 40
0.01
  9
$DIMTM
 40
0.01
  9
$DIMTXT
 40
2.0
  9
$DIMCEN
 40
0.1052362205
  9
$DIMTSZ
 40
0.0
  9
$DIMTOL
 70
     1
  9
$DIMLIM
 70
     0
  9
$DIMTIH
 70
     1
  9
$DIMTOH
 70
     1
  9
$DIMSE1
 70
     0
  9
$DIMSE2
 70
     0
  9
$DIMTAD
 70
     0
  9
$DIMZIN
 70
     0
  9
$DIMBLK
  1

  9
$DIMASO
 70
     1
  9
$DIMSHO
 70
     1
  9
$DIMPOST
  1
\X
  9
$DIMAPOST
  1

  9
$DIMALT
 70
     1
  9
$DIMALTD
 70
     2
  9
$DIMALTF
 40
25.3999999999999986
  9
$DIMLFAC
 40
1.0
  9
$DIMTOFL
 70
     0
  9
$DIMTVP
 40
0.0
  9
$DIMTIX
 70
     0
  9
$DIMSOXD
 70
     0
  9
$DIMSAH
 70
     0
  9
$DIMBLK1
  1

  9
$DIMBLK2
  1

  9
$DIMSTYLE
  2
STANDARD
  9
$DIMCLRD
 70
     0
  9
$DIMCLRE
 70
     0
  9
$DIMCLRT
 70
     0
  9
$DIMTFAC
 40
1.0
  9
$DIMGAP
 40
0.09
  9
$LUNITS
 70
     2
  9
$LUPREC
 70
     4
  9
$SKETCHINC
 40
0.1
  9
$FILLETRAD
 40
0.0
  9
$AUNITS
 70
     0
  9
$AUPREC
 70
     0
  9
$MENU
  1
.
  9
$ELEVATION
 40
0.0
  9
$PELEVATION
 40
0.0
  9
$THICKNESS
 40
0.0
  9
$LIMCHECK
 70
     0
  9
$BLIPMODE
 70
     0
  9
$CHAMFERA
 40
0.0
  9
$CHAMFERB
 40
0.0
  9
$SKPOLY
 70
     0
  9
$TDCREATE
 40
2458059.843368056230247
  9
$TDUPDATE
 40
2459049.1814467590302229
  9
$TDINDWG
 40
0.5735950231
  9
$TDUSRTIMER
 40
0.5735950231
  9
$USRTIMER
 70
     1
  9
$ANGBASE
 50
0.0
  9
$ANGDIR
 70
     0
  9
$PDMODE
 70
     0
  9
$PDSIZE
 40
0.3125
  9
$PLINEWID
 40
0.0
  9
$COORDS
 70
     1
  9
$SPLFRAME
 70
     0
  9
$SPLINETYPE
 70
     6
  9
$SPLINESEGS
 70
     8
  9
$ATTDIA
 70
     1
  9
$ATTREQ
 70
     1
  9
$HANDLING
 70
     1
  9
$HANDSEED
  5
A756
  9
$SURFTAB1
 70
     6
  9
$SURFTAB2
 70
     6
  9
$SURFTYPE
 70
     6
  9
$SURFU
 70
     6
  9
$SURFV
 70
     6
  9
$UCSNAME
  2

  9
$UCSORG
 10
0.0
 20
0.0
 30
0.0
  9
$UCSXDIR
 10
1.0
 20
0.0
 30
0.0
  9
$UCSYDIR
 10
0.0
 20
1.0
 30
0.0
  9
$PUCSNAME
  2

  9
$PUCSORG
 10
0.0
 20
0.0
 30
0.0
  9
$PUCSXDIR
 10
1.0
 20
0.0
 30
0.0
  9
$PUCSYDIR
 10
0.0
 20
1.0
 30
0.0
  9
$USERI1
 70
     0
  9
$USERI2
 70
     0
  9
$USERI3
 70
     0
  9
$USERI4
 70
     0
  9
$USERI5
 70
     0
  9
$USERR1
 40
0.0
  9
$USERR2
 40
0.0
  9
$USERR3
 40
0.0
  9
$USERR4
 40
0.0
  9
$USERR5
 40
0.0
  9
$WORLDVIEW
 70
     1
  9
$SHADEDGE
 70
     3
  9
$SHADEDIF
 70
    70
  9
$TILEMODE
 70
     1
  9
$MAXACTVP
 70
    64
  9
$PLIMCHECK
 70
     0
  9
$PEXTMIN
 10
1.0000000000000000E+20
 20
1.0000000000000000E+20
 30
1.0000000000000000E+20
  9
$PEXTMAX
 10
-1.0000000000000000E+20
 20
-1.0000000000000000E+20
 30
-1.0000000000000000E+20
  9
$PLIMMIN
 10
0.0
 20
0.0
  9
$PLIMMAX
 10
12.0
 20
9.0
  9
$UNITMODE
 70
     0
  9
$VISRETAIN
 70
     1
  9
$PLINEGEN
 70
     0
  9
$PSLTSCALE
 70
     1
  0
ENDSEC
  0
SECTION
  2
TABLES
  0
TABLE
  2
VPORT
 70
     1
  0
VPORT
  2
*ACTIVE
 70
     0
 10
0.0
 20
0.0
 11
1.0
 21
1.0
 12
4.1570537841421347
 22
-0.3127317065122526
 13
0.0
 23
0.0
 14
1.0
 24
1.0
 15
0.0
 25
0.0
 16
0.0
 26
0.0
 36
28.4584397060768204
 17
3880.7259521484379547
 27
216.4358350167730975
 37
0.0
 40
7.9416893826879891
 41
2.5847619047619039
 42
50.0
 43
0.0
 44
0.0
 50
0.0
 51
0.0
 71
     0
 72
   100
 73
     1
 74
     1
 75
     0
 76
     0
 77
     0
 78
     0
  0
ENDTAB
  0
TABLE
  2
LTYPE
 70
     2
  0
LTYPE
  2
CONTINUOUS
 70
     0
  3
Solid line
 72
    65
 73
     0
 40
0.0
  0
LTYPE
  2
PHANTOM2
 70
     0
  3
___ _ _ ___ _ _ ___ _ _ ___ _ _
 72
    65
 73
     6
 40
1.25
 49
0.625
 49
-0.125
 49
0.125
 49
-0.125
 49
0.125
 49
-0.125
  0
ENDTAB
  0
TABLE
  2
LAYER
 70
     2
  0
LAYER
  2
0
 70
     0
 62
   255
  6
CONTINUOUS
  0
LAYER
  2
DEFPOINTS
 70
     0
 62
     7
  6
CONTINUOUS
  0
ENDTAB
  0
TABLE
  2
STYLE
 70
     1
  0
STYLE
  2
STANDARD
 70
     0
 40
0.0
 41
0.8
 50
0.0
 71
     0
 42
0.2
  3
txt
  4

  0
ENDTAB
  0
TABLE
  2
VIEW
 70
     0
  0
ENDTAB
  0
TABLE
  2
UCS
 70
     0
  0
ENDTAB
  0
TABLE
  2
APPID
 70
     9
  0
APPID
  2
ACAD
 70
     0
  0
APPID
  2
ACAD_MLEADERVER
 70
     0
  0
APPID
  2
ACAD_EXEMPT_FROM_CAD_STANDARDS
 70
     0
  0
APPID
  2
ACAD_NAV_VCDISPLAY
 70
     0
  0
APPID
  2
ACAECLAYERSTANDARD
 70
     0
  0
APPID
  2
ACCMTRANSPARENCY
 70
     0
  0
APPID
  2
ACAD_DSTYLE_DIMJAG
 70
     0
  0
APPID
  2
ACAD_DSTYLE_DIMTALN
 70
     0
  0
APPID
  2
ACDBATTR
 70
     0
  0
ENDTAB
  0
TABLE
  2
DIMSTYLE
 70
     1
  0
DIMSTYLE
  2
STANDARD
 70
     0
  3

  4

  5

  6

  7

 40
1.0
 41
0.1875
 42
0.0625
 43
0.38
 44
0.125
 45
0.0
 46
0.0
 47
0.01
 48
0.01
140
0.15625
141
0.09
142
0.0
143
25.3999999999999986
144
1.0
145
0.0
146
1.0
147
0.09
 71
     1
 72
     0
 73
     1
 74
     1
 75
     0
 76
     0
 77
     0
 78
     4
170
     0
171
     2
172
     0
173
     0
174
     0
175
     0
176
     0
177
     0
178
     0
  0
ENDTAB
  0
ENDSEC
  0
SECTION
  2
BLOCKS
  0
BLOCK
  8
0
  2
$MODEL_SPACE
 70
     0
 10
0.0
 20
0.0
 30
0.0
  3
$MODEL_SPACE
  1

  0
ENDBLK
  5
21
  8
0
  0
BLOCK
 67
     1
  8
0
  2
$PAPER_SPACE
 70
     0
 10
0.0
 20
0.0
 30
0.0
  3
$PAPER_SPACE
  1

  0
ENDBLK
  5
1D
 67
     1
  8
0
  0
ENDSEC
  0
SECTION
  2
ENTITIES
  0
ATTDEF
  5
3930
  8
DEFPOINTS
 10
3884.8776384829288872
 20
212.2003759149345115
 30
0.0
 40
0.001
  1
K-14402IN-4AND
  3

  2
MODELNUMBER
 70
     0
1001
ACDBATTR
1070
     0
1070
     1
  0
ATTDEF
  5
3931
  8
DEFPOINTS
 10
3884.8776384829288872
 20
212.1987092482679031
 30
0.0
 40
0.001
  1
PURIST
  3

  2
TRADENAME
 70
     0
1001
ACDBATTR
1070
     0
1070
     1
  0
ATTDEF
  5
3932
  8
DEFPOINTS
 10
3884.8776384829288872
 20
212.1970425816012096
 30
0.0
 40
0.001
  1
BATHROOM SINK FAUCET
  3

  2
PRODUCT
 70
     0
1001
ACDBATTR
1070
     0
1070
     1
  0
LINE
  5
A5F5
  8
0
 10
3883.7930059326308765
 20
212.203699471920487
 30
0.0
 11
3885.9730059325302136
 21
212.203699471920487
 31
0.0
  0
LINE
  5
A5F6
  8
0
 10
3883.9730059326298033
 20
212.5536994719205097
 30
0.0
 11
3883.9730059326298033
 21
217.6586994719204995
 31
0.0
  0
LINE
  5
A5F7
  8
0
 10
3883.7930059326308765
 20
212.3736994719205029
 30
0.0
 11
3885.9730059325302136
 21
212.3736994719205029
 31
0.0
  0
ARC
  5
A5F8
  8
0
 10
3883.7929468396109769
 20
212.233556808750194
 30
0.0
 40
0.0298573953074926
 50
179.726231015303199
 51
270.1133984690653733
  0
ARC
  5
A5F9
  8
0
 10
3883.7929468396109769
 20
212.3438421350907959
 30
0.0
 40
0.0298573953075017
 50
89.8866015330711718
 51
180.2737689868106088
  0
ARC
  5
A5FA
  8
0
 10
3883.7930059326308765
 20
212.5536994719205097
 30
0.0
 40
0.1799999999999997
 50
270.0
 51
0.0
  0
LINE
  5
A5FB
  8
0
 10
3883.9730059326298033
 20
217.6586994719204995
 30
0.0
 11
3885.7930059325299226
 21
217.6586994719204995
 31
0.0
  0
LINE
  5
A5FC
  8
0
 10
3884.0044864783289995
 20
217.7841634185361102
 30
0.0
 11
3885.7615253868311811
 21
217.7841634185361102
 31
0.0
  0
ARC
  5
A5FD
  8
0
 10
3884.0045374034848464
 20
217.8139155697485023
 30
0.0
 40
0.0297521947953323
 50
177.5560240044181057
 51
269.9019299954480857
  0
LINE
  5
A5FE
  8
0
 10
3883.9748122714299825
 20
217.815184277535991
 30
0.0
 11
3884.0007750874078738
 21
218.560279190013091
 31
0.0
  0
LINE
  5
A5FF
  8
0
 10
3884.0307512496819982
 20
218.5892321820205098
 30
0.0
 11
3885.7352606154781824
 21
218.5892321820205098
 31
0.0
  0
LINE
  5
A600
  8
0
 10
3884.682796694110948
 20
219.1641650163365114
 30
0.0
 11
3885.0832151710478684
 21
219.1641650163365114
 31
0.0
  0
LINE
  5
A601
  8
0
 10
3884.4780059326299124
 20
215.8086994719205052
 30
0.0
 11
3884.4780059326299124
 21
214.7927161199073112
 31
0.0
  0
ARC
  5
A602
  8
0
 10
3884.0307569220221922
 20
218.5592320680366072
 30
0.0
 40
0.0300001145201206
 50
90.0108333305278165
 51
177.9997456844575936
  0
LINE
  5
A603
  8
0
 10
3884.663329981230163
 20
219.1445126112359958
 30
0.0
 11
3884.6594009180348621
 21
218.9194264469774964
 31
0.0
  0
ARC
  5
A604
  8
0
 10
3884.3094542293301856
 20
218.9255350527361088
 30
0.0
 40
0.3500000000000004
 50
286.0024471922085922
 51
358.9999568569991766
  0
ARC
  5
A605
  8
0
 10
3884.6827896271279315
 20
219.1447044263767054
 30
0.0
 40
0.0194605912429415
 50
89.9791934199164984
 51
180.5647503631012114
  0
ARC
  5
A606
  8
0
 10
3884.6842637300169372
 20
219.1854086210744015
 30
0.0
 40
0.0212941996000396
 50
176.649323859697887
 51
266.0495533055747046
  0
ARC
  5
A607
  8
0
 10
3884.8882735603810943
 20
215.2100185938521122
 30
0.0
 40
0.6531824356226172
 50
244.1572411163384118
 51
269.537929839836977
  0
ARC
  5
A608
  8
0
 10
3884.7308533133591482
 20
214.8647495443792081
 30
0.0
 40
0.2739647461260457
 50
214.4960867788765881
 51
242.3109785801858891
  0
ARC
  5
A609
  8
0
 10
3884.6519828154928291
 20
214.8033744456344891
 30
0.0
 40
0.1743030569956239
 50
183.5057232942540111
 51
212.5514062296579141
  0
ARC
  5
A60A
  8
0
 10
3884.6729724726169479
 20
214.7717289222580916
 30
0.0
 40
0.1960928713124855
 50
121.6872261348999018
 51
173.856046705997187
  0
ARC
  5
A60B
  8
0
 10
3884.8861503691850885
 20
214.3960870855293024
 30
0.0
 40
0.6279174369079698
 50
90.2869225933010853
 51
120.2345240949989034
  0
ARC
  5
A60C
  8
0
 10
3884.8627737847618846
 20
214.989957716455109
 30
0.0
 40
0.3737060258092431
 50
231.8064314140619899
 51
273.1034653881425811
  0
ARC
  5
A60D
  8
0
 10
3884.6889406130048883
 20
214.7909330359327953
 30
0.0
 40
0.1106367466054095
 50
157.4802279406509058
 51
238.8460131141131058
  0
ARC
  5
A60E
  8
0
 10
3884.7533000527109834
 20
214.75320828868729
 30
0.0
 40
0.1848188622273377
 50
108.4826069084560061
 51
154.3170326982069867
  0
ARC
  5
A60F
  8
0
 10
3884.878287994342827
 20
214.4784143994874057
 30
0.0
 40
0.4860791292478765
 50
89.4438720421674276
 51
112.1895734126264017
  0
ARC
  5
A610
  8
0
 10
3884.8694613203201698
 20
214.9820373145103076
 30
0.0
 40
0.3407551463416263
 50
233.7486491574586012
 51
272.2780393103028018
  0
ARC
  5
A611
  8
0
 10
3884.7376687630348897
 20
214.8023038324917877
 30
0.0
 40
0.1178798387947407
 50
188.1664349037608872
 51
233.7486491574586012
  0
ARC
  5
A612
  8
0
 10
3884.7143194671161837
 20
214.7989531089318973
 30
0.0
 40
0.0942913465092771
 50
129.0684283971280877
 51
188.1664349037608872
  0
ARC
  5
A613
  8
0
 10
3884.8695468252199134
 20
214.6077306963923945
 30
0.0
 40
0.3405869895104805
 50
87.7352308796959051
 51
129.0684283971280877
  0
ARC
  5
A614
  8
0
 10
3884.8715833133928754
 20
214.9629754174088134
 30
0.0
 40
0.3110309184592377
 50
232.5521195713164104
 51
272.104662390246574
  0
ARC
  5
A615
  8
0
 10
3884.7458722122728432
 20
214.7923301436800898
 30
0.0
 40
0.0991960866075505
 50
182.7072589940918874
 51
230.2664240357950121
  0
ARC
  5
A616
  8
0
 10
3884.757241387682825
 20
214.777832145293786
 30
0.0
 40
0.1108895662713707
 50
113.1195079249695965
 51
174.9232293846513073
  0
ARC
  5
A617
  8
0
 10
3884.8735178039501079
 20
214.6077095857147015
 30
0.0
 40
0.315568396642246
 50
88.2770401819071822
 51
120.4271528782878988
  0
ARC
  5
A618
  8
0
 10
3884.7016249394978331
 20
215.0543599424975127
 30
0.0
 40
0.2266904358740153
 50
123.5253024735027054
 51
170.5575900999940018
  0
ARC
  5
A619
  8
0
 10
3884.8808179841221317
 20
214.7081889681062137
 30
0.0
 40
0.6156635993978088
 50
89.7963815361993198
 51
119.6313994339499942
  0
LINE
  5
A61A
  8
0
 10
3885.7930059325299226
 20
212.5536994719205097
 30
0.0
 11
3885.7930059325299226
 21
217.6586994719204995
 31
0.0
  0
ARC
  5
A61B
  8
0
 10
3885.9730650255501132
 20
212.233556808750194
 30
0.0
 40
0.0298573953074653
 50
269.8866015309085924
 51
0.2737689798620262
  0
ARC
  5
A61C
  8
0
 10
3885.9730650255501132
 20
212.3438421350907959
 30
0.0
 40
0.0298573953074601
 50
359.726231020138016
 51
90.1133984669549051
  0
ARC
  5
A61D
  8
0
 10
3885.9730059325302136
 20
212.5536994719205097
 30
0.0
 40
0.1799999999999997
 50
180.0
 51
270.0
  0
ARC
  5
A61E
  8
0
 10
3885.7614744616748794
 20
217.8139155697485023
 30
0.0
 40
0.0297521947953323
 50
270.0980700045519143
 51
2.4439759955819351
  0
LINE
  5
A61F
  8
0
 10
3885.7911995937301981
 20
217.815184277535991
 30
0.0
 11
3885.7652367777518521
 21
218.560279190013091
 31
0.0
  0
LINE
  5
A620
  8
0
 10
3885.2880059325298134
 20
215.8086994719205052
 30
0.0
 11
3885.2880059325298134
 21
214.7927161199073112
 31
0.0
  0
ARC
  5
A621
  8
0
 10
3885.7352549431379884
 20
218.5592320680366072
 30
0.0
 40
0.0300001145201206
 50
2.0002543155423531
 51
89.9891666694721977
  0
LINE
  5
A622
  8
0
 10
3885.1026818839300176
 20
219.1445126112359958
 30
0.0
 11
3885.1066109471248637
 21
218.9194264469774964
 31
0.0
  0
ARC
  5
A623
  8
0
 10
3885.456557635829995
 20
218.9255350527361088
 30
0.0
 40
0.3500000000000004
 50
181.000043143000795
 51
253.9975528077914078
  0
ARC
  5
A624
  8
0
 10
3885.0832220945608242
 20
219.1447042842619055
 30
0.0
 40
0.0194607333062116
 50
359.4356721908275745
 51
90.0203840261447539
  0
ARC
  5
A625
  8
0
 10
3885.0817431142831992
 20
219.1854185604701115
 30
0.0
 40
0.021304461724153
 50
273.9620760253743015
 51
3.582996188535152
  0
ARC
  5
A626
  8
0
 10
3884.8777383047790863
 20
215.2100185938521122
 30
0.0
 40
0.6531824356226172
 50
270.462070160163023
 51
295.8427588836614746
  0
ARC
  5
A627
  8
0
 10
3885.0351585518010324
 20
214.8647495443792081
 30
0.0
 40
0.2739647461260457
 50
297.6890214198140825
 51
325.5039132211221045
  0
ARC
  5
A628
  8
0
 10
3885.1140290496668968
 20
214.8033744456344891
 30
0.0
 40
0.1743030569956239
 50
327.4485937703420859
 51
356.4942767057460173
  0
ARC
  5
A629
  8
0
 10
3885.0930393925427779
 20
214.7717289222580916
 30
0.0
 40
0.1960928713124855
 50
6.1439532940028183
 51
58.3127738651000698
  0
ARC
  5
A62A
  8
0
 10
3884.8798614959760016
 20
214.3960870855293024
 30
0.0
 40
0.6279174369079698
 50
59.7654759050010327
 51
89.7130774066989147
  0
ARC
  5
A62B
  8
0
 10
3884.9032380803992055
 20
214.989957716455109
 30
0.0
 40
0.3737060258092431
 50
266.8965346118574189
 51
308.1935685859381238
  0
ARC
  5
A62C
  8
0
 10
3885.0770712521548376
 20
214.7909330359327953
 30
0.0
 40
0.1106367466054095
 50
301.153986885886809
 51
22.51977205934908
  0
ARC
  5
A62D
  8
0
 10
3885.0127118124491972
 20
214.75320828868729
 30
0.0
 40
0.1848188622273377
 50
25.682967301792921
 51
71.5173930915440224
  0
ARC
  5
A62E
  8
0
 10
3884.8877238708159894
 20
214.4784143994874057
 30
0.0
 40
0.4860791292478765
 50
67.8104265873735841
 51
90.5561279578325724
  0
ARC
  5
A62F
  8
0
 10
3884.8965505448400108
 20
214.9820373145103076
 30
0.0
 40
0.3407551463416263
 50
267.7219606896973119
 51
306.2513508425413988
  0
ARC
  5
A630
  8
0
 10
3885.0283431021239267
 20
214.8023038324917877
 30
0.0
 40
0.1178798387947407
 50
306.2513508425413988
 51
351.8335650962391128
  0
ARC
  5
A631
  8
0
 10
3885.0516923980449064
 20
214.7989531089318973
 30
0.0
 40
0.0942913465092771
 50
351.8335650962391128
 51
50.9315716028719123
  0
ARC
  5
A632
  8
0
 10
3884.8964650399398124
 20
214.6077306963923945
 30
0.0
 40
0.3405869895104805
 50
50.9315716028719123
 51
92.2647691203041092
  0
ARC
  5
A633
  8
0
 10
3884.8944285517668504
 20
214.9629754174088134
 30
0.0
 40
0.3110309184592377
 50
267.895337609753426
 51
307.447880428683618
  0
ARC
  5
A634
  8
0
 10
3885.0201396528868827
 20
214.7923301436800898
 30
0.0
 40
0.0991960866075505
 50
309.7335759642049879
 51
357.2927410059079989
  0
ARC
  5
A635
  8
0
 10
3885.0087704774769009
 20
214.777832145293786
 30
0.0
 40
0.1108895662713707
 50
5.0767706153486261
 51
66.8804920750304035
  0
ARC
  5
A636
  8
0
 10
3884.8924940612100727
 20
214.6077095857147015
 30
0.0
 40
0.315568396642246
 50
59.5728471217120799
 51
91.7229598180928178
  0
ARC
  5
A637
  8
0
 10
3885.0643869256618927
 20
215.0543599424975127
 30
0.0
 40
0.2266904358740153
 50
9.4424099000059734
 51
56.4746975264972875
  0
ARC
  5
A638
  8
0
 10
3884.8851938810380489
 20
214.7081889681062137
 30
0.0
 40
0.6156635993978088
 50
60.3686005660499987
 51
90.2036184638006659
  0
ARC
  5
A639
  8
0
 10
3884.8830059325800903
 20
215.808699471970499
 30
0.0
 40
0.4049999999500012
 50
359.9999999929261207
 51
180.0000000070739077
  0
ARC
  5
A63A
  8
0
 10
3884.1080059326300216
 20
217.7086994719205109
 30
0.0
 40
0.060000000000014
 50
303.4872822177947
 51
0.0
  0
ARC
  5
A63B
  8
0
 10
3885.658005932530159
 20
217.7086994719205109
 30
0.0
 40
0.060000000000014
 50
180.0
 51
236.5127177822053
  0
LINE
  5
A63D
  8
0
 10
3884.6202476671451223
 20
214.8053838535857949
 30
0.0
 11
3884.6204248616550103
 21
214.8485266150935047
 31
0.0
  0
ARC
  5
A63E
  8
0
 10
3884.7268485291501747
 20
214.8384780314885063
 30
0.0
 40
0.1068970113506239
 50
146.5817139785984864
 51
174.606091108215395
  0
ARC
  5
A63F
  8
0
 10
3884.7057584275448789
 20
214.8548240234663069
 30
0.0
 40
0.0993434924725581
 50
173.4028168015184974
 51
210.5254468494869116
  0
LINE
  5
A640
  8
0
 10
3885.5980059325797811
 20
217.7086994719205109
 30
0.0
 11
3885.5980059325797811
 21
217.7841634185361102
 31
0.0
  0
LINE
  5
A641
  8
0
 10
3884.1680059325808543
 20
217.7086994719205109
 30
0.0
 11
3884.1680059325808543
 21
217.7841634185361102
 31
0.0
  0
CIRCLE
  5
A642
  8
0
 10
3884.8830059325800903
 20
219.8291640389205099
 30
0.0
 40
0.2200000000000002
  0
CIRCLE
  5
A643
  8
0
 10
3884.8830059325800903
 20
219.8291640389205099
 30
0.0
 40
0.1788854382
  0
LINE
  5
A644
  8
0
 10
3884.6630059325798356
 20
219.1866532032271095
 30
0.0
 11
3884.6630059325798356
 21
219.8291640389205099
 31
0.0
  0
LINE
  5
A645
  8
0
 10
3885.1030059325798902
 20
219.1867499685291136
 30
0.0
 11
3885.1030059325798902
 21
219.8291640389205099
 31
0.0
  0
LINE
  5
A646
  8
0
 10
3886.0029220800220173
 20
212.3436994719168069
 30
0.0
 11
3886.0029220800220173
 21
212.2336994719229892
 31
0.0
  0
LINE
  5
A647
  8
0
 10
3883.763089785136799
 20
212.3436994719168069
 30
0.0
 11
3883.763089785136799
 21
212.2336994719229892
 31
0.0
  0
LINE
  5
A6CF
  8
0
 10
3885.1457641980141489
 20
214.8053838535950888
 30
0.0
 11
3885.1455870035051703
 21
214.8485266150929078
 31
0.0
  0
ARC
  5
A6D0
  8
0
 10
3885.0391633360100059
 20
214.8384780314881084
 30
0.0
 40
0.1068970113506239
 50
5.393908891642182
 51
33.4182860216659918
  0
ARC
  5
A6D1
  8
0
 10
3885.0602534376162112
 20
214.8548240234657953
 30
0.0
 40
0.0993434924725581
 50
329.4745531502251765
 51
6.5971831983871212
  0
ENDSEC
  0
EOF
