  0
SECTION
  2
HEADER
  9
$ACADVER
  1
AC1009
  9
$INSBASE
 10
3915.6226958124298108
 20
212.9314398349060866
 30
0.0
  9
$EXTMIN
 10
3909.6499902380019194
 20
212.9167250429553917
 30
-0.0015258207003583
  9
$EXTMAX
 10
3917.3997759944609243
 20
220.8873067147420954
 30
0.0000000349246037
  9
$LIMMIN
 10
0.0
 20
0.0
  9
$LIMMAX
 10
11.6929133858000007
 20
8.2677165353999982
  9
$ORTHOMODE
 70
     0
  9
$REGENMODE
 70
     1
  9
$FILLMODE
 70
     1
  9
$QTEXTMODE
 70
     0
  9
$MIRRTEXT
 70
     0
  9
$DRAGMODE
 70
     2
  9
$LTSCALE
 40
0.6431102362
  9
$OSMODE
 70
  4095
  9
$ATTMODE
 70
     1
  9
$TEXTSIZE
 40
0.2
  9
$TRACEWID
 40
0.05
  9
$TEXTSTYLE
  7
STANDARD
  9
$CLAYER
  8
0
  9
$CELTYPE
  6
BYLAYER
  9
$CECOLOR
 62
   256
  9
$DIMSCALE
 40
1.0
  9
$DIMASZ
 40
0.1875
  9
$DIMEXO
 40
0.0625
  9
$DIMDLI
 40
0.4443307087
  9
$DIMRND
 40
0.0
  9
$DIMDLE
 40
0.0
  9
$DIMEXE
 40
0.125
  9
$DIMTP
 40
0.01
  9
$DIMTM
 40
0.01
  9
$DIMTXT
 40
2.0
  9
$DIMCEN
 40
0.1052362205
  9
$DIMTSZ
 40
0.0
  9
$DIMTOL
 70
     1
  9
$DIMLIM
 70
     0
  9
$DIMTIH
 70
     1
  9
$DIMTOH
 70
     1
  9
$DIMSE1
 70
     0
  9
$DIMSE2
 70
     0
  9
$DIMTAD
 70
     0
  9
$DIMZIN
 70
     0
  9
$DIMBLK
  1

  9
$DIMASO
 70
     1
  9
$DIMSHO
 70
     1
  9
$DIMPOST
  1
\X
  9
$DIMAPOST
  1

  9
$DIMALT
 70
     1
  9
$DIMALTD
 70
     2
  9
$DIMALTF
 40
25.3999999999999986
  9
$DIMLFAC
 40
1.0
  9
$DIMTOFL
 70
     0
  9
$DIMTVP
 40
0.0
  9
$DIMTIX
 70
     0
  9
$DIMSOXD
 70
     0
  9
$DIMSAH
 70
     0
  9
$DIMBLK1
  1

  9
$DIMBLK2
  1

  9
$DIMSTYLE
  2
STANDARD
  9
$DIMCLRD
 70
     0
  9
$DIMCLRE
 70
     0
  9
$DIMCLRT
 70
     0
  9
$DIMTFAC
 40
1.0
  9
$DIMGAP
 40
0.09
  9
$LUNITS
 70
     2
  9
$LUPREC
 70
     4
  9
$SKETCHINC
 40
0.1
  9
$FILLETRAD
 40
0.0
  9
$AUNITS
 70
     0
  9
$AUPREC
 70
     0
  9
$MENU
  1
.
  9
$ELEVATION
 40
0.0
  9
$PELEVATION
 40
0.0
  9
$THICKNESS
 40
0.0
  9
$LIMCHECK
 70
     0
  9
$BLIPMODE
 70
     0
  9
$CHAMFERA
 40
0.0
  9
$CHAMFERB
 40
0.0
  9
$SKPOLY
 70
     0
  9
$TDCREATE
 40
2458060.468368056230247
  9
$TDUPDATE
 40
2459863.6601041671819985
  9
$TDINDWG
 40
0.6798913194
  9
$TDUSRTIMER
 40
0.6798913194
  9
$USRTIMER
 70
     1
  9
$ANGBASE
 50
0.0
  9
$ANGDIR
 70
     0
  9
$PDMODE
 70
     0
  9
$PDSIZE
 40
0.3125
  9
$PLINEWID
 40
0.0
  9
$COORDS
 70
     1
  9
$SPLFRAME
 70
     0
  9
$SPLINETYPE
 70
     6
  9
$SPLINESEGS
 70
     8
  9
$ATTDIA
 70
     1
  9
$ATTREQ
 70
     1
  9
$HANDLING
 70
     1
  9
$HANDSEED
  5
B56A
  9
$SURFTAB1
 70
     6
  9
$SURFTAB2
 70
     6
  9
$SURFTYPE
 70
     6
  9
$SURFU
 70
     6
  9
$SURFV
 70
     6
  9
$UCSNAME
  2

  9
$UCSORG
 10
0.0
 20
0.0
 30
0.0
  9
$UCSXDIR
 10
1.0
 20
0.0
 30
0.0
  9
$UCSYDIR
 10
0.0
 20
1.0
 30
0.0
  9
$PUCSNAME
  2

  9
$PUCSORG
 10
0.0
 20
0.0
 30
0.0
  9
$PUCSXDIR
 10
1.0
 20
0.0
 30
0.0
  9
$PUCSYDIR
 10
0.0
 20
1.0
 30
0.0
  9
$USERI1
 70
     0
  9
$USERI2
 70
     0
  9
$USERI3
 70
     0
  9
$USERI4
 70
     0
  9
$USERI5
 70
     0
  9
$USERR1
 40
0.0
  9
$USERR2
 40
0.0
  9
$USERR3
 40
0.0
  9
$USERR4
 40
0.0
  9
$USERR5
 40
0.0
  9
$WORLDVIEW
 70
     1
  9
$SHADEDGE
 70
     3
  9
$SHADEDIF
 70
    70
  9
$TILEMODE
 70
     1
  9
$MAXACTVP
 70
    64
  9
$PLIMCHECK
 70
     0
  9
$PEXTMIN
 10
1.0000000000000000E+20
 20
1.0000000000000000E+20
 30
1.0000000000000000E+20
  9
$PEXTMAX
 10
-1.0000000000000000E+20
 20
-1.0000000000000000E+20
 30
-1.0000000000000000E+20
  9
$PLIMMIN
 10
0.0
 20
0.0
  9
$PLIMMAX
 10
12.0
 20
9.0
  9
$UNITMODE
 70
     0
  9
$VISRETAIN
 70
     1
  9
$PLINEGEN
 70
     0
  9
$PSLTSCALE
 70
     1
  0
ENDSEC
  0
SECTION
  2
TABLES
  0
TABLE
  2
VPORT
 70
     1
  0
VPORT
  2
*ACTIVE
 70
     0
 10
0.0
 20
0.0
 11
1.0
 21
1.0
 12
19.0383108506066492
 22
-2.7786086747132108
 13
0.0
 23
0.0
 14
1.0
 24
1.0
 15
0.0
 25
0.0
 16
0.0
 26
0.0
 36
58.1411105575488989
 17
3894.4865722656259095
 27
219.6806245535618984
 37
0.0
 40
8.03277086558478
 41
2.1471354166666661
 42
50.0
 43
0.0
 44
0.0
 50
0.0
 51
0.0
 71
     0
 72
   100
 73
     1
 74
     1
 75
     0
 76
     0
 77
     0
 78
     0
  0
ENDTAB
  0
TABLE
  2
LTYPE
 70
     2
  0
LTYPE
  2
CONTINUOUS
 70
     0
  3
Solid line
 72
    65
 73
     0
 40
0.0
  0
LTYPE
  2
PHANTOM2
 70
     0
  3
___ _ _ ___ _ _ ___ _ _ ___ _ _
 72
    65
 73
     6
 40
1.25
 49
0.625
 49
-0.125
 49
0.125
 49
-0.125
 49
0.125
 49
-0.125
  0
ENDTAB
  0
TABLE
  2
LAYER
 70
     2
  0
LAYER
  2
0
 70
     0
 62
   255
  6
CONTINUOUS
  0
LAYER
  2
DEFPOINTS
 70
     0
 62
     7
  6
CONTINUOUS
  0
ENDTAB
  0
TABLE
  2
STYLE
 70
     1
  0
STYLE
  2
STANDARD
 70
     0
 40
0.0
 41
0.8
 50
0.0
 71
     0
 42
0.2
  3
txt
  4

  0
ENDTAB
  0
TABLE
  2
VIEW
 70
     0
  0
ENDTAB
  0
TABLE
  2
UCS
 70
     0
  0
ENDTAB
  0
TABLE
  2
APPID
 70
    10
  0
APPID
  2
ACAD
 70
     0
  0
APPID
  2
ACAD_MLEADERVER
 70
     0
  0
APPID
  2
ACAD_EXEMPT_FROM_CAD_STANDARDS
 70
     0
  0
APPID
  2
ACAD_NAV_VCDISPLAY
 70
     0
  0
APPID
  2
ACAECLAYERSTANDARD
 70
     0
  0
APPID
  2
ACCMTRANSPARENCY
 70
     0
  0
APPID
  2
ACAD_DSTYLE_DIMJAG
 70
     0
  0
APPID
  2
ACAD_DSTYLE_DIMTALN
 70
     0
  0
APPID
  2
ACDBATTR
 70
     0
  0
APPID
  2
ACADANNOTATIVE
 70
     0
  0
ENDTAB
  0
TABLE
  2
DIMSTYLE
 70
     2
  0
DIMSTYLE
  2
STANDARD
 70
     0
  3

  4

  5

  6

  7

 40
1.0
 41
0.1875
 42
0.0625
 43
0.38
 44
0.125
 45
0.0
 46
0.0
 47
0.01
 48
0.01
140
0.15625
141
0.09
142
0.0
143
25.3999999999999986
144
1.0
145
0.0
146
1.0
147
0.09
 71
     1
 72
     0
 73
     1
 74
     1
 75
     0
 76
     0
 77
     0
 78
     4
170
     0
171
     2
172
     0
173
     0
174
     0
175
     0
176
     0
177
     0
178
     0
  0
ENDTAB
  0
ENDSEC
  0
SECTION
  2
BLOCKS
  0
BLOCK
  8
0
  2
$MODEL_SPACE
 70
     0
 10
0.0
 20
0.0
 30
0.0
  3
$MODEL_SPACE
  1

  0
ENDBLK
  5
21
  8
0
  0
BLOCK
 67
     1
  8
0
  2
$PAPER_SPACE
 70
     0
 10
0.0
 20
0.0
 30
0.0
  3
$PAPER_SPACE
  1

  0
ENDBLK
  5
1D
 67
     1
  8
0
  0
ENDSEC
  0
SECTION
  2
ENTITIES
  0
ATTDEF
  5
3930
  8
DEFPOINTS
 10
3915.6193285313920569
 20
212.9291414840172081
 30
0.0
 40
0.001
  1
K-14402M-4A
  3

  2
MODELNUMBER
 70
     0
1001
ACDBATTR
1070
     0
1070
     1
  0
ATTDEF
  5
3931
  8
DEFPOINTS
 10
3915.6193285313920569
 20
212.9274748173505998
 30
0.0
 40
0.001
  1
PURIST
  3

  2
TRADENAME
 70
     0
1001
ACDBATTR
1070
     0
1070
     1
  0
ATTDEF
  5
3932
  8
DEFPOINTS
 10
3915.6193285313920569
 20
212.9258081506839062
 30
0.0
 40
0.001
  1
BATHROOM SINK FAUCET
  3

  2
PRODUCT
 70
     0
1001
ACDBATTR
1070
     0
1070
     1
  0
LINE
  5
B495
  8
0
 10
3911.5453267021798638
 20
216.9414398349061059
 30
0.0
 11
3914.712695812479069
 21
216.9414398349061059
 31
0.0
  0
LINE
  5
B496
  8
0
 10
3914.5326958124810517
 20
212.9314398349060866
 30
0.0
 11
3916.7126958123799341
 21
212.9314398349060866
 31
0.0
  0
LINE
  5
B497
  8
0
 10
3914.712695812479069
 20
213.2814398349061094
 30
0.0
 11
3914.712695812479069
 21
216.1314398349061037
 31
0.0
  0
LINE
  5
B498
  8
0
 10
3914.712695812479069
 20
216.9414398349061059
 30
0.0
 11
3914.712695812479069
 21
218.3864398349060991
 31
0.0
  0
LINE
  5
B499
  8
0
 10
3914.5026958124799421
 20
212.9614398349065993
 30
0.0
 11
3914.5026958124799421
 21
213.0714398349061014
 31
0.0
  0
LINE
  5
B49A
  8
0
 10
3914.5326958124801422
 20
213.1014398349061025
 30
0.0
 11
3916.7126958123799341
 21
213.1014398349061025
 31
0.0
  0
ARC
  5
B49B
  8
0
 10
3914.5326958124801422
 20
212.9614398349060878
 30
0.0
 40
0.0300000000000011
 50
180.0000000000015916
 51
270.0000000021365167
  0
ARC
  5
B49C
  8
0
 10
3914.5326958124801422
 20
213.0714398349061014
 30
0.0
 40
0.0300000000000003
 50
90.0
 51
180.0
  0
ARC
  5
B49D
  8
0
 10
3914.5326958124801422
 20
213.2814398349061094
 30
0.0
 40
0.1799999999999997
 50
270.0
 51
0.0
  0
LINE
  5
B49E
  8
0
 10
3914.712695812479069
 20
218.3864398349060991
 30
0.0
 11
3916.5326958123800978
 21
218.3864398349060991
 31
0.0
  0
LINE
  5
B49F
  8
0
 10
3914.7441763581791747
 20
218.4076601630061134
 30
0.0
 11
3915.5982536185101708
 21
218.4076601630061134
 31
0.0
  0
ARC
  5
B4A0
  8
0
 10
3914.7442272833350216
 20
218.4374123142185908
 30
0.0
 40
0.0297521947953323
 50
177.5560240044181057
 51
269.9019299954480857
  0
LINE
  5
B4A1
  8
0
 10
3914.7145021512801577
 20
218.4386810220061079
 30
0.0
 11
3914.740464967258049
 21
219.1837759344830943
 31
0.0
  0
LINE
  5
B4A2
  8
0
 10
3914.7704411295308091
 20
219.2127289264905983
 30
0.0
 11
3916.4749504953288124
 21
219.2127289264905983
 31
0.0
  0
LINE
  5
B4A3
  8
0
 10
3915.4224865739611232
 20
219.7876617608065999
 30
0.0
 11
3915.8237450726801399
 21
219.7876617608065999
 31
0.0
  0
ARC
  5
B4A4
  8
0
 10
3914.7704468018710031
 20
219.1827288125066957
 30
0.0
 40
0.0300001145201206
 50
90.0108333305278165
 51
177.9997456844575936
  0
LINE
  5
B4A5
  8
0
 10
3915.4030198610798834
 20
219.7680093557061127
 30
0.0
 11
3915.3990907978850373
 21
219.5429231914476134
 31
0.0
  0
ARC
  5
B4A6
  8
0
 10
3915.0491441091799061
 20
219.5490317972061121
 30
0.0
 40
0.3500000000000004
 50
286.0821825944321972
 51
358.9999568569991766
  0
ARC
  5
B4A7
  8
0
 10
3915.4224795069781067
 20
219.768201170846794
 30
0.0
 40
0.0194605912429415
 50
89.9791934199164984
 51
180.5647503631012114
  0
ARC
  5
B4A8
  8
0
 10
3915.4233951915471152
 20
219.8076735207476133
 30
0.0
 40
0.0200323768398152
 50
180.2563393515694941
 51
267.4003174815886155
  0
LINE
  5
B4A9
  8
0
 10
3916.5326958123800978
 20
213.2814398349061094
 30
0.0
 11
3916.5326958123800978
 21
214.181439835354098
 31
0.0
  0
LINE
  5
B4AA
  8
0
 10
3917.1126958124800694
 20
214.6479713310060902
 30
0.0
 11
3917.1126958124800694
 21
215.0229713310060902
 31
0.0
  0
LINE
  5
B4AB
  8
0
 10
3916.5326958123800978
 20
216.3064398344583026
 30
0.0
 11
3916.5326958123800978
 21
218.3864398349060991
 31
0.0
  0
LINE
  5
B4AC
  8
0
 10
3916.7426958123801342
 20
212.9614398349065993
 30
0.0
 11
3916.7426958123801342
 21
213.0714398349061014
 31
0.0
  0
ARC
  5
B4AD
  8
0
 10
3916.7126958123799341
 20
212.9614398349060878
 30
0.0
 40
0.0300000000000011
 50
269.9999999978634833
 51
359.9999999999984084
  0
ARC
  5
B4AE
  8
0
 10
3916.7126958123799341
 20
213.0714398349061014
 30
0.0
 40
0.0300000000000003
 50
0.0
 51
90.0
  0
ARC
  5
B4AF
  8
0
 10
3916.7126958123799341
 20
213.2814398349061094
 30
0.0
 40
0.1799999999999997
 50
180.0
 51
270.0
  0
LINE
  5
B4B0
  8
0
 10
3916.5221616625790375
 20
218.7280854315060878
 30
0.0
 11
3916.5193831966630569
 21
218.8077072462893113
 31
0.0
  0
LINE
  5
B4B1
  8
0
 10
3916.5068227718797971
 20
219.1676594025061036
 30
0.0
 11
3916.5062600326668871
 21
219.1837745310060939
 31
0.0
  0
ARC
  5
B4B2
  8
0
 10
3916.4762282369729292
 20
219.1827052786532022
 30
0.0
 40
0.0300508245007171
 50
2.0390981774972761
 51
92.436914188637644
  0
LINE
  5
B4B3
  8
0
 10
3915.8437060672208645
 20
219.7680090313976109
 30
0.0
 11
3915.8463008269750389
 21
219.5429231914476134
 31
0.0
  0
ARC
  5
B4B4
  8
0
 10
3916.1962475156801702
 20
219.5490317972061121
 30
0.0
 40
0.3500000000000004
 50
181.000043143000795
 51
253.9178174055678028
  0
ARC
  5
B4B5
  8
0
 10
3915.8237058873551177
 20
219.7676585486306919
 30
0.0
 40
0.0200032505568736
 50
1.0039473780802071
 51
89.8877604826782033
  0
ARC
  5
B4B6
  8
0
 10
3915.8233598868428089
 20
219.8076612572324962
 30
0.0
 40
0.0200032053786066
 50
271.1033675104970939
 51
359.9962773465783243
  0
LINE
  5
B4B7
  8
0
 10
3911.5453267021798638
 20
216.1314398349061037
 30
0.0
 11
3914.712695812479069
 21
216.1314398349061037
 31
0.0
  0
ARC
  5
B4B8
  8
0
 10
3917.438371217735039
 20
214.3865416726924025
 30
0.0
 40
0.9286090154359893
 50
180.1296848614150008
 51
192.760135165020813
  0
LINE
  5
B4B9
  8
0
 10
3916.5097645809792084
 20
214.3844398350061056
 30
0.0
 11
3916.5097645809792084
 21
216.1034354297987932
 31
0.0
  0
ARC
  5
B4BA
  8
0
 10
3917.437531916953958
 20
216.1014328494856898
 30
0.0
 40
0.927769497250245
 50
167.2341297544564043
 51
179.8763275905141938
  0
LINE
  5
B4BB
  8
0
 10
3917.1126958124800694
 20
214.6479713310060902
 30
0.0
 11
3916.5097645809792084
 21
214.6479713310060902
 31
0.0
  0
LINE
  5
B4BC
  8
0
 10
3917.1126958124800694
 20
215.0229713310060902
 30
0.0
 11
3916.5097645809792084
 21
215.0229713310060902
 31
0.0
  0
ARC
  5
B4BD
  8
0
 10
3913.9165526729930207
 20
216.5364398349061048
 30
0.0
 40
0.8932350746317435
 50
333.0374460237559902
 51
26.9625539762424893
  0
ARC
  5
B4BE
  8
0
 10
3911.545326702184866
 20
215.2004398348807115
 30
0.0
 40
0.93100000002533
 50
90.0000000003908269
 51
144.999999994893102
  0
LINE
  5
B4BF
  8
0
 10
3910.7826961489799942
 20
215.7344394972060968
 30
0.0
 11
3910.6790465719741405
 21
215.5872762863463095
 31
0.0
  0
LINE
  5
B4C0
  8
0
 10
3910.6761490154581224
 20
215.5831622925126965
 30
0.0
 11
3910.4688682630799121
 21
215.2888619977061069
 31
0.0
  0
ARC
  5
B4C1
  8
0
 10
3910.4596571502779625
 20
215.2965563808614888
 30
0.0
 40
0.0120020052993173
 50
274.8732553382753849
 51
320.1267445058034014
  0
ARC
  5
B4C2
  8
0
 10
3910.4614377849738958
 20
215.2970114798897043
 30
0.0
 40
0.0124370243460217
 50
238.5082161521532953
 51
266.4917838478821182
  0
LINE
  5
B4C3
  8
0
 10
3910.4549409783157898
 20
215.2864062416632009
 30
0.0
 11
3909.8102823779800019
 21
215.7378010531060966
 31
0.0
  0
ARC
  5
B4C4
  8
0
 10
3909.816004110366066
 20
215.7460024116240049
 30
0.0
 40
0.0100000251519011
 50
145.0000597644674087
 51
235.0981887872887057
  0
LINE
  5
B4C5
  8
0
 10
3909.8078125633369382
 20
215.7517381818695981
 30
0.0
 11
3910.013397677742887
 21
216.0470708427266118
 31
0.0
  0
LINE
  5
B4C6
  8
0
 10
3910.0163450530199043
 20
216.0513048855746945
 30
0.0
 11
3910.1191829930799031
 21
216.1990364106061122
 31
0.0
  0
ARC
  5
B4C7
  8
0
 10
3911.5453267021821375
 20
215.200439834899413
 30
0.0
 40
1.7410000000067121
 50
90.0000000000521254
 51
144.9999999993819984
  0
ARC
  5
B4C8
  8
0
 10
3910.0179710145480385
 20
216.0410898199014014
 30
0.0
 40
0.0075291462716624
 50
64.0664634069335506
 51
127.4030200716612029
  0
ARC
  5
B4C9
  8
0
 10
3910.6681610411737893
 20
215.5850754973288019
 30
0.0
 40
0.0082138958985369
 50
346.5307809935490013
 51
43.4116500378200811
  0
LINE
  5
B4CA
  8
0
 10
3910.0163450530199043
 20
216.0513048855746945
 30
0.0
 11
3910.6790465719741405
 21
215.5872762863463095
 31
0.0
  0
ARC
  5
B4CB
  8
0
 10
3914.8476958124788325
 20
218.4364398349061105
 30
0.0
 40
0.0599999999999955
 50
303.5573097617873941
 51
331.336721022047584
  0
ARC
  5
B4CC
  8
0
 10
3916.3976958124799239
 20
218.4364398349061105
 30
0.0
 40
0.0600000000000046
 50
180.0
 51
236.4426902382124922
  0
LINE
  5
B4CD
  8
0
 10
3916.3376958124799785
 20
218.4364398349061105
 30
0.0
 11
3916.3376958124799785
 21
218.6964102417061042
 31
0.0
  0
LINE
  5
B4CE
  8
0
 10
3916.3376958124799785
 20
218.6964102417061042
 30
0.0
 11
3916.3364233749798586
 21
218.6976591723060892
 31
0.0
  0
LINE
  5
B4CF
  8
0
 10
3916.3376958124799785
 20
218.6964102417061042
 30
0.0
 11
3916.2829526120899573
 21
218.6964102417061042
 31
0.0
  0
ARC
  5
B4D0
  8
0
 10
3915.5978552322881114
 20
218.5276595168542997
 30
0.0
 40
0.1200000151481857
 50
270.1902157350506855
 51
293.9999496487715192
  0
LINE
  5
B4D1
  8
0
 10
3915.6466635392798707
 20
218.4180340052060956
 30
0.0
 11
3916.2514112907028903
 21
218.6872844147181922
 31
0.0
  0
ARC
  5
B4D2
  8
0
 10
3916.300220755943883
 20
218.5776563015932936
 30
0.0
 40
0.1200028628178535
 50
90.0005221472795114
 51
113.9999496487715049
  0
LINE
  5
B4D3
  8
0
 10
3916.3002196623351665
 20
218.6976591644061898
 30
0.0
 11
3916.4927799064721512
 21
218.6976609192441003
 31
0.0
  0
ARC
  5
B4D4
  8
0
 10
3916.4927796385450165
 20
218.727060803575398
 30
0.0
 40
0.0293998843324759
 50
270.0005221472795256
 51
1.9972441483352921
  0
ARC
  5
B4D5
  8
0
 10
3914.7331392793971645
 20
219.030023781240601
 30
0.0
 40
0.0532067300219904
 50
357.1464848607632803
 51
38.5068743613785216
  0
ARC
  5
B4D6
  8
0
 10
3914.7286509251980533
 20
219.0294428900135983
 30
0.0
 40
0.0576662003817878
 50
319.7204197160791068
 51
357.9449617947100819
  0
ARC
  5
B4D7
  8
0
 10
3914.8142351931342091
 20
219.0227149076270905
 30
0.0
 40
0.0516077154339092
 50
174.2219498364891024
 51
216.3024830376012062
  0
ARC
  5
B4D8
  8
0
 10
3914.8333852015171033
 20
219.0237586194799917
 30
0.0
 40
0.0706176824345284
 50
146.0946638344798885
 51
176.6294026116150917
  0
ARC
  5
B4D9
  8
0
 10
3916.5013421422800093
 20
218.8376594071060879
 30
0.0
 40
0.0200000000000281
 50
315.6986915840444112
 51
347.8033045480615897
  0
ARC
  5
B4DA
  8
0
 10
3915.8073682048238879
 20
218.9876599877310923
 30
0.0
 40
0.7300000000391184
 50
347.8033045480615897
 51
12.1965993124234497
  0
ARC
  5
B4DB
  8
0
 10
3916.5013423891118691
 20
219.1376594028508009
 30
0.0
 40
0.0200000049731873
 50
12.1965993124266294
 51
79.1055387826386323
  0
ARC
  5
B4DC
  8
0
 10
3917.3855231982411169
 20
219.0181261715582082
 30
0.0
 40
0.8913330614566591
 50
170.342185384568694
 51
193.6548316317046954
  0
ARC
  5
B4DD
  8
0
 10
3913.3133892575460777
 20
220.9704181973962136
 30
0.0
 40
0.2978146163344064
 50
197.5689812997518118
 51
268.8643545108590729
  0
LINE
  5
B4DE
  8
0
 10
3913.307486734116992
 20
220.6726620792061908
 30
0.0
 11
3914.9980310070459382
 21
220.6726606647845017
 31
0.0
  0
ARC
  5
B4DF
  8
0
 10
3914.9982022419299028
 20
219.8272723057023939
 30
0.0
 40
0.84538837642417
 50
358.6706635353478987
 51
90.0116053597655537
  0
LINE
  5
B4E0
  8
0
 10
3913.3074863659830953
 20
220.2326620792061931
 30
0.0
 11
3914.9980306389120415
 21
220.232660664784504
 31
0.0
  0
ARC
  5
B4E1
  8
0
 10
3913.3069057015532053
 20
220.9519064394490044
 30
0.0
 40
0.7192445946354037
 50
195.2381285974514924
 51
270.046256343258392
  0
ARC
  5
B4E2
  8
0
 10
3912.6225889215052121
 20
220.7655010342168964
 30
0.0
 40
0.0099939860525821
 50
104.4491729926504036
 51
195.2848438519698959
  0
LINE
  5
B4E3
  8
0
 10
3912.6200952114800202
 20
220.7751789042060864
 30
0.0
 11
3913.0294664349039522
 21
220.8805217209072111
 31
0.0
  0
ARC
  5
B4E4
  8
0
 10
3914.9980197748441242
 20
219.8268593754156086
 30
0.0
 40
0.4058012895143974
 50
357.2774377086755067
 51
89.9984660833989238
  0
ENDSEC
  0
EOF
