  0
SECTION
  2
HEADER
  9
$ACADVER
  1
AC1009
  9
$INSBASE
 10
4841.742231347165216
 20
497.1678220199677867
 30
0.0
  9
$EXTMIN
 10
4822.7787806715732586
 20
497.1283135326336833
 30
-0.0015258207003583
  9
$EXTMAX
 10
4843.695366147065215
 20
534.5768504198238134
 30
0.0000000349246037
  9
$LIMMIN
 10
0.0
 20
0.0
  9
$LIMMAX
 10
11.6929133858000007
 20
8.2677165353999982
  9
$ORTHOMODE
 70
     0
  9
$REGENMODE
 70
     1
  9
$FILLMODE
 70
     1
  9
$QTEXTMODE
 70
     0
  9
$MIRRTEXT
 70
     0
  9
$DRAGMODE
 70
     2
  9
$LTSCALE
 40
0.6431102362
  9
$OSMODE
 70
     7
  9
$ATTMODE
 70
     1
  9
$TEXTSIZE
 40
0.2
  9
$TRACEWID
 40
0.05
  9
$TEXTSTYLE
  7
STANDARD
  9
$CLAYER
  8
0
  9
$CELTYPE
  6
BYLAYER
  9
$CECOLOR
 62
   256
  9
$DIMSCALE
 40
1.0
  9
$DIMASZ
 40
0.1875
  9
$DIMEXO
 40
0.0625
  9
$DIMDLI
 40
0.4443307087
  9
$DIMRND
 40
0.0
  9
$DIMDLE
 40
0.0
  9
$DIMEXE
 40
0.125
  9
$DIMTP
 40
0.01
  9
$DIMTM
 40
0.01
  9
$DIMTXT
 40
2.0
  9
$DIMCEN
 40
0.1052362205
  9
$DIMTSZ
 40
0.0
  9
$DIMTOL
 70
     1
  9
$DIMLIM
 70
     0
  9
$DIMTIH
 70
     1
  9
$DIMTOH
 70
     1
  9
$DIMSE1
 70
     0
  9
$DIMSE2
 70
     0
  9
$DIMTAD
 70
     0
  9
$DIMZIN
 70
     0
  9
$DIMBLK
  1

  9
$DIMASO
 70
     1
  9
$DIMSHO
 70
     1
  9
$DIMPOST
  1
\X
  9
$DIMAPOST
  1

  9
$DIMALT
 70
     1
  9
$DIMALTD
 70
     2
  9
$DIMALTF
 40
25.3999999999999986
  9
$DIMLFAC
 40
1.0
  9
$DIMTOFL
 70
     0
  9
$DIMTVP
 40
0.0
  9
$DIMTIX
 70
     0
  9
$DIMSOXD
 70
     0
  9
$DIMSAH
 70
     0
  9
$DIMBLK1
  1

  9
$DIMBLK2
  1

  9
$DIMSTYLE
  2
STANDARD
  9
$DIMCLRD
 70
     0
  9
$DIMCLRE
 70
     0
  9
$DIMCLRT
 70
     0
  9
$DIMTFAC
 40
1.0
  9
$DIMGAP
 40
0.09
  9
$LUNITS
 70
     2
  9
$LUPREC
 70
     4
  9
$SKETCHINC
 40
0.1
  9
$FILLETRAD
 40
0.0
  9
$AUNITS
 70
     0
  9
$AUPREC
 70
     0
  9
$MENU
  1
.
  9
$ELEVATION
 40
0.0
  9
$PELEVATION
 40
0.0
  9
$THICKNESS
 40
0.0
  9
$LIMCHECK
 70
     0
  9
$BLIPMODE
 70
     0
  9
$CHAMFERA
 40
0.0
  9
$CHAMFERB
 40
0.0
  9
$SKPOLY
 70
     0
  9
$TDCREATE
 40
2458060.468368056230247
  9
$TDUPDATE
 40
2459365.0850462969392538
  9
$TDINDWG
 40
1.5373811806
  9
$TDUSRTIMER
 40
1.5373811806
  9
$USRTIMER
 70
     1
  9
$ANGBASE
 50
0.0
  9
$ANGDIR
 70
     0
  9
$PDMODE
 70
     0
  9
$PDSIZE
 40
0.3125
  9
$PLINEWID
 40
0.0
  9
$COORDS
 70
     1
  9
$SPLFRAME
 70
     0
  9
$SPLINETYPE
 70
     6
  9
$SPLINESEGS
 70
     8
  9
$ATTDIA
 70
     1
  9
$ATTREQ
 70
     1
  9
$HANDLING
 70
     1
  9
$HANDSEED
  5
1D0A3
  9
$SURFTAB1
 70
     6
  9
$SURFTAB2
 70
     6
  9
$SURFTYPE
 70
     6
  9
$SURFU
 70
     6
  9
$SURFV
 70
     6
  9
$UCSNAME
  2

  9
$UCSORG
 10
0.0
 20
0.0
 30
0.0
  9
$UCSXDIR
 10
1.0
 20
0.0
 30
0.0
  9
$UCSYDIR
 10
0.0
 20
1.0
 30
0.0
  9
$PUCSNAME
  2

  9
$PUCSORG
 10
0.0
 20
0.0
 30
0.0
  9
$PUCSXDIR
 10
1.0
 20
0.0
 30
0.0
  9
$PUCSYDIR
 10
0.0
 20
1.0
 30
0.0
  9
$USERI1
 70
     0
  9
$USERI2
 70
     0
  9
$USERI3
 70
     0
  9
$USERI4
 70
     0
  9
$USERI5
 70
     0
  9
$USERR1
 40
0.0
  9
$USERR2
 40
0.0
  9
$USERR3
 40
0.0
  9
$USERR4
 40
0.0
  9
$USERR5
 40
0.0
  9
$WORLDVIEW
 70
     1
  9
$SHADEDGE
 70
     3
  9
$SHADEDIF
 70
    70
  9
$TILEMODE
 70
     1
  9
$MAXACTVP
 70
    64
  9
$PLIMCHECK
 70
     0
  9
$PEXTMIN
 10
1.0000000000000000E+20
 20
1.0000000000000000E+20
 30
1.0000000000000000E+20
  9
$PEXTMAX
 10
-1.0000000000000000E+20
 20
-1.0000000000000000E+20
 30
-1.0000000000000000E+20
  9
$PLIMMIN
 10
0.0
 20
0.0
  9
$PLIMMAX
 10
12.0
 20
9.0
  9
$UNITMODE
 70
     0
  9
$VISRETAIN
 70
     1
  9
$PLINEGEN
 70
     0
  9
$PSLTSCALE
 70
     1
  0
ENDSEC
  0
SECTION
  2
TABLES
  0
TABLE
  2
VPORT
 70
     1
  0
VPORT
  2
*ACTIVE
 70
     0
 10
0.0
 20
0.0
 11
1.0
 21
1.0
 12
921.8717169640067368
 22
383.2729768736896858
 13
0.0
 23
0.0
 14
1.0
 24
1.0
 15
0.0
 25
0.0
 16
0.0
 26
0.0
 36
60.4960186965801583
 17
3911.3653564453120453
 27
132.5796051025390057
 37
0.0
 40
37.7362337134682093
 41
2.3461538461538458
 42
50.0
 43
0.0
 44
0.0
 50
0.0
 51
0.0
 71
     0
 72
   100
 73
     1
 74
     1
 75
     0
 76
     0
 77
     0
 78
     0
  0
ENDTAB
  0
TABLE
  2
LTYPE
 70
     2
  0
LTYPE
  2
CONTINUOUS
 70
     0
  3
Solid line
 72
    65
 73
     0
 40
0.0
  0
LTYPE
  2
PHANTOM2
 70
     0
  3
___ _ _ ___ _ _ ___ _ _ ___ _ _
 72
    65
 73
     6
 40
1.25
 49
0.625
 49
-0.125
 49
0.125
 49
-0.125
 49
0.125
 49
-0.125
  0
ENDTAB
  0
TABLE
  2
LAYER
 70
     2
  0
LAYER
  2
0
 70
     0
 62
   255
  6
CONTINUOUS
  0
LAYER
  2
DEFPOINTS
 70
     0
 62
     7
  6
CONTINUOUS
  0
ENDTAB
  0
TABLE
  2
STYLE
 70
     1
  0
STYLE
  2
STANDARD
 70
     0
 40
0.0
 41
0.8
 50
0.0
 71
     0
 42
0.2
  3
txt
  4

  0
ENDTAB
  0
TABLE
  2
VIEW
 70
     0
  0
ENDTAB
  0
TABLE
  2
UCS
 70
     0
  0
ENDTAB
  0
TABLE
  2
APPID
 70
    11
  0
APPID
  2
ACAD
 70
     0
  0
APPID
  2
ACAD_MLEADERVER
 70
     0
  0
APPID
  2
ACAD_EXEMPT_FROM_CAD_STANDARDS
 70
     0
  0
APPID
  2
ACAD_NAV_VCDISPLAY
 70
     0
  0
APPID
  2
ACAECLAYERSTANDARD
 70
     0
  0
APPID
  2
ACCMTRANSPARENCY
 70
     0
  0
APPID
  2
ACAD_DSTYLE_DIMJAG
 70
     0
  0
APPID
  2
ACAD_DSTYLE_DIMTALN
 70
     0
  0
APPID
  2
ACDBATTR
 70
     0
  0
APPID
  2
ACADANNOTATIVE
 70
     0
  0
APPID
  2
DCO15
 70
     0
  0
ENDTAB
  0
TABLE
  2
DIMSTYLE
 70
     1
  0
DIMSTYLE
  2
STANDARD
 70
     0
  3

  4

  5

  6

  7

 40
1.0
 41
0.1875
 42
0.0625
 43
0.38
 44
0.125
 45
0.0
 46
0.0
 47
0.01
 48
0.01
140
0.15625
141
0.09
142
0.0
143
25.3999999999999986
144
1.0
145
0.0
146
1.0
147
0.09
 71
     1
 72
     0
 73
     1
 74
     1
 75
     0
 76
     0
 77
     0
 78
     4
170
     0
171
     2
172
     0
173
     0
174
     0
175
     0
176
     0
177
     0
178
     0
  0
ENDTAB
  0
ENDSEC
  0
SECTION
  2
BLOCKS
  0
BLOCK
  8
0
  2
$MODEL_SPACE
 70
     0
 10
0.0
 20
0.0
 30
0.0
  3
$MODEL_SPACE
  1

  0
ENDBLK
  5
21
  8
0
  0
BLOCK
 67
     1
  8
0
  2
$PAPER_SPACE
 70
     0
 10
0.0
 20
0.0
 30
0.0
  3
$PAPER_SPACE
  1

  0
ENDBLK
  5
1D
 67
     1
  8
0
  0
ENDSEC
  0
SECTION
  2
ENTITIES
  0
ATTDEF
  5
159BF
  8
DEFPOINTS
 10
4841.7422318570352218
 20
497.171156263325372
 30
0.0
 40
0.001
  1
K-14403T-3
  3

  2
MODELNUMBER
 70
     0
1001
ACDBATTR
1070
     0
1070
     1
  0
ATTDEF
  5
159C0
  8
DEFPOINTS
 10
4841.7422318570352218
 20
497.1694894229461852
 30
0.0
 40
0.001
  1
LAMINAR
  3

  2
TRADENAME
 70
     0
1001
ACDBATTR
1070
     0
1070
     1
  0
ATTDEF
  5
159C1
  8
DEFPOINTS
 10
4841.7422318570352218
 20
497.1678229299920986
 30
0.0
 40
0.001
  1
BATHROOM SINK FAUCET
  3

  2
PRODUCT
 70
     0
1001
ACDBATTR
1070
     0
1070
     1
  0
LINE
  5
1CF02
  8
0
 10
4840.0522313471637972
 20
497.1678220199677867
 30
0.0
 11
4843.4322313471639063
 21
497.1678220199677867
 31
0.0
  0
LINE
  5
1CF03
  8
0
 10
4843.4022363832209521
 20
497.9178220199679004
 30
0.0
 11
4840.082231347164452
 21
497.9178220199679004
 31
0.0
  0
LINE
  5
1CF04
  8
0
 10
4823.0857352841640022
 20
524.8953810750679168
 30
0.0
 11
4823.0857352841640022
 21
524.4662472168679415
 31
0.0
  0
LINE
  5
1CF05
  8
0
 10
4823.0907352841641114
 20
524.4662472168679415
 30
0.0
 11
4823.0907352841641114
 21
523.9062472168677687
 31
0.0
  0
LINE
  5
1CF06
  8
0
 10
4824.3357352841640022
 20
524.4662472168679415
 30
0.0
 11
4823.0857352841640022
 21
524.4662472168679415
 31
0.0
  0
LINE
  5
1CF07
  8
0
 10
4842.3672313471643065
 20
524.8953810750679168
 30
0.0
 11
4842.3672313471643065
 21
522.5898220199677553
 31
0.0
  0
LINE
  5
1CF08
  8
0
 10
4842.3672313471643065
 20
522.0698220199677735
 30
0.0
 11
4842.3672313471643065
 21
520.9298220199679008
 31
0.0
  0
LINE
  5
1CF09
  8
0
 10
4842.3672313471643065
 20
517.8678220199677753
 30
0.0
 11
4842.3672313471643065
 21
497.9178220199679004
 31
0.0
  0
LINE
  5
1CF0A
  8
0
 10
4841.117231347165216
 20
524.8928810750677485
 30
0.0
 11
4841.117231347165216
 21
522.5898220199677553
 31
0.0
  0
LINE
  5
1CF0B
  8
0
 10
4841.117231347165216
 20
522.0698220199677735
 30
0.0
 11
4841.117231347165216
 21
520.9298220199679008
 31
0.0
  0
LINE
  5
1CF0C
  8
0
 10
4841.117231347165216
 20
517.8678220199677753
 30
0.0
 11
4841.117231347165216
 21
517.4067983979679184
 31
0.0
  0
LINE
  5
1CF0D
  8
0
 10
4841.117231347165216
 20
516.5288456420678358
 30
0.0
 11
4841.117231347165216
 21
497.9178220199679004
 31
0.0
  0
LINE
  5
1CF0E
  8
0
 10
4824.3357352841640022
 20
524.8953810750679168
 30
0.0
 11
4824.3357352841640022
 21
524.4662472168679415
 31
0.0
  0
LINE
  5
1CF0F
  8
0
 10
4824.3307352841638931
 20
524.4662472168679415
 30
0.0
 11
4824.3307352841638931
 21
523.9062472168677687
 31
0.0
  0
LINE
  5
1CF10
  8
0
 10
4824.3207344366637699
 20
523.8962472168678914
 30
0.0
 11
4823.1007361316642346
 21
523.8962472168678914
 31
0.0
  0
LINE
  5
1CF11
  8
0
 10
4824.3307352841638931
 20
523.9062472168677687
 30
0.0
 11
4823.0907352841641114
 21
523.9062472168677687
 31
0.0
  0
ARC
  5
1CF12
  8
0
 10
4832.7264833156641544
 20
524.8953810750679168
 30
0.0
 40
9.6407480315000011
 50
0.0
 51
180.0
  0
ARC
  5
1CF13
  8
0
 10
4832.7264835018677331
 20
524.8953809819732896
 30
0.0
 40
8.3907482177031447
 50
359.982929517934906
 51
179.9999993643075129
  0
LINE
  5
1CF14
  8
0
 10
4823.0907352841641114
 20
523.9062472168677687
 30
0.0
 11
4823.1007361316642346
 21
523.8962472168678914
 31
0.0
  0
LINE
  5
1CF15
  8
0
 10
4824.3307352841638931
 20
523.9062472168677687
 30
0.0
 11
4824.3207344366637699
 21
523.8962472168678914
 31
0.0
  0
LINE
  5
1CF16
  8
0
 10
4839.0622313469348228
 20
518.2128220199679163
 30
0.0
 11
4838.8422313471637608
 21
518.2128220199679163
 31
0.0
  0
LINE
  5
1CF17
  8
0
 10
4838.8422313471637608
 20
515.7228220199677935
 30
0.0
 11
4839.0622313469348228
 21
515.7228220199677935
 31
0.0
  0
LINE
  5
1CF18
  8
0
 10
4838.5922313471628513
 20
518.0428220199678435
 30
0.0
 11
4838.742231347165216
 21
518.0428220199678435
 31
0.0
  0
LINE
  5
1CF19
  8
0
 10
4838.5922313471628513
 20
515.8928220199677526
 30
0.0
 11
4838.742231347165216
 21
515.8928220199677526
 31
0.0
  0
LINE
  5
1CF1A
  8
0
 10
4841.4822313471640882
 20
521.2098220199678735
 30
0.0
 11
4841.4822313471640882
 21
522.0973795869608693
 31
0.0
  0
LINE
  5
1CF1B
  8
0
 10
4842.0022313471654343
 20
521.2098220199678735
 30
0.0
 11
4842.0022313471654343
 21
522.0973795869608693
 31
0.0
  0
ARC
  5
1CF1C
  8
0
 10
4841.2022313471643429
 20
521.2098220199678735
 30
0.0
 40
0.2800000000000082
 50
270.0000044331196136
 51
0.0
  0
ARC
  5
1CF1D
  8
0
 10
4842.2822313471642701
 20
521.2098220199678735
 30
0.0
 40
0.2800000000000011
 50
180.0
 51
269.9999955668803864
  0
LINE
  5
1CF1E
  8
0
 10
4842.5422313471635789
 20
520.9298220199679008
 30
0.0
 11
4840.9422313471641246
 21
520.9298220199679008
 31
0.0
  0
LINE
  5
1CF1F
  8
0
 10
4840.9422313471641246
 20
520.8398220199677553
 30
0.0
 11
4842.5422313471635789
 21
520.8398220199677553
 31
0.0
  0
LINE
  5
1CF20
  8
0
 10
4840.9449872526629406
 20
520.8261606026677555
 30
0.0
 11
4842.5394754416638534
 21
520.8261606026677555
 31
0.0
  0
LINE
  5
1CF21
  8
0
 10
4842.5422313471635789
 20
520.9298220199679008
 30
0.0
 11
4842.5422313471635789
 21
520.8398220199677553
 31
0.0
  0
LINE
  5
1CF22
  8
0
 10
4842.5422313471635789
 20
520.784822019967919
 30
0.0
 11
4842.5422313471635789
 21
518.5578220199679436
 31
0.0
  0
LINE
  5
1CF23
  8
0
 10
4840.9422313471641246
 20
520.9298220199679008
 30
0.0
 11
4840.9422313471641246
 21
520.8398220199677553
 31
0.0
  0
LINE
  5
1CF24
  8
0
 10
4840.9422313471641246
 20
520.784822019967919
 30
0.0
 11
4840.9422313471641246
 21
518.5578220199679436
 31
0.0
  0
LINE
  5
1CF25
  8
0
 10
4842.4672313471637608
 20
520.8398220199677553
 30
0.0
 11
4842.4669928862640518
 21
520.8261606026677555
 31
0.0
  0
LINE
  5
1CF26
  8
0
 10
4841.0172313471639427
 20
520.8398220199677553
 30
0.0
 11
4841.0174698080645612
 21
520.8261606026677555
 31
0.0
  0
LINE
  5
1CF27
  8
0
 10
4840.9422313471641246
 20
520.784822019967919
 30
0.0
 11
4842.5422313471635789
 21
520.784822019967919
 31
0.0
  0
LINE
  5
1CF28
  8
0
 10
4840.9449872526629406
 20
520.8261606026677555
 30
0.0
 11
4840.9449872526629406
 21
520.784822019967919
 31
0.0
  0
LINE
  5
1CF29
  8
0
 10
4842.5394754416638534
 20
520.8261606026677555
 30
0.0
 11
4842.5394754416638534
 21
520.784822019967919
 31
0.0
  0
LINE
  5
1CF2A
  8
0
 10
4843.0222313471640518
 20
518.1378220199677571
 30
0.0
 11
4840.4622313471645612
 21
518.1378220199677571
 31
0.0
  0
LINE
  5
1CF2B
  8
0
 10
4843.0222313471640518
 20
517.8678220199677753
 30
0.0
 11
4840.4622313471645612
 21
517.8678220199677753
 31
0.0
  0
LINE
  5
1CF2C
  8
0
 10
4843.0222313471640518
 20
518.1378220199677571
 30
0.0
 11
4843.0222313471640518
 21
517.8678220199677753
 31
0.0
  0
LINE
  5
1CF2D
  8
0
 10
4840.4622313471645612
 20
517.8678220199677753
 30
0.0
 11
4840.4622313471645612
 21
518.1378220199677571
 31
0.0
  0
ARC
  5
1CF2E
  8
0
 10
4840.5222313471640518
 20
518.5578220199679436
 30
0.0
 40
0.4199999999999982
 50
270.0
 51
0.0
  0
ARC
  5
1CF2F
  8
0
 10
4842.9622313471645612
 20
518.5578220199679436
 30
0.0
 40
0.4199999999999973
 50
180.0
 51
270.0
  0
LINE
  5
1CF30
  8
0
 10
4838.5922313471628513
 20
518.0428220199678435
 30
0.0
 11
4838.5922313471628513
 21
515.8928220199677526
 31
0.0
  0
LINE
  5
1CF31
  8
0
 10
4838.742231347165216
 20
518.0428220199678435
 30
0.0
 11
4838.742231347165216
 21
515.8928220199677526
 31
0.0
  0
LINE
  5
1CF32
  8
0
 10
4838.8422313471637608
 20
518.2128220199679163
 30
0.0
 11
4838.8422313471637608
 21
515.7228220199677935
 31
0.0
  0
LINE
  5
1CF33
  8
0
 10
4839.0922313471637608
 20
518.1828264328588602
 30
0.0
 11
4839.0922313471637608
 21
515.7528176069560004
 31
0.0
  0
LINE
  5
1CF34
  8
0
 10
4840.9912313471641028
 20
517.4003220199678026
 30
0.0
 11
4839.0922313471637608
 21
517.4003220199678026
 31
0.0
  0
LINE
  5
1CF35
  8
0
 10
4838.8422313471637608
 20
517.4003220199678026
 30
0.0
 11
4838.742231347165216
 21
517.4003220199678026
 31
0.0
  0
LINE
  5
1CF36
  8
0
 10
4840.9912313471641028
 20
516.5353220199679072
 30
0.0
 11
4839.0922313471637608
 21
516.5353220199679072
 31
0.0
  0
LINE
  5
1CF37
  8
0
 10
4838.8422313471637608
 20
516.5353220199679072
 30
0.0
 11
4838.742231347165216
 21
516.5353220199679072
 31
0.0
  0
ARC
  5
1CF38
  8
0
 10
4840.011503764833833
 20
516.6086996150720552
 30
0.0
 40
1.3636697377239111
 50
25.4723551528657097
 51
35.8212268859599021
  0
ARC
  5
1CF39
  8
0
 10
4840.0056192199954239
 20
517.3304298110800801
 30
0.0
 40
1.370481193333321
 50
324.2046041286150739
 51
334.5019172059940047
  0
LINE
  5
1CF3A
  8
0
 10
4841.1197322553643971
 20
517.4033220199678453
 30
0.0
 11
4840.9912313471641028
 21
517.4033220199678453
 31
0.0
  0
LINE
  5
1CF3B
  8
0
 10
4840.9912313471641028
 20
517.4033220199678453
 30
0.0
 11
4840.9912313471641028
 21
516.5323228479677482
 31
0.0
  0
LINE
  5
1CF3C
  8
0
 10
4840.9912313471641028
 20
516.5323228479677482
 30
0.0
 11
4841.1197305145760765
 21
516.5323228479677482
 31
0.0
  0
ARC
  5
1CF3D
  8
0
 10
4840.7977279049091521
 20
516.9678222376703616
 30
0.0
 40
0.49961632705569
 50
332.9308199952901077
 51
27.0691800047098887
  0
ARC
  5
1CF3E
  8
0
 10
4839.0622313469348228
 20
518.1828220194137202
 30
0.0
 40
0.0300000005541907
 50
0.0084290594264943
 51
89.9999995615447119
  0
ARC
  5
1CF3F
  8
0
 10
4839.0622313469348228
 20
515.7528220205221032
 30
0.0
 40
0.0300000005542174
 50
270.0000004384552881
 51
359.9915707099402198
  0
ARC
  5
1CF40
  8
0
 10
4838.7680919779886608
 20
517.8960198857540718
 30
0.0
 40
0.0653669395210616
 50
140.5828150032045869
 51
219.4171849967954131
  0
ARC
  5
1CF41
  8
0
 10
4838.8179156791084097
 20
517.8498897635948879
 30
0.0
 40
0.1332088953129555
 50
124.6222076619692984
 51
138.8615002921397945
  0
ARC
  5
1CF42
  8
0
 10
4838.9218302188719463
 20
517.9889068816930831
 30
0.0
 40
0.2444874538107134
 50
213.3458118800039927
 51
222.7271292975663073
  0
ARC
  5
1CF43
  8
0
 10
4838.7680919779886608
 20
516.039624154181638
 30
0.0
 40
0.0653669395210616
 50
140.5828150032045869
 51
219.4171849967954131
  0
ARC
  5
1CF44
  8
0
 10
4838.8179156791084097
 20
516.0857542763408219
 30
0.0
 40
0.1332088953129555
 50
221.1384997078602055
 51
235.3777923380307016
  0
ARC
  5
1CF45
  8
0
 10
4838.9218302188719463
 20
515.9467371582427404
 30
0.0
 40
0.2444874538107134
 50
137.2728707024336927
 51
146.6541881199960073
  0
LINE
  5
1CF46
  8
0
 10
4840.0522313471637972
 20
497.8878220199679276
 30
0.0
 11
4840.0522313471637972
 21
497.1678220199677867
 31
0.0
  0
LINE
  5
1CF47
  8
0
 10
4843.4322313471639063
 20
497.8878220196688744
 30
0.0
 11
4843.4322313471639063
 21
497.1678220199677867
 31
0.0
  0
ARC
  5
1CF48
  8
0
 10
4843.4022313464420222
 20
497.8878220196688744
 30
0.0
 40
0.0300000007217705
 50
359.9999999999575948
 51
89.9903804625069199
  0
ARC
  5
1CF49
  8
0
 10
4840.082231347164452
 20
497.8878220199679276
 30
0.0
 40
0.0299999999999958
 50
90.0
 51
180.0000000000065086
  0
LINE
  5
1CF4A
  8
0
 10
4841.4822313471640882
 20
521.2098220199678735
 30
0.0
 11
4842.0022313471654343
 21
521.2098220199678735
 31
0.0
  0
LINE
  5
1CF4C
  8
0
 10
4839.9822313471640882
 20
522.5798276845839609
 30
0.0
 11
4839.9822313471640882
 21
522.0798163553508857
 31
0.0
  0
LINE
  5
1CF4D
  8
0
 10
4843.5002313471641173
 20
522.5798286088480609
 30
0.0
 11
4843.5002313471641173
 21
522.0798220199678781
 31
0.0
  0
LINE
  5
1CF4E
  8
0
 10
4843.4902313456277625
 20
522.5898220199677553
 30
0.0
 11
4839.9922313483002654
 21
522.5898220199677553
 31
0.0
  0
LINE
  5
1CF4F
  8
0
 10
4843.490231347163899
 20
522.0698220199677735
 30
0.0
 11
4842.0321626973136517
 21
522.0698220199677735
 31
0.0
  0
LINE
  5
1CF50
  8
0
 10
4841.4522999970140518
 20
522.0698220199677735
 30
0.0
 11
4839.9922313483002654
 21
522.0698220199677735
 31
0.0
  0
ARC
  5
1CF51
  8
0
 10
4839.9922313483002654
 20
522.5798220172264337
 30
0.0
 40
0.0100000027415232
 50
90.0000065063763373
 51
180.032471565000094
  0
ARC
  5
1CF52
  8
0
 10
4839.9922313483002654
 20
522.0798220227094362
 30
0.0
 40
0.0100000027415223
 50
179.9675284349868036
 51
269.9999934936236059
  0
ARC
  5
1CF53
  8
0
 10
4843.4902313456277625
 20
522.5798220162580492
 30
0.0
 40
0.0100000037097311
 50
359.9622272514363885
 51
89.9999911958240233
  0
ARC
  5
1CF54
  8
0
 10
4843.490231347163899
 20
522.0798220199678781
 30
0.0
 40
0.009999999999998
 50
270.0
 51
0.0000000000097707
  0
ARC
  5
1CF55
  8
0
 10
4841.4520677376058302
 20
522.0851713858420453
 30
0.0
 40
0.0153511229937908
 50
270.8669067141299251
 51
319.2363926888899073
  0
ARC
  5
1CF56
  8
0
 10
4840.1379556307156236
 20
523.1993836225120731
 30
0.0
 40
1.738243393832839
 50
319.7018354015689852
 51
322.7319202777986789
  0
ARC
  5
1CF57
  8
0
 10
4841.5413628833503026
 20
522.1303823063216214
 30
0.0
 40
0.0259475231539909
 50
111.8301416566781938
 51
140.7518642983660015
  0
ARC
  5
1CF58
  8
0
 10
4841.5375656583337332
 20
522.1376915996592061
 30
0.0
 40
0.0177686866354006
 50
68.1002184144789737
 51
109.2273003001159992
  0
ARC
  5
1CF59
  8
0
 10
4841.5235271914552868
 20
522.1034639094408476
 30
0.0
 40
0.054763166758531
 50
46.9846799801969723
 51
67.8292089038083361
  0
CIRCLE
  5
1CF5A
  8
0
 10
4841.7422313471142843
 20
522.3298220199677644
 30
0.0
 40
0.2599999999999998
  0
ARC
  5
1CF5B
  8
0
 10
4842.0323949567218733
 20
522.0851713858420453
 30
0.0
 40
0.0153511229937908
 50
220.7636073111100927
 51
269.1330932858700749
  0
ARC
  5
1CF5C
  8
0
 10
4843.3465070636120799
 20
523.1993836225120731
 30
0.0
 40
1.738243393832839
 50
217.2680797222012927
 51
220.2981645984309864
  0
ARC
  5
1CF5D
  8
0
 10
4841.9430998109792199
 20
522.1303823063216214
 30
0.0
 40
0.0259475231539909
 50
39.2481357016339416
 51
68.1698583433217919
  0
ARC
  5
1CF5E
  8
0
 10
4841.9468970359948798
 20
522.1376915996592061
 30
0.0
 40
0.0177686866354006
 50
70.7726996998839724
 51
111.8997815855209979
  0
ARC
  5
1CF5F
  8
0
 10
4841.9609355028742357
 20
522.1034639094408476
 30
0.0
 40
0.054763166758531
 50
112.170791096191607
 51
133.0153234758539895
  0
CIRCLE
  5
1CF60
  8
0
 10
4841.7422313471142843
 20
522.3298220199677644
 30
0.0
 40
0.2207019748000007
  0
ENDSEC
  0
EOF
