  0
SECTION
  2
HEADER
  9
$ACADVER
  1
AC1009
  9
$INSBASE
 10
3905.6492989994580967
 20
211.4836995220389042
 30
0.0
  9
$EXTMIN
 10
3898.9789923436578647
 20
211.4731992916647982
 30
-0.0000000000112498
  9
$EXTMAX
 10
3907.026969734143222
 20
223.2239807571507981
 30
0.0000000000002956
  9
$LIMMIN
 10
0.0
 20
0.0
  9
$LIMMAX
 10
11.6929133858000007
 20
8.2677165353999982
  9
$ORTHOMODE
 70
     0
  9
$REGENMODE
 70
     1
  9
$FILLMODE
 70
     1
  9
$QTEXTMODE
 70
     0
  9
$MIRRTEXT
 70
     0
  9
$DRAGMODE
 70
     2
  9
$LTSCALE
 40
0.6431102362
  9
$OSMODE
 70
  4095
  9
$ATTMODE
 70
     1
  9
$TEXTSIZE
 40
0.2
  9
$TRACEWID
 40
0.05
  9
$TEXTSTYLE
  7
STANDARD
  9
$CLAYER
  8
0
  9
$CELTYPE
  6
BYLAYER
  9
$CECOLOR
 62
   256
  9
$DIMSCALE
 40
1.0
  9
$DIMASZ
 40
0.1875
  9
$DIMEXO
 40
0.0625
  9
$DIMDLI
 40
0.4443307087
  9
$DIMRND
 40
0.0
  9
$DIMDLE
 40
0.0
  9
$DIMEXE
 40
0.125
  9
$DIMTP
 40
0.01
  9
$DIMTM
 40
0.01
  9
$DIMTXT
 40
2.0
  9
$DIMCEN
 40
0.1052362205
  9
$DIMTSZ
 40
0.0
  9
$DIMTOL
 70
     1
  9
$DIMLIM
 70
     0
  9
$DIMTIH
 70
     1
  9
$DIMTOH
 70
     1
  9
$DIMSE1
 70
     0
  9
$DIMSE2
 70
     0
  9
$DIMTAD
 70
     0
  9
$DIMZIN
 70
     0
  9
$DIMBLK
  1

  9
$DIMASO
 70
     1
  9
$DIMSHO
 70
     1
  9
$DIMPOST
  1
\X
  9
$DIMAPOST
  1

  9
$DIMALT
 70
     1
  9
$DIMALTD
 70
     2
  9
$DIMALTF
 40
25.3999999999999986
  9
$DIMLFAC
 40
1.0
  9
$DIMTOFL
 70
     0
  9
$DIMTVP
 40
0.0
  9
$DIMTIX
 70
     0
  9
$DIMSOXD
 70
     0
  9
$DIMSAH
 70
     0
  9
$DIMBLK1
  1

  9
$DIMBLK2
  1

  9
$DIMSTYLE
  2
STANDARD
  9
$DIMCLRD
 70
     0
  9
$DIMCLRE
 70
     0
  9
$DIMCLRT
 70
     0
  9
$DIMTFAC
 40
1.0
  9
$DIMGAP
 40
0.09
  9
$LUNITS
 70
     2
  9
$LUPREC
 70
     4
  9
$SKETCHINC
 40
0.1
  9
$FILLETRAD
 40
0.0
  9
$AUNITS
 70
     0
  9
$AUPREC
 70
     0
  9
$MENU
  1
.
  9
$ELEVATION
 40
0.0
  9
$PELEVATION
 40
0.0
  9
$THICKNESS
 40
0.0
  9
$LIMCHECK
 70
     0
  9
$BLIPMODE
 70
     0
  9
$CHAMFERA
 40
0.0
  9
$CHAMFERB
 40
0.0
  9
$SKPOLY
 70
     0
  9
$TDCREATE
 40
2458059.843368056230247
  9
$TDUPDATE
 40
2459050.2331944447942078
  9
$TDINDWG
 40
0.6770788194
  9
$TDUSRTIMER
 40
0.6770788194
  9
$USRTIMER
 70
     1
  9
$ANGBASE
 50
0.0
  9
$ANGDIR
 70
     0
  9
$PDMODE
 70
     0
  9
$PDSIZE
 40
0.3125
  9
$PLINEWID
 40
0.0
  9
$COORDS
 70
     1
  9
$SPLFRAME
 70
     0
  9
$SPLINETYPE
 70
     6
  9
$SPLINESEGS
 70
     8
  9
$ATTDIA
 70
     1
  9
$ATTREQ
 70
     1
  9
$HANDLING
 70
     1
  9
$HANDSEED
  5
B438
  9
$SURFTAB1
 70
     6
  9
$SURFTAB2
 70
     6
  9
$SURFTYPE
 70
     6
  9
$SURFU
 70
     6
  9
$SURFV
 70
     6
  9
$UCSNAME
  2

  9
$UCSORG
 10
0.0
 20
0.0
 30
0.0
  9
$UCSXDIR
 10
1.0
 20
0.0
 30
0.0
  9
$UCSYDIR
 10
0.0
 20
1.0
 30
0.0
  9
$PUCSNAME
  2

  9
$PUCSORG
 10
0.0
 20
0.0
 30
0.0
  9
$PUCSXDIR
 10
1.0
 20
0.0
 30
0.0
  9
$PUCSYDIR
 10
0.0
 20
1.0
 30
0.0
  9
$USERI1
 70
     0
  9
$USERI2
 70
     0
  9
$USERI3
 70
     0
  9
$USERI4
 70
     0
  9
$USERI5
 70
     0
  9
$USERR1
 40
0.0
  9
$USERR2
 40
0.0
  9
$USERR3
 40
0.0
  9
$USERR4
 40
0.0
  9
$USERR5
 40
0.0
  9
$WORLDVIEW
 70
     1
  9
$SHADEDGE
 70
     3
  9
$SHADEDIF
 70
    70
  9
$TILEMODE
 70
     1
  9
$MAXACTVP
 70
    64
  9
$PLIMCHECK
 70
     0
  9
$PEXTMIN
 10
1.0000000000000000E+20
 20
1.0000000000000000E+20
 30
1.0000000000000000E+20
  9
$PEXTMAX
 10
-1.0000000000000000E+20
 20
-1.0000000000000000E+20
 30
-1.0000000000000000E+20
  9
$PLIMMIN
 10
0.0
 20
0.0
  9
$PLIMMAX
 10
12.0
 20
9.0
  9
$UNITMODE
 70
     0
  9
$VISRETAIN
 70
     1
  9
$PLINEGEN
 70
     0
  9
$PSLTSCALE
 70
     1
  0
ENDSEC
  0
SECTION
  2
TABLES
  0
TABLE
  2
VPORT
 70
     1
  0
VPORT
  2
*ACTIVE
 70
     0
 10
0.0
 20
0.0
 11
1.0
 21
1.0
 12
8.5164087732755451
 22
-2.3320345291540998
 13
0.0
 23
0.0
 14
1.0
 24
1.0
 15
0.0
 25
0.0
 16
0.0
 26
0.0
 36
58.1411105575488989
 17
3894.4865722656259095
 27
219.6806245535618984
 37
0.0
 40
11.8848207977918694
 41
2.5847619047619039
 42
50.0
 43
0.0
 44
0.0
 50
0.0
 51
0.0
 71
     0
 72
   100
 73
     1
 74
     1
 75
     0
 76
     0
 77
     0
 78
     0
  0
ENDTAB
  0
TABLE
  2
LTYPE
 70
     2
  0
LTYPE
  2
CONTINUOUS
 70
     0
  3
Solid line
 72
    65
 73
     0
 40
0.0
  0
LTYPE
  2
PHANTOM2
 70
     0
  3
___ _ _ ___ _ _ ___ _ _ ___ _ _
 72
    65
 73
     6
 40
1.25
 49
0.625
 49
-0.125
 49
0.125
 49
-0.125
 49
0.125
 49
-0.125
  0
ENDTAB
  0
TABLE
  2
LAYER
 70
     2
  0
LAYER
  2
0
 70
     0
 62
   255
  6
CONTINUOUS
  0
LAYER
  2
DEFPOINTS
 70
     0
 62
     7
  6
CONTINUOUS
  0
ENDTAB
  0
TABLE
  2
STYLE
 70
     1
  0
STYLE
  2
STANDARD
 70
     0
 40
0.0
 41
0.8
 50
0.0
 71
     0
 42
0.2
  3
txt
  4

  0
ENDTAB
  0
TABLE
  2
VIEW
 70
     0
  0
ENDTAB
  0
TABLE
  2
UCS
 70
     0
  0
ENDTAB
  0
TABLE
  2
APPID
 70
     9
  0
APPID
  2
ACAD
 70
     0
  0
APPID
  2
ACAD_MLEADERVER
 70
     0
  0
APPID
  2
ACAD_EXEMPT_FROM_CAD_STANDARDS
 70
     0
  0
APPID
  2
ACAD_NAV_VCDISPLAY
 70
     0
  0
APPID
  2
ACAECLAYERSTANDARD
 70
     0
  0
APPID
  2
ACCMTRANSPARENCY
 70
     0
  0
APPID
  2
ACAD_DSTYLE_DIMJAG
 70
     0
  0
APPID
  2
ACAD_DSTYLE_DIMTALN
 70
     0
  0
APPID
  2
ACDBATTR
 70
     0
  0
ENDTAB
  0
TABLE
  2
DIMSTYLE
 70
     1
  0
DIMSTYLE
  2
STANDARD
 70
     0
  3

  4

  5

  6

  7

 40
1.0
 41
0.1875
 42
0.0625
 43
0.38
 44
0.125
 45
0.0
 46
0.0
 47
0.01
 48
0.01
140
0.15625
141
0.09
142
0.0
143
25.3999999999999986
144
1.0
145
0.0
146
1.0
147
0.09
 71
     1
 72
     0
 73
     1
 74
     1
 75
     0
 76
     0
 77
     0
 78
     4
170
     0
171
     2
172
     0
173
     0
174
     0
175
     0
176
     0
177
     0
178
     0
  0
ENDTAB
  0
ENDSEC
  0
SECTION
  2
BLOCKS
  0
BLOCK
  8
0
  2
$MODEL_SPACE
 70
     0
 10
0.0
 20
0.0
 30
0.0
  3
$MODEL_SPACE
  1

  0
ENDBLK
  5
21
  8
0
  0
BLOCK
 67
     1
  8
0
  2
$PAPER_SPACE
 70
     0
 10
0.0
 20
0.0
 30
0.0
  3
$PAPER_SPACE
  1

  0
ENDBLK
  5
1D
 67
     1
  8
0
  0
ENDSEC
  0
SECTION
  2
ENTITIES
  0
ATTDEF
  5
3930
  8
DEFPOINTS
 10
3905.6459998180321236
 20
211.4799689757404906
 30
0.0
 40
0.001
  1
K-14404IN-4AND
  3

  2
MODELNUMBER
 70
     0
1001
ACDBATTR
1070
     0
1070
     1
  0
ATTDEF
  5
3931
  8
DEFPOINTS
 10
3905.6459998180321236
 20
211.4783023090739107
 30
0.0
 40
0.001
  1
PURIST
  3

  2
TRADENAME
 70
     0
1001
ACDBATTR
1070
     0
1070
     1
  0
ATTDEF
  5
3932
  8
DEFPOINTS
 10
3905.6459998180321236
 20
211.4766356424071887
 30
0.0
 40
0.001
  1
BATHROOM SINK FAUCET
  3

  2
PRODUCT
 70
     0
1001
ACDBATTR
1070
     0
1070
     1
  0
ARC
  5
B263
  8
0
 10
3904.7970499888988343
 20
221.7272311429589138
 30
0.0
 40
0.0300001145201206
 50
90.0108333305278165
 51
178.0043372438634037
  0
LINE
  5
B264
  8
0
 10
3900.821922859840015
 20
219.4386995579635027
 30
0.0
 11
3904.7392989995069001
 21
219.4386995579635027
 31
0.0
  0
LINE
  5
B265
  8
0
 10
3904.5592989995079733
 20
211.4836995220389042
 30
0.0
 11
3906.7392989994059462
 21
211.4836995220389042
 31
0.0
  0
LINE
  5
B266
  8
0
 10
3904.7392989995069001
 20
211.8336995220388985
 30
0.0
 11
3904.7392989995069001
 21
218.6286995579635004
 31
0.0
  0
LINE
  5
B267
  8
0
 10
3904.7392989995069001
 20
219.4386995579635027
 30
0.0
 11
3904.7392989995069001
 21
220.8836995579634106
 31
0.0
  0
LINE
  5
B268
  8
0
 10
3904.5292989995059543
 20
211.5136995220393885
 30
0.0
 11
3904.5292989995059543
 21
211.6236995220388906
 31
0.0
  0
LINE
  5
B269
  8
0
 10
3904.5592989995070639
 20
211.6536995220388917
 30
0.0
 11
3906.7392989994059462
 21
211.6536995220388917
 31
0.0
  0
ARC
  5
B26A
  8
0
 10
3904.5592989995070639
 20
211.5136995220389053
 30
0.0
 40
0.0300000000000011
 50
180.0000000000015916
 51
270.0000000021365167
  0
ARC
  5
B26B
  8
0
 10
3904.5592989995070639
 20
211.6236995220388906
 30
0.0
 40
0.0300000000000003
 50
90.0
 51
180.0
  0
ARC
  5
B26C
  8
0
 10
3904.5592989995070639
 20
211.8336995220388985
 30
0.0
 40
0.1799999999999997
 50
270.0
 51
0.0
  0
LINE
  5
B26D
  8
0
 10
3904.7392989995069001
 20
220.8836995579634106
 30
0.0
 11
3906.5592989994070194
 21
220.8836995579634106
 31
0.0
  0
LINE
  5
B26E
  8
0
 10
3904.7707795452060964
 20
220.9521624934583031
 30
0.0
 11
3905.6248568055370924
 21
220.9521624934583031
 31
0.0
  0
ARC
  5
B26F
  8
0
 10
3904.7708304703619433
 20
220.9819146446708089
 30
0.0
 40
0.0297521947953323
 50
177.5560240044181057
 51
269.9019299954480857
  0
LINE
  5
B270
  8
0
 10
3904.7411053383061699
 20
220.9831833524582976
 30
0.0
 11
3904.7670680705628001
 21
221.7282758622494896
 31
0.0
  0
LINE
  5
B271
  8
0
 10
3904.7970443165581855
 20
221.7572312569427879
 30
0.0
 11
3906.5015536823548246
 21
221.7572312569427879
 31
0.0
  0
LINE
  5
B272
  8
0
 10
3905.4490897609880449
 20
222.3321640912587895
 30
0.0
 11
3905.8503482597070615
 21
222.3321640912587895
 31
0.0
  0
LINE
  5
B273
  8
0
 10
3905.4296230481068051
 20
222.3125116861583024
 30
0.0
 11
3905.425693984911959
 21
222.087425521899803
 31
0.0
  0
ARC
  5
B274
  8
0
 10
3905.0757472962059182
 20
222.0935341276583017
 30
0.0
 40
0.3500000000000004
 50
286.0024471922089901
 51
358.9999568569991766
  0
ARC
  5
B275
  8
0
 10
3905.4490826940050283
 20
222.312703501299012
 30
0.0
 40
0.0194605912429415
 50
89.9791934199164984
 51
180.5647503631012114
  0
ARC
  5
B276
  8
0
 10
3905.4499983785740369
 20
222.352175851199803
 30
0.0
 40
0.0200323768398152
 50
180.2563393515694941
 51
267.4003174815886155
  0
LINE
  5
B277
  8
0
 10
3906.5592989994070194
 20
211.8336995220388985
 30
0.0
 11
3906.5592989994070194
 21
220.8836995579634106
 31
0.0
  0
LINE
  5
B278
  8
0
 10
3906.7692989994070558
 20
211.5136995220393885
 30
0.0
 11
3906.7692989994070558
 21
211.6236995220388906
 31
0.0
  0
ARC
  5
B279
  8
0
 10
3906.7392989994059462
 20
211.5136995220389053
 30
0.0
 40
0.0300000000000011
 50
269.9999999978634833
 51
359.9999999999984084
  0
ARC
  5
B27A
  8
0
 10
3906.7392989994059462
 20
211.6236995220388906
 30
0.0
 40
0.0300000000000003
 50
0.0
 51
90.0
  0
ARC
  5
B27B
  8
0
 10
3906.7392989994059462
 20
211.8336995220388985
 30
0.0
 40
0.1799999999999997
 50
180.0
 51
270.0
  0
LINE
  5
B27C
  8
0
 10
3906.5487648496068687
 20
221.2725877619583059
 30
0.0
 11
3906.5459863836899785
 21
221.352209576741501
 31
0.0
  0
LINE
  5
B27D
  8
0
 10
3906.5334259589071735
 20
221.7121617329582932
 30
0.0
 11
3906.5328632196938088
 21
221.7282768614583119
 31
0.0
  0
ARC
  5
B27E
  8
0
 10
3906.5028314239998508
 20
221.7272076091053918
 30
0.0
 40
0.0300508245007171
 50
2.0390981774972761
 51
92.436914188637644
  0
LINE
  5
B27F
  8
0
 10
3905.8703092542477862
 20
222.3125113618498858
 30
0.0
 11
3905.8729040140019606
 21
222.087425521899803
 31
0.0
  0
ARC
  5
B280
  8
0
 10
3906.2228507027070918
 20
222.0935341276583017
 30
0.0
 40
0.3500000000000004
 50
181.0000431429992034
 51
253.9975528077910099
  0
ARC
  5
B281
  8
0
 10
3905.8503090743820394
 20
222.3121608790829953
 30
0.0
 40
0.0200032505568736
 50
1.0039473780802071
 51
89.8877604826782033
  0
ARC
  5
B282
  8
0
 10
3905.8499630738701853
 20
222.3521635876846858
 30
0.0
 40
0.0200032053786066
 50
271.1033675104970939
 51
359.9962773465783243
  0
LINE
  5
B283
  8
0
 10
3900.8219228598450172
 20
218.6286995579635004
 30
0.0
 11
3904.7392989995069001
 21
218.6286995579635004
 31
0.0
  0
ARC
  5
B284
  8
0
 10
3903.9431558600190328
 20
219.0336995579635015
 30
0.0
 40
0.8932350746317435
 50
333.0374460237559902
 51
26.9625539762424893
  0
ARC
  5
B285
  8
0
 10
3900.8219228598450172
 20
217.6976995579381082
 30
0.0
 40
0.93100000002533
 50
90.0
 51
144.9999999948917946
  0
LINE
  5
B286
  8
0
 10
3900.0592923066387812
 20
218.2316992202634935
 30
0.0
 11
3899.9556427296329275
 21
218.0845360094035925
 31
0.0
  0
LINE
  5
B287
  8
0
 10
3899.9527451731169094
 20
218.0804220155704058
 30
0.0
 11
3899.7454644207391539
 21
217.7861217207635036
 31
0.0
  0
ARC
  5
B288
  8
0
 10
3899.73625330793584
 20
217.793816103918914
 30
0.0
 40
0.0120020052993173
 50
274.8732553382753849
 51
320.1267445058034014
  0
ARC
  5
B289
  8
0
 10
3899.7380339426331375
 20
217.7942712029471011
 30
0.0
 40
0.0124370243460217
 50
238.5082161521532953
 51
266.4917838478821182
  0
LINE
  5
B28A
  8
0
 10
3899.7315371359759411
 20
217.7836659647205977
 30
0.0
 11
3899.0868785356387889
 21
218.2350607761634933
 31
0.0
  0
ARC
  5
B28B
  8
0
 10
3899.092600268024853
 20
218.2432621346814017
 30
0.0
 40
0.0100000251519011
 50
145.0000597644674087
 51
235.0981887872887057
  0
LINE
  5
B28C
  8
0
 10
3899.0844087209961799
 20
218.2489979049269948
 30
0.0
 11
3899.2899938354012193
 21
218.5443305657821895
 31
0.0
  0
LINE
  5
B28D
  8
0
 10
3899.292941210679146
 20
218.5485646086320912
 30
0.0
 11
3899.3957791507391448
 21
218.696296133663509
 31
0.0
  0
ARC
  5
B28E
  8
0
 10
3900.821922859840015
 20
217.6976995579568097
 30
0.0
 40
1.7410000000067121
 50
90.0
 51
144.9999999993833057
  0
ARC
  5
B28F
  8
0
 10
3899.2945671722081897
 20
218.5383495429587981
 30
0.0
 40
0.0075291462716624
 50
64.0664634069335506
 51
127.4030200881545056
  0
ARC
  5
B290
  8
0
 10
3899.9447571988321215
 20
218.0823352203861134
 30
0.0
 40
0.0082138958985369
 50
346.5307809960688132
 51
43.4116500378200811
  0
LINE
  5
B291
  8
0
 10
3899.292941210679146
 20
218.5485646086320912
 30
0.0
 11
3899.9556427296329275
 21
218.0845360094035925
 31
0.0
  0
ARC
  5
B292
  8
0
 10
3904.8742989994570962
 20
220.9436995220389122
 30
0.0
 40
0.0599999999999923
 50
270.0626986365484186
 51
0.0
  0
ARC
  5
B293
  8
0
 10
3906.4242989993499577
 20
220.9436995219157041
 30
0.0
 40
0.0599999998431038
 50
180.0
 51
269.9373307198068801
  0
LINE
  5
B294
  8
0
 10
3906.3642989995069001
 20
220.9436995219157041
 30
0.0
 11
3906.3642989995069001
 21
221.2036463272335993
 31
0.0
  0
ARC
  5
B295
  8
0
 10
3905.6244584193141236
 20
221.0721618473064893
 30
0.0
 40
0.1200000151481857
 50
270.1902157350506855
 51
293.9999496487715192
  0
LINE
  5
B296
  8
0
 10
3905.6732667263058829
 20
220.9625363356583136
 30
0.0
 11
3906.2780144777289024
 21
221.2317867451704103
 31
0.0
  0
LINE
  5
B297
  8
0
 10
3906.3268228493529932
 20
221.2421614948584079
 30
0.0
 11
3906.5193830934990729
 21
221.24216324969629
 31
0.0
  0
ARC
  5
B298
  8
0
 10
3906.5193828255719382
 20
221.2715631340275877
 30
0.0
 40
0.0293998843324759
 50
270.0005221472795256
 51
1.9972441483352921
  0
ARC
  5
B299
  8
0
 10
3906.5279453293069309
 20
221.382161737558306
 30
0.0
 40
0.0200000000000281
 50
315.6986915840444112
 51
347.8033045480615897
  0
ARC
  5
B29A
  8
0
 10
3905.8339713918508096
 20
221.5321623181833104
 30
0.0
 40
0.7300000000391184
 50
347.8033045480615897
 51
12.1965993124234497
  0
ARC
  5
B29B
  8
0
 10
3906.5279455761387908
 20
221.6821617333029053
 30
0.0
 40
0.0200000049731873
 50
12.1965993124282299
 51
79.1055387826386323
  0
ARC
  5
B29C
  8
0
 10
3907.4121263852680386
 20
221.5626285020103978
 30
0.0
 40
0.8913330614566591
 50
170.342185384568694
 51
193.6548316317031038
  0
ARC
  5
B29D
  8
0
 10
3905.0248035960621564
 20
222.3717739139399896
 30
0.0
 40
0.8453901920719372
 50
358.6707153516908875
 51
89.9885188874134059
  0
ARC
  5
B29E
  8
0
 10
3905.0246211630887956
 20
222.3713610348443126
 30
0.0
 40
0.4058030543921021
 50
357.2775444078841929
 51
89.9982121182037247
  0
LINE
  5
B29F
  8
0
 10
3902.4092992049968416
 20
223.2171640890389028
 30
0.0
 11
3905.0249729980669144
 21
223.2171640890389028
 31
0.0
  0
LINE
  5
B2A0
  8
0
 10
3902.4093025816941918
 20
222.7771640890389051
 30
0.0
 11
3905.0246338259389631
 21
222.7771640890389051
 31
0.0
  0
ARC
  5
B2A1
  8
0
 10
3902.409300708032788
 20
222.787165955755512
 30
0.0
 40
0.010001866892382
 50
179.9999520934752866
 51
270.0107332809591867
  0
LINE
  5
B2A2
  8
0
 10
3902.3992988412328486
 20
222.7871659641182873
 30
0.0
 11
3902.3992991924051239
 21
223.2071659643920043
 31
0.0
  0
ARC
  5
B2A3
  8
0
 10
3902.4092973255578727
 20
223.2071659560322985
 30
0.0
 40
0.0099981331824479
 50
89.9892295936176083
 51
179.9999520934802035
  0
ARC
  5
B2A4
  8
0
 10
3906.3254388178820591
 20
221.1286750013190954
 30
0.0
 40
0.1134949327457706
 50
89.3012804567119218
 51
114.6991913437072981
  0
LINE
  5
B2A5
  8
0
 10
3906.3642753997569343
 20
221.2036699287388899
 30
0.0
 11
3906.2148629247008103
 21
221.2036699287388899
 31
0.0
  0
LINE
  5
B2A6
  8
0
 10
3906.3542465525952139
 20
221.213699522038894
 30
0.0
 11
3906.2373898133591865
 21
221.213699522038894
 31
0.0
  0
LINE
  5
B2A7
  8
0
 10
3906.3642989995069001
 20
221.2036463272335993
 30
0.0
 11
3906.3542465525952139
 21
221.213699522038894
 31
0.0
  0
LINE
  5
B2A8
  8
0
 10
3904.9342989994570416
 20
220.9521624934583031
 30
0.0
 11
3904.9342989994570416
 21
220.9436995220389122
 31
0.0
  0
ENDSEC
  0
EOF
