  0
SECTION
  2
HEADER
  9
$ACADVER
  1
AC1009
  9
$INSBASE
 10
3903.9521830117628269
 20
222.5604702283580139
 30
0.0
  9
$EXTMIN
 10
3893.1765372511399619
 20
214.2701385467296973
 30
0.0
  9
$EXTMAX
 10
3913.5643230315317851
 20
234.246692187963589
 30
0.0
  9
$LIMMIN
 10
0.0
 20
0.0
  9
$LIMMAX
 10
11.6929133858000007
 20
8.2677165353999982
  9
$ORTHOMODE
 70
     0
  9
$REGENMODE
 70
     1
  9
$FILLMODE
 70
     1
  9
$QTEXTMODE
 70
     0
  9
$MIRRTEXT
 70
     0
  9
$DRAGMODE
 70
     2
  9
$LTSCALE
 40
0.6431102362
  9
$OSMODE
 70
  4095
  9
$ATTMODE
 70
     1
  9
$TEXTSIZE
 40
0.2
  9
$TRACEWID
 40
0.05
  9
$TEXTSTYLE
  7
STANDARD
  9
$CLAYER
  8
0
  9
$CELTYPE
  6
BYLAYER
  9
$CECOLOR
 62
   256
  9
$DIMSCALE
 40
1.0
  9
$DIMASZ
 40
0.1875
  9
$DIMEXO
 40
0.0625
  9
$DIMDLI
 40
0.4443307087
  9
$DIMRND
 40
0.0
  9
$DIMDLE
 40
0.0
  9
$DIMEXE
 40
0.125
  9
$DIMTP
 40
0.01
  9
$DIMTM
 40
0.01
  9
$DIMTXT
 40
2.0
  9
$DIMCEN
 40
0.1052362205
  9
$DIMTSZ
 40
0.0
  9
$DIMTOL
 70
     1
  9
$DIMLIM
 70
     0
  9
$DIMTIH
 70
     1
  9
$DIMTOH
 70
     1
  9
$DIMSE1
 70
     0
  9
$DIMSE2
 70
     0
  9
$DIMTAD
 70
     0
  9
$DIMZIN
 70
     0
  9
$DIMBLK
  1

  9
$DIMASO
 70
     1
  9
$DIMSHO
 70
     1
  9
$DIMPOST
  1
\X
  9
$DIMAPOST
  1

  9
$DIMALT
 70
     1
  9
$DIMALTD
 70
     2
  9
$DIMALTF
 40
25.3999999999999986
  9
$DIMLFAC
 40
1.0
  9
$DIMTOFL
 70
     0
  9
$DIMTVP
 40
0.0
  9
$DIMTIX
 70
     0
  9
$DIMSOXD
 70
     0
  9
$DIMSAH
 70
     0
  9
$DIMBLK1
  1

  9
$DIMBLK2
  1

  9
$DIMSTYLE
  2
STANDARD
  9
$DIMCLRD
 70
     0
  9
$DIMCLRE
 70
     0
  9
$DIMCLRT
 70
     0
  9
$DIMTFAC
 40
1.0
  9
$DIMGAP
 40
0.09
  9
$LUNITS
 70
     2
  9
$LUPREC
 70
     4
  9
$SKETCHINC
 40
0.1
  9
$FILLETRAD
 40
0.0
  9
$AUNITS
 70
     0
  9
$AUPREC
 70
     0
  9
$MENU
  1
.
  9
$ELEVATION
 40
0.0
  9
$PELEVATION
 40
0.0
  9
$THICKNESS
 40
0.0
  9
$LIMCHECK
 70
     0
  9
$BLIPMODE
 70
     0
  9
$CHAMFERA
 40
0.0
  9
$CHAMFERB
 40
0.0
  9
$SKPOLY
 70
     0
  9
$TDCREATE
 40
2458060.468368056230247
  9
$TDUPDATE
 40
2459933.7283333339728415
  9
$TDINDWG
 40
0.6257478009
  9
$TDUSRTIMER
 40
0.6257478009
  9
$USRTIMER
 70
     1
  9
$ANGBASE
 50
0.0
  9
$ANGDIR
 70
     0
  9
$PDMODE
 70
     0
  9
$PDSIZE
 40
0.3125
  9
$PLINEWID
 40
0.0
  9
$COORDS
 70
     1
  9
$SPLFRAME
 70
     0
  9
$SPLINETYPE
 70
     6
  9
$SPLINESEGS
 70
     8
  9
$ATTDIA
 70
     1
  9
$ATTREQ
 70
     1
  9
$HANDLING
 70
     1
  9
$HANDSEED
  5
BC33
  9
$SURFTAB1
 70
     6
  9
$SURFTAB2
 70
     6
  9
$SURFTYPE
 70
     6
  9
$SURFU
 70
     6
  9
$SURFV
 70
     6
  9
$UCSNAME
  2

  9
$UCSORG
 10
0.0
 20
0.0
 30
0.0
  9
$UCSXDIR
 10
1.0
 20
0.0
 30
0.0
  9
$UCSYDIR
 10
0.0
 20
1.0
 30
0.0
  9
$PUCSNAME
  2

  9
$PUCSORG
 10
0.0
 20
0.0
 30
0.0
  9
$PUCSXDIR
 10
1.0
 20
0.0
 30
0.0
  9
$PUCSYDIR
 10
0.0
 20
1.0
 30
0.0
  9
$USERI1
 70
     0
  9
$USERI2
 70
     0
  9
$USERI3
 70
     0
  9
$USERI4
 70
     0
  9
$USERI5
 70
     0
  9
$USERR1
 40
0.0
  9
$USERR2
 40
0.0
  9
$USERR3
 40
0.0
  9
$USERR4
 40
0.0
  9
$USERR5
 40
0.0
  9
$WORLDVIEW
 70
     1
  9
$SHADEDGE
 70
     3
  9
$SHADEDIF
 70
    70
  9
$TILEMODE
 70
     1
  9
$MAXACTVP
 70
    64
  9
$PLIMCHECK
 70
     0
  9
$PEXTMIN
 10
1.0000000000000000E+20
 20
1.0000000000000000E+20
 30
1.0000000000000000E+20
  9
$PEXTMAX
 10
-1.0000000000000000E+20
 20
-1.0000000000000000E+20
 30
-1.0000000000000000E+20
  9
$PLIMMIN
 10
0.0
 20
0.0
  9
$PLIMMAX
 10
12.0
 20
9.0
  9
$UNITMODE
 70
     0
  9
$VISRETAIN
 70
     1
  9
$PLINEGEN
 70
     0
  9
$PSLTSCALE
 70
     1
  0
ENDSEC
  0
SECTION
  2
TABLES
  0
TABLE
  2
VPORT
 70
     1
  0
VPORT
  2
*ACTIVE
 70
     0
 10
0.0
 20
0.0
 11
1.0
 21
1.0
 12
17.2605485328882189
 22
4.234258101017204
 13
0.0
 23
0.0
 14
1.0
 24
1.0
 15
0.0
 25
0.0
 16
0.0
 26
0.0
 36
49.4172280973888718
 17
3886.6934814453129547
 27
218.324849244226499
 37
0.0
 40
0.0046297336212617
 41
2.5251322751322749
 42
50.0
 43
0.0
 44
0.0
 50
0.0
 51
0.0
 71
     0
 72
   100
 73
     1
 74
     1
 75
     0
 76
     0
 77
     0
 78
     0
  0
ENDTAB
  0
TABLE
  2
LTYPE
 70
     2
  0
LTYPE
  2
CONTINUOUS
 70
     0
  3
Solid line
 72
    65
 73
     0
 40
0.0
  0
LTYPE
  2
PHANTOM2
 70
     0
  3
___ _ _ ___ _ _ ___ _ _ ___ _ _
 72
    65
 73
     6
 40
1.25
 49
0.625
 49
-0.125
 49
0.125
 49
-0.125
 49
0.125
 49
-0.125
  0
ENDTAB
  0
TABLE
  2
LAYER
 70
     2
  0
LAYER
  2
0
 70
     0
 62
   255
  6
CONTINUOUS
  0
LAYER
  2
DEFPOINTS
 70
     0
 62
     7
  6
CONTINUOUS
  0
ENDTAB
  0
TABLE
  2
STYLE
 70
     1
  0
STYLE
  2
STANDARD
 70
     0
 40
0.0
 41
0.8
 50
0.0
 71
     0
 42
0.2
  3
txt
  4

  0
ENDTAB
  0
TABLE
  2
VIEW
 70
     0
  0
ENDTAB
  0
TABLE
  2
UCS
 70
     0
  0
ENDTAB
  0
TABLE
  2
APPID
 70
     9
  0
APPID
  2
ACAD
 70
     0
  0
APPID
  2
ACAD_MLEADERVER
 70
     0
  0
APPID
  2
ACAD_EXEMPT_FROM_CAD_STANDARDS
 70
     0
  0
APPID
  2
ACAD_NAV_VCDISPLAY
 70
     0
  0
APPID
  2
ACAECLAYERSTANDARD
 70
     0
  0
APPID
  2
ACCMTRANSPARENCY
 70
     0
  0
APPID
  2
ACAD_DSTYLE_DIMJAG
 70
     0
  0
APPID
  2
ACAD_DSTYLE_DIMTALN
 70
     0
  0
APPID
  2
ACDBATTR
 70
     0
  0
ENDTAB
  0
TABLE
  2
DIMSTYLE
 70
     1
  0
DIMSTYLE
  2
STANDARD
 70
     0
  3

  4

  5

  6

  7

 40
1.0
 41
0.1875
 42
0.0625
 43
0.38
 44
0.125
 45
0.0
 46
0.0
 47
0.01
 48
0.01
140
0.15625
141
0.09
142
0.0
143
25.3999999999999986
144
1.0
145
0.0
146
1.0
147
0.09
 71
     1
 72
     0
 73
     1
 74
     1
 75
     0
 76
     0
 77
     0
 78
     4
170
     0
171
     2
172
     0
173
     0
174
     0
175
     0
176
     0
177
     0
178
     0
  0
ENDTAB
  0
ENDSEC
  0
SECTION
  2
BLOCKS
  0
BLOCK
  8
0
  2
$MODEL_SPACE
 70
     0
 10
0.0
 20
0.0
 30
0.0
  3
$MODEL_SPACE
  1

  0
ENDBLK
  5
21
  8
0
  0
BLOCK
 67
     1
  8
0
  2
$PAPER_SPACE
 70
     0
 10
0.0
 20
0.0
 30
0.0
  3
$PAPER_SPACE
  1

  0
ENDBLK
  5
1D
 67
     1
  8
0
  0
BLOCK
  8
0
  2
_FILLED
 70
     0
 10
0.0
 20
0.0
 30
0.0
  3
_FILLED
  1

  0
SOLID
  5
6F59
  8
0
  6
BYBLOCK
 62
     0
 10
0.0
 20
0.0
 30
0.0
 11
-1.0
 21
0.1666666667
 31
0.0
 12
-1.0
 22
-0.1666666667
 32
0.0
 13
-1.0
 23
-0.1666666667
 33
0.0
  0
ENDBLK
  5
6F5A
  8
0
  6
BYBLOCK
 62
     0
  0
BLOCK
  8
0
  2
_CLOSED
 70
     0
 10
0.0
 20
0.0
 30
0.0
  3
_CLOSED
  1

  0
LINE
  5
9506
  8
0
  6
BYBLOCK
 62
     0
 10
0.0
 20
0.0
 30
0.0
 11
-1.0
 21
0.1666666667
 31
0.0
  0
LINE
  5
9507
  8
0
  6
BYBLOCK
 62
     0
 10
-1.0
 20
0.1666666667
 30
0.0
 11
-1.0
 21
-0.1666666667
 31
0.0
  0
LINE
  5
9508
  8
0
  6
BYBLOCK
 62
     0
 10
-1.0
 20
-0.1666666667
 30
0.0
 11
0.0
 21
0.0
 31
0.0
  0
LINE
  5
9509
  8
0
  6
BYBLOCK
 62
     0
 10
-1.0
 20
0.0
 30
0.0
 11
0.0
 21
0.0
 31
0.0
  0
ENDBLK
  5
950A
  8
0
  6
BYBLOCK
 62
     0
  0
ENDSEC
  0
SECTION
  2
ENTITIES
  0
ATTDEF
  5
3930
  8
DEFPOINTS
 10
3903.9499400140689431
 20
222.5591362239499915
 30
0.0
 40
0.001
  1
K-14404T-4AE2
  3

  2
MODELNUMBER
 70
     0
1001
ACDBATTR
1070
     0
1070
     1
  0
ATTDEF
  5
3931
  8
DEFPOINTS
 10
3903.9499400140689431
 20
222.5574695572832979
 30
0.0
 40
0.001
  1
PURIST
  3

  2
TRADENAME
 70
     0
1001
ACDBATTR
1070
     0
1070
     1
  0
ATTDEF
  5
3932
  8
DEFPOINTS
 10
3903.9499400140689431
 20
222.5558028906166896
 30
0.0
 40
0.001
  1
BATHROOM SINK FAUCET
  3

  2
PRODUCT
 70
     0
1001
ACDBATTR
1070
     0
1070
     1
  0
ARC
  5
B8F3
  8
0
 10
3903.9574506395629214
 20
229.5117893862141898
 30
0.0
 40
0.6531824356226172
 50
244.1572411163384118
 51
269.537929839836977
  0
ARC
  5
B8F4
  8
0
 10
3903.9469153839609135
 20
229.5117893862141898
 30
0.0
 40
0.6531824356226172
 50
270.462070160163023
 51
295.8427588836614746
  0
ARC
  5
B8F5
  8
0
 10
3903.9469924823711153
 20
229.3201740161993882
 30
0.0
 40
0.4054036528596989
 50
232.6214858110539865
 51
270.7121019948241951
  0
ARC
  5
B8F6
  8
0
 10
3903.7739974725532193
 20
229.0979135106045135
 30
0.0
 40
0.1237906563468106
 50
162.5291791066204894
 51
233.7970619484464976
  0
ARC
  5
B8F7
  8
0
 10
3903.8224771318928106
 20
229.054979081049396
 30
0.0
 40
0.1848188622273377
 50
108.4826069084570008
 51
154.3170326982144047
  0
ARC
  5
B8F8
  8
0
 10
3903.955551732396998
 20
228.7528905961727901
 30
0.0
 40
0.5144141090574896
 50
90.3828485627425522
 51
111.8754052154193062
  0
ARC
  5
B8F9
  8
0
 10
3903.9502692961827961
 20
229.3070152424369041
 30
0.0
 40
0.3663735228555722
 50
234.4279338378711088
 51
270.3490796990859053
  0
ARC
  5
B8FA
  8
0
 10
3903.8068458422171716
 20
229.1040746248538085
 30
0.0
 40
0.1178798387947407
 50
188.1664349037673958
 51
233.7486491574624949
  0
ARC
  5
B8FB
  8
0
 10
3903.7834965462980108
 20
229.1007239012940033
 30
0.0
 40
0.0942913465092771
 50
129.0684283971270929
 51
188.1664349037673958
  0
ARC
  5
B8FC
  8
0
 10
3903.9510675538958822
 20
228.8869875711770021
 30
0.0
 40
0.3658752085760411
 50
89.8564497797701449
 51
128.3471413641852905
  0
ARC
  5
B8FD
  8
0
 10
3903.9573567577708673
 20
229.3202057555922977
 30
0.0
 40
0.4054390631882589
 50
269.2473426354254116
 51
307.3776759624993247
  0
ARC
  5
B8FE
  8
0
 10
3904.1271387874821812
 20
229.0989730996753053
 30
0.0
 40
0.1265688145017628
 50
307.0994489848872036
 51
16.5743099602383097
  0
ARC
  5
B8FF
  8
0
 10
3904.0818888916310243
 20
229.054979081049396
 30
0.0
 40
0.1848188622273377
 50
25.6829673017855811
 51
71.517393091542985
  0
ARC
  5
B900
  8
0
 10
3903.9488215778242193
 20
228.7529151906817049
 30
0.0
 40
0.5143885705045774
 50
68.1243272762341974
 51
89.6332159866041849
  0
ARC
  5
B901
  8
0
 10
3903.9541122894779619
 20
229.30698419129439
 30
0.0
 40
0.3663392134713094
 50
269.7480618437169255
 51
305.5729115514666887
  0
ARC
  5
B902
  8
0
 10
3904.097520181307118
 20
229.1040746248538085
 30
0.0
 40
0.1178798387947407
 50
306.2513508425375903
 51
351.8335650962325758
  0
ARC
  5
B903
  8
0
 10
3904.1208694772271883
 20
229.1007239012940033
 30
0.0
 40
0.0942913465092771
 50
351.8335650962325758
 51
50.9315716028729284
  0
ARC
  5
B904
  8
0
 10
3903.9532874271931178
 20
228.8869612486934102
 30
0.0
 40
0.3659027034874895
 50
51.6540598034772671
 51
90.2040654968361792
  0
LINE
  5
B905
  8
0
 10
3903.6894247463278589
 20
229.1071546459479009
 30
0.0
 11
3903.6896019408382017
 21
229.1502974074556107
 31
0.0
  0
ARC
  5
B906
  8
0
 10
3903.7960256083329114
 20
229.1402488238506123
 30
0.0
 40
0.1068970113506239
 50
146.5817139785903009
 51
174.6060911082090001
  0
ARC
  5
B907
  8
0
 10
3903.7749355067271608
 20
229.1565948158284129
 30
0.0
 40
0.0993434924725581
 50
173.4028168015184974
 51
210.5254468494813125
  0
LINE
  5
B908
  8
0
 10
3902.8621830118140679
 20
222.5604702283580139
 30
0.0
 11
3905.0421830117120408
 21
222.5604702283580139
 31
0.0
  0
LINE
  5
B909
  8
0
 10
3903.0421830118129947
 20
222.9104702283580934
 30
0.0
 11
3903.0421830118129947
 21
231.9604702642826055
 31
0.0
  0
LINE
  5
B90A
  8
0
 10
3902.8321830118120488
 20
222.5904702283584982
 30
0.0
 11
3902.8321830118120488
 21
222.7004702283580002
 31
0.0
  0
LINE
  5
B90B
  8
0
 10
3902.8621830118131584
 20
222.7304702283580013
 30
0.0
 11
3905.0421830117120408
 21
222.7304702283580013
 31
0.0
  0
ARC
  5
B90C
  8
0
 10
3902.8621830118131584
 20
222.5904702283579866
 30
0.0
 40
0.0300000000000011
 50
180.0000000000015916
 51
270.0000000021365167
  0
ARC
  5
B90D
  8
0
 10
3902.8621830118131584
 20
222.7004702283580002
 30
0.0
 40
0.0300000000000003
 50
90.0
 51
180.0
  0
ARC
  5
B90E
  8
0
 10
3902.8621830118131584
 20
222.9104702283580934
 30
0.0
 40
0.1799999999999997
 50
270.0
 51
0.0
  0
LINE
  5
B90F
  8
0
 10
3903.0421830118129947
 20
231.9604702642826055
 30
0.0
 11
3904.862183011713114
 21
231.9604702642826055
 31
0.0
  0
LINE
  5
B910
  8
0
 10
3903.0736635575121909
 20
231.9816905923825914
 30
0.0
 11
3904.8307024660130082
 21
231.9816905923825914
 31
0.0
  0
ARC
  5
B911
  8
0
 10
3903.0737144826680378
 20
232.011442743595012
 30
0.0
 40
0.0297521947953323
 50
177.5560240044181057
 51
269.9019299954480857
  0
LINE
  5
B912
  8
0
 10
3903.0439893506131739
 20
232.0127114513825859
 30
0.0
 11
3903.0699521665901557
 21
232.7578063638596007
 31
0.0
  0
LINE
  5
B913
  8
0
 10
3903.0999283288638253
 20
232.786759355866991
 30
0.0
 11
3904.8044376946609191
 21
232.786759355866991
 31
0.0
  0
LINE
  5
B914
  8
0
 10
3903.7519737732959584
 20
233.3616921901831063
 30
0.0
 11
3904.1523922502319692
 21
233.3616921901831063
 31
0.0
  0
LINE
  5
B915
  8
0
 10
3903.5471830118131038
 20
230.1104702642826112
 30
0.0
 11
3903.5471830118131038
 21
229.0944869122693888
 31
0.0
  0
ARC
  5
B916
  8
0
 10
3903.0999340012040193
 20
232.7567592418832021
 30
0.0
 40
0.0300001145201206
 50
90.0108333305278165
 51
177.999745684456002
  0
LINE
  5
B917
  8
0
 10
3903.7325070604128996
 20
233.3420397850825907
 30
0.0
 11
3903.7285779972180535
 21
233.1169536208240913
 31
0.0
  0
ARC
  5
B918
  8
0
 10
3903.3786313085129223
 20
233.12306222658259
 30
0.0
 40
0.3500000000000004
 50
286.0024471922089901
 51
358.9999568569991766
  0
ARC
  5
B919
  8
0
 10
3903.7519667063111228
 20
233.3422316002233003
 30
0.0
 40
0.0194605912429415
 50
89.9791934199164984
 51
180.5647503631012114
  0
ARC
  5
B91A
  8
0
 10
3903.8000303925418848
 20
229.1665203367413142
 30
0.0
 40
0.2739647461260457
 50
214.4960867788778955
 51
242.3109785801829901
  0
ARC
  5
B91B
  8
0
 10
3903.7211598946760205
 20
229.1051452379965951
 30
0.0
 40
0.1743030569956239
 50
183.5057232942540111
 51
212.551406229652514
  0
ARC
  5
B91C
  8
0
 10
3903.7421495518001393
 20
229.0734997146201977
 30
0.0
 40
0.1960928713124855
 50
121.6872261349007971
 51
173.8560467059938901
  0
ARC
  5
B91D
  8
0
 10
3903.9553274483669156
 20
228.6978578778914084
 30
0.0
 40
0.6279174369079698
 50
90.2869225933010853
 51
120.2345240949989034
  0
ARC
  5
B91E
  8
0
 10
3903.770802018680115
 20
229.3561307348595903
 30
0.0
 40
0.2266904358740153
 50
123.5253024735027054
 51
170.5575900999940018
  0
ARC
  5
B91F
  8
0
 10
3903.9499950633048684
 20
229.0099597604682913
 30
0.0
 40
0.6156635993978088
 50
89.7963815361993198
 51
119.6313994339508042
  0
CIRCLE
  5
B920
  8
0
 10
3903.6914810389421291
 20
232.6016430001542972
 30
0.0
 40
0.0489055340225022
  0
LINE
  5
B921
  8
0
 10
3904.862183011713114
 20
222.9104702283580934
 30
0.0
 11
3904.862183011713114
 21
231.9604702642826055
 31
0.0
  0
LINE
  5
B922
  8
0
 10
3905.0721830117131503
 20
222.5904702283584982
 30
0.0
 11
3905.0721830117131503
 21
222.7004702283580002
 31
0.0
  0
ARC
  5
B923
  8
0
 10
3905.0421830117120408
 20
222.5904702283579866
 30
0.0
 40
0.0300000000000011
 50
269.9999999978634833
 51
359.9999999999984084
  0
ARC
  5
B924
  8
0
 10
3905.0421830117120408
 20
222.7004702283580002
 30
0.0
 40
0.0300000000000003
 50
0.0
 51
90.0
  0
ARC
  5
B925
  8
0
 10
3905.0421830117120408
 20
222.9104702283580934
 30
0.0
 40
0.1799999999999997
 50
180.0
 51
270.0
  0
ARC
  5
B926
  8
0
 10
3904.8306515408580708
 20
232.011442743595012
 30
0.0
 40
0.0297521947953323
 50
270.0980700045519143
 51
2.4439759955819351
  0
LINE
  5
B927
  8
0
 10
3904.8603766729120252
 20
232.0127114513825859
 30
0.0
 11
3904.8344138569350434
 21
232.7578063638596007
 31
0.0
  0
LINE
  5
B928
  8
0
 10
3904.3571830117130048
 20
230.1104702642826112
 30
0.0
 11
3904.3571830117130048
 21
229.0944869122693888
 31
0.0
  0
ARC
  5
B929
  8
0
 10
3904.8044320223211798
 20
232.7567592418832021
 30
0.0
 40
0.0300001145201206
 50
2.0002543155439798
 51
89.9891666694721977
  0
ARC
  5
B92A
  8
0
 10
3904.1043356309842238
 20
229.1665203367413142
 30
0.0
 40
0.2739647461260457
 50
297.6890214198169815
 51
325.5039132211206834
  0
ARC
  5
B92B
  8
0
 10
3904.1832061288500881
 20
229.1051452379965951
 30
0.0
 40
0.1743030569956239
 50
327.4485937703461786
 51
356.4942767057460173
  0
ARC
  5
B92C
  8
0
 10
3904.1622164717259693
 20
229.0734997146201977
 30
0.0
 40
0.1960928713124855
 50
6.1439532940060539
 51
58.31277386509921
  0
ARC
  5
B92D
  8
0
 10
3903.9490385751578287
 20
228.6978578778914084
 30
0.0
 40
0.6279174369079698
 50
59.7654759050010327
 51
89.7130774066989147
  0
ARC
  5
B92E
  8
0
 10
3904.1335640048441746
 20
229.3561307348595903
 30
0.0
 40
0.2266904358740153
 50
9.4424099000059734
 51
56.4746975264972875
  0
ARC
  5
B92F
  8
0
 10
3903.9543709602207855
 20
229.0099597604682913
 30
0.0
 40
0.6156635993978088
 50
60.3686005660492029
 51
90.2036184638006659
  0
ARC
  5
B930
  8
0
 10
3903.9521830117619174
 20
230.110470264332605
 30
0.0
 40
0.4049999999500012
 50
359.9999999929261207
 51
180.0000000070739077
  0
ARC
  5
B931
  8
0
 10
3903.1771830118132129
 20
232.0104702642825885
 30
0.0
 40
0.060000000000014
 50
303.4872822177928811
 51
331.3151968521846129
  0
ARC
  5
B932
  8
0
 10
3904.7271830117128957
 20
232.0104702642825885
 30
0.0
 40
0.060000000000014
 50
208.6848031478153018
 51
236.5127177822070905
  0
CIRCLE
  5
B933
  8
0
 10
3904.2128849845839795
 20
232.6016430001542972
 30
0.0
 40
0.0489055340225022
  0
ARC
  5
B934
  8
0
 10
3904.5302486128039163
 20
233.1296913196476908
 30
0.0
 40
0.3576254181505631
 50
182.041160225448607
 51
253.5189953507673124
  0
ARC
  5
B935
  8
0
 10
3904.1516582378289968
 20
233.3404537300868071
 30
0.0
 40
0.0212511402392907
 50
4.2801860678810817
 51
88.0206154154203659
  0
CIRCLE
  5
B936
  8
0
 10
3903.9528501087002041
 20
234.0260245986069094
 30
0.0
 40
0.1795540642176943
  0
CIRCLE
  5
B937
  8
0
 10
3903.9528501087002041
 20
234.0266921879631923
 30
0.0
 40
0.2200000000003635
  0
LINE
  5
B938
  8
0
 10
3904.1728501086990946
 20
233.3420397850825907
 30
0.0
 11
3904.1728501086990946
 21
233.1169536208240913
 31
0.0
  0
LINE
  5
B939
  8
0
 10
3904.214941277197795
 20
229.1071546459351964
 30
0.0
 11
3904.2147640826888164
 21
229.1502974074556107
 31
0.0
  0
ARC
  5
B93A
  8
0
 10
3904.1083404151941068
 20
229.1402488238506123
 30
0.0
 40
0.1068970113506239
 50
5.3939088917910132
 51
33.4182860200822702
  0
ARC
  5
B93B
  8
0
 10
3904.1294305167998573
 20
229.1565948158284129
 30
0.0
 40
0.0993434924725581
 50
329.47455314928078
 51
6.5971831972551334
  0
ARC
  5
B93C
  8
0
 10
3903.8262923788051921
 20
229.2064280227496909
 30
0.0
 40
0.0043878299172106
 50
143.0516482314201028
 51
215.86406950997781
  0
ARC
  5
B93D
  8
0
 10
3903.8298968226367833
 20
229.2090337617057116
 30
0.0
 40
0.0088355136791561
 50
215.86406950997781
 51
246.4020062103193993
  0
ARC
  5
B93E
  8
0
 10
3903.8344266744279594
 20
229.2194031724733065
 30
0.0
 40
0.0201511770229849
 50
246.4020062103193993
 51
276.2529640367932871
  0
ARC
  5
B93F
  8
0
 10
3903.8345753039211559
 20
229.2180466946929016
 30
0.0
 40
0.0187865808573981
 50
276.2529640367932871
 51
298.7024437722682819
  0
ARC
  5
B940
  8
0
 10
3903.8403494331259935
 20
229.207501099759412
 30
0.0
 40
0.0067636801850961
 50
298.7024437722691914
 51
341.0904814616002909
  0
ARC
  5
B941
  8
0
 10
3903.8431674255198232
 20
229.2065357622539921
 30
0.0
 40
0.0037849291664018
 50
341.0904814616018257
 51
37.6318903552018327
  0
ARC
  5
B942
  8
0
 10
3903.8375578847198994
 20
229.2022108582619921
 30
0.0
 40
0.0108681305979638
 50
37.6318903552018327
 51
72.5285099215734306
  0
ARC
  5
B943
  8
0
 10
3903.8343222461799087
 20
229.1919308904170123
 30
0.0
 40
0.0216452867935429
 50
72.5285099215734306
 51
99.1390965128223201
  0
ARC
  5
B944
  8
0
 10
3903.8322364201958408
 20
229.2008565177362129
 30
0.0
 40
0.0125181257606922
 50
96.2008492872173804
 51
139.0219651063250126
  0
ARC
  5
B945
  8
0
 10
3903.8851674733550681
 20
229.225817016019306
 30
0.0
 40
0.0043878299172106
 50
143.0516482314201028
 51
215.86406950997781
  0
ARC
  5
B946
  8
0
 10
3903.888771917187114
 20
229.2284227549752984
 30
0.0
 40
0.0088355136791561
 50
215.86406950997781
 51
246.4020062103193993
  0
ARC
  5
B947
  8
0
 10
3903.8933017689769258
 20
229.2387921657428933
 30
0.0
 40
0.0201511770229849
 50
246.4020062103193993
 51
276.2529640367932871
  0
ARC
  5
B948
  8
0
 10
3903.8934503984701223
 20
229.2374356879624884
 30
0.0
 40
0.0187865808573981
 50
276.2529640367932871
 51
298.7024437722682819
  0
ARC
  5
B949
  8
0
 10
3903.8992245276758695
 20
229.2268900930289988
 30
0.0
 40
0.0067636801850961
 50
298.7024437722691914
 51
341.0904814616002909
  0
ARC
  5
B94A
  8
0
 10
3903.9020425200701538
 20
229.2259247555236072
 30
0.0
 40
0.0037849291664018
 50
341.0904814616018257
 51
37.6318903552018327
  0
ARC
  5
B94B
  8
0
 10
3903.8964329792711396
 20
229.2215998515316926
 30
0.0
 40
0.0108681305979638
 50
37.6318903552018327
 51
72.5285099215734306
  0
ARC
  5
B94C
  8
0
 10
3903.8931973407288751
 20
229.211319883686599
 30
0.0
 40
0.0216452867935429
 50
72.5285099215734306
 51
99.1390965128223201
  0
ARC
  5
B94D
  8
0
 10
3903.8911115147461715
 20
229.2202455110059134
 30
0.0
 40
0.0125181257606922
 50
96.2008492872173804
 51
139.0219651063250126
  0
ARC
  5
B94E
  8
0
 10
3903.8851689173880004
 20
229.1873095214538125
 30
0.0
 40
0.0043878299172106
 50
143.0516482314201028
 51
215.86406950997781
  0
ARC
  5
B94F
  8
0
 10
3903.8887733612200464
 20
229.1899152604098049
 30
0.0
 40
0.0088355136791561
 50
215.86406950997781
 51
246.4020062103193993
  0
ARC
  5
B950
  8
0
 10
3903.8933032130112224
 20
229.2002846711773998
 30
0.0
 40
0.0201511770229849
 50
246.4020062103193993
 51
276.2529640367932871
  0
ARC
  5
B951
  8
0
 10
3903.8934518425048736
 20
229.1989281933969949
 30
0.0
 40
0.0187865808573981
 50
276.2529640367932871
 51
298.7024437722682819
  0
ARC
  5
B952
  8
0
 10
3903.899225971710166
 20
229.1883825984635052
 30
0.0
 40
0.0067636801850961
 50
298.7024437722691914
 51
341.0904814616002909
  0
ARC
  5
B953
  8
0
 10
3903.9020439641039957
 20
229.1874172609581137
 30
0.0
 40
0.0037849291664018
 50
341.0904814616018257
 51
37.6318903552018327
  0
ARC
  5
B954
  8
0
 10
3903.896434423304072
 20
229.1830923569661138
 30
0.0
 40
0.0108681305979638
 50
37.6318903552018327
 51
72.5285099215734306
  0
ARC
  5
B955
  8
0
 10
3903.8931987847631717
 20
229.1728123891211055
 30
0.0
 40
0.0216452867935429
 50
72.5285099215734306
 51
99.1390965128223201
  0
ARC
  5
B956
  8
0
 10
3903.8911129587800133
 20
229.1817380164403062
 30
0.0
 40
0.0125181257606922
 50
96.2008492872173804
 51
139.0219651063250126
  0
ARC
  5
B957
  8
0
 10
3903.8258306001948768
 20
229.1671236270832992
 30
0.0
 40
0.0043878299172106
 50
143.0516482314201028
 51
215.86406950997781
  0
ARC
  5
B958
  8
0
 10
3903.8294350440269227
 20
229.1697293660392916
 30
0.0
 40
0.0088355136791561
 50
215.86406950997781
 51
246.4020062103193993
  0
ARC
  5
B959
  8
0
 10
3903.8339648958180987
 20
229.1800987768068865
 30
0.0
 40
0.0201511770229849
 50
246.4020062103193993
 51
276.2529640367932871
  0
ARC
  5
B95A
  8
0
 10
3903.8341135253108405
 20
229.17874229902651
 30
0.0
 40
0.0187865808573981
 50
276.2529640367932871
 51
298.7024437722682819
  0
ARC
  5
B95B
  8
0
 10
3903.8398876545161329
 20
229.1681967040929919
 30
0.0
 40
0.0067636801850961
 50
298.7024437722691914
 51
341.0904814616002909
  0
ARC
  5
B95C
  8
0
 10
3903.842705646910872
 20
229.1672313665876004
 30
0.0
 40
0.0037849291664018
 50
341.0904814616018257
 51
37.6318903552018327
  0
ARC
  5
B95D
  8
0
 10
3903.8370961061109483
 20
229.1629064625956005
 30
0.0
 40
0.0108681305979638
 50
37.6318903552018327
 51
72.5285099215734306
  0
ARC
  5
B95E
  8
0
 10
3903.8338604675700481
 20
229.1526264947505922
 30
0.0
 40
0.0216452867935429
 50
72.5285099215734306
 51
99.1390965128223201
  0
ARC
  5
B95F
  8
0
 10
3903.8317746415868896
 20
229.1615521220697929
 30
0.0
 40
0.0125181257606922
 50
96.2008492872173804
 51
139.0219651063250126
  0
ARC
  5
B960
  8
0
 10
3903.7667146642152147
 20
229.1866345357115051
 30
0.0
 40
0.0043878299172106
 50
143.0516482314201028
 51
215.86406950997781
  0
ARC
  5
B961
  8
0
 10
3903.7703191080481702
 20
229.1892402746674122
 30
0.0
 40
0.0088355136791561
 50
215.86406950997781
 51
246.4020062103193993
  0
ARC
  5
B962
  8
0
 10
3903.774848959837982
 20
229.1996096854350071
 30
0.0
 40
0.0201511770229849
 50
246.4020062103193993
 51
276.2529640367932871
  0
ARC
  5
B963
  8
0
 10
3903.774997589332088
 20
229.1982532076546022
 30
0.0
 40
0.0187865808573981
 50
276.2529640367932871
 51
298.7024437722682819
  0
ARC
  5
B964
  8
0
 10
3903.7807717185369256
 20
229.1877076127211126
 30
0.0
 40
0.0067636801850961
 50
298.7024437722691914
 51
341.0904814616002909
  0
ARC
  5
B965
  8
0
 10
3903.78358971093121
 20
229.1867422752158063
 30
0.0
 40
0.0037849291664018
 50
341.0904814616018257
 51
37.6318903552018327
  0
ARC
  5
B966
  8
0
 10
3903.7779801701308315
 20
229.1824173712238064
 30
0.0
 40
0.0108681305979638
 50
37.6318903552018327
 51
72.5285099215734306
  0
ARC
  5
B967
  8
0
 10
3903.7747445315899313
 20
229.1721374033787129
 30
0.0
 40
0.0216452867935429
 50
72.5285099215734306
 51
99.1390965128223201
  0
ARC
  5
B968
  8
0
 10
3903.7726587056067729
 20
229.1810630306979988
 30
0.0
 40
0.0125181257606922
 50
96.2008492872173804
 51
139.0219651063250126
  0
ARC
  5
B969
  8
0
 10
3903.7676664776649886
 20
229.1481270411458979
 30
0.0
 40
0.0043878299172106
 50
143.0516482314201028
 51
215.86406950997781
  0
ARC
  5
B96A
  8
0
 10
3903.7712709214970346
 20
229.1507327801018903
 30
0.0
 40
0.0088355136791561
 50
215.86406950997781
 51
246.4020062103193993
  0
ARC
  5
B96B
  8
0
 10
3903.7758007732882106
 20
229.1611021908695136
 30
0.0
 40
0.0201511770229849
 50
246.4020062103193993
 51
276.2529640367932871
  0
ARC
  5
B96C
  8
0
 10
3903.7759494027818619
 20
229.1597457130891087
 30
0.0
 40
0.0187865808573981
 50
276.2529640367932871
 51
298.7024437722682819
  0
ARC
  5
B96D
  8
0
 10
3903.7817235319871543
 20
229.1492001181555906
 30
0.0
 40
0.0067636801850961
 50
298.7024437722691914
 51
341.0904814616002909
  0
ARC
  5
B96E
  8
0
 10
3903.7845415243800744
 20
229.1482347806501991
 30
0.0
 40
0.0037849291664018
 50
341.0904814616018257
 51
37.6318903552018327
  0
ARC
  5
B96F
  8
0
 10
3903.7789319835810602
 20
229.1439098766581992
 30
0.0
 40
0.0108681305979638
 50
37.6318903552018327
 51
72.5285099215734306
  0
ARC
  5
B970
  8
0
 10
3903.7756963450387957
 20
229.1336299088131909
 30
0.0
 40
0.0216452867935429
 50
72.5285099215734306
 51
99.1390965128223201
  0
ARC
  5
B971
  8
0
 10
3903.773610519056092
 20
229.1425555361323916
 30
0.0
 40
0.0125181257606922
 50
96.2008492872173804
 51
139.0219651063250126
  0
ARC
  5
B972
  8
0
 10
3903.7085383649668984
 20
229.1282546831550064
 30
0.0
 40
0.0043878299172106
 50
143.0516482314201028
 51
215.86406950997781
  0
ARC
  5
B973
  8
0
 10
3903.7121428087989443
 20
229.1308604221109988
 30
0.0
 40
0.0088355136791561
 50
215.86406950997781
 51
246.4020062103193993
  0
ARC
  5
B974
  8
0
 10
3903.7166726605892109
 20
229.1412298328785937
 30
0.0
 40
0.0201511770229849
 50
246.4020062103193993
 51
276.2529640367932871
  0
ARC
  5
B975
  8
0
 10
3903.7168212900828621
 20
229.1398733550981888
 30
0.0
 40
0.0187865808573981
 50
276.2529640367932871
 51
298.7024437722682819
  0
ARC
  5
B976
  8
0
 10
3903.722595419289064
 20
229.1293277601646992
 30
0.0
 40
0.0067636801850961
 50
298.7024437722691914
 51
341.0904814616002909
  0
ARC
  5
B977
  8
0
 10
3903.7254134116828936
 20
229.1283624226593076
 30
0.0
 40
0.0037849291664018
 50
341.0904814616018257
 51
37.6318903552018327
  0
ARC
  5
B978
  8
0
 10
3903.7198038708829699
 20
229.1240375186673077
 30
0.0
 40
0.0108681305979638
 50
37.6318903552018327
 51
72.5285099215734306
  0
ARC
  5
B979
  8
0
 10
3903.7165682323420697
 20
229.1137575508222994
 30
0.0
 40
0.0216452867935429
 50
72.5285099215734306
 51
99.1390965128223201
  0
ARC
  5
B97A
  8
0
 10
3903.7144824063589112
 20
229.1226831781415001
 30
0.0
 40
0.0125181257606922
 50
96.2008492872173804
 51
139.0219651063250126
  0
ARC
  5
B97B
  8
0
 10
3903.7082156429150928
 20
229.0894493862153922
 30
0.0
 40
0.0043878299172106
 50
143.0516482314201028
 51
215.86406950997781
  0
ARC
  5
B97C
  8
0
 10
3903.7118200867471387
 20
229.0920551251712993
 30
0.0
 40
0.0088355136791561
 50
215.86406950997781
 51
246.4020062103193993
  0
ARC
  5
B97D
  8
0
 10
3903.7163499385369505
 20
229.1024245359388942
 30
0.0
 40
0.0201511770229849
 50
246.4020062103193993
 51
276.2529640367932871
  0
ARC
  5
B97E
  8
0
 10
3903.716498568031966
 20
229.1010680581584893
 30
0.0
 40
0.0187865808573981
 50
276.2529640367932871
 51
298.7024437722682819
  0
ARC
  5
B97F
  8
0
 10
3903.7222726972358942
 20
229.0905224632249997
 30
0.0
 40
0.0067636801850961
 50
298.7024437722691914
 51
341.0904814616002909
  0
ARC
  5
B980
  8
0
 10
3903.7250906896301785
 20
229.0895571257196934
 30
0.0
 40
0.0037849291664018
 50
341.0904814616018257
 51
37.6318903552018327
  0
ARC
  5
B981
  8
0
 10
3903.7194811488311643
 20
229.0852322217276082
 30
0.0
 40
0.0108681305979638
 50
37.6318903552018327
 51
72.5285099215734306
  0
ARC
  5
B982
  8
0
 10
3903.7162455102898093
 20
229.0749522538826
 30
0.0
 40
0.0216452867935429
 50
72.5285099215734306
 51
99.1390965128223201
  0
ARC
  5
B983
  8
0
 10
3903.7141596843061961
 20
229.0838778812018859
 30
0.0
 40
0.0125181257606922
 50
96.2008492872173804
 51
139.0219651063250126
  0
ARC
  5
B984
  8
0
 10
3903.7675996228008444
 20
229.1090132773294101
 30
0.0
 40
0.0043878299172106
 50
143.0516482314201028
 51
215.86406950997781
  0
ARC
  5
B985
  8
0
 10
3903.7712040666319808
 20
229.1116190162854025
 30
0.0
 40
0.0088355136791561
 50
215.86406950997781
 51
246.4020062103193993
  0
ARC
  5
B986
  8
0
 10
3903.7757339184217926
 20
229.1219884270529974
 30
0.0
 40
0.0201511770229849
 50
246.4020062103193993
 51
276.2529640367932871
  0
ARC
  5
B987
  8
0
 10
3903.7758825479168081
 20
229.1206319492725072
 30
0.0
 40
0.0187865808573981
 50
276.2529640367932871
 51
298.7024437722682819
  0
ARC
  5
B988
  8
0
 10
3903.781656677121191
 20
229.1100863543391029
 30
0.0
 40
0.0067636801850961
 50
298.7024437722691914
 51
341.0904814616002909
  0
ARC
  5
B989
  8
0
 10
3903.7844746695159301
 20
229.1091210168337113
 30
0.0
 40
0.0037849291664018
 50
341.0904814616018257
 51
37.6318903552018327
  0
ARC
  5
B98A
  8
0
 10
3903.7788651287160064
 20
229.1047961128417114
 30
0.0
 40
0.0108681305979638
 50
37.6318903552018327
 51
72.5285099215734306
  0
ARC
  5
B98B
  8
0
 10
3903.7756294901751062
 20
229.0945161449967031
 30
0.0
 40
0.0216452867935429
 50
72.5285099215734306
 51
99.1390965128223201
  0
ARC
  5
B98C
  8
0
 10
3903.7735436641919478
 20
229.1034417723159038
 30
0.0
 40
0.0125181257606922
 50
96.2008492872173804
 51
139.0219651063250126
  0
ARC
  5
B98D
  8
0
 10
3903.826167294249899
 20
229.1282603554340085
 30
0.0
 40
0.0043878299172106
 50
143.0516482314201028
 51
215.86406950997781
  0
ARC
  5
B98E
  8
0
 10
3903.8297717380828544
 20
229.1308660943900009
 30
0.0
 40
0.0088355136791561
 50
215.86406950997781
 51
246.4020062103193993
  0
ARC
  5
B98F
  8
0
 10
3903.834301589873121
 20
229.1412355051575958
 30
0.0
 40
0.0201511770229849
 50
246.4020062103193993
 51
276.2529640367932871
  0
ARC
  5
B990
  8
0
 10
3903.834450219367227
 20
229.1398790273771908
 30
0.0
 40
0.0187865808573981
 50
276.2529640367932871
 51
298.7024437722682819
  0
ARC
  5
B991
  8
0
 10
3903.8402243485720646
 20
229.1293334324437012
 30
0.0
 40
0.0067636801850961
 50
298.7024437722691914
 51
341.0904814616002909
  0
ARC
  5
B992
  8
0
 10
3903.8430423409658943
 20
229.1283680949383097
 30
0.0
 40
0.0037849291664018
 50
341.0904814616018257
 51
37.6318903552018327
  0
ARC
  5
B993
  8
0
 10
3903.8374328001659705
 20
229.1240431909463098
 30
0.0
 40
0.0108681305979638
 50
37.6318903552018327
 51
72.5285099215734306
  0
ARC
  5
B994
  8
0
 10
3903.8341971616250703
 20
229.1137632231013015
 30
0.0
 40
0.0216452867935429
 50
72.5285099215734306
 51
99.1390965128223201
  0
ARC
  5
B995
  8
0
 10
3903.8321113356419119
 20
229.1226888504205021
 30
0.0
 40
0.0125181257606922
 50
96.2008492872173804
 51
139.0219651063250126
  0
ARC
  5
B996
  8
0
 10
3903.8262793434719242
 20
229.0893199902492086
 30
0.0
 40
0.0043878299172106
 50
143.0516482314201028
 51
215.86406950997781
  0
ARC
  5
B997
  8
0
 10
3903.8298837873048797
 20
229.0919257292052009
 30
0.0
 40
0.0088355136791561
 50
215.86406950997781
 51
246.4020062103193993
  0
ARC
  5
B998
  8
0
 10
3903.8344136390951462
 20
229.1022951399727106
 30
0.0
 40
0.0201511770229849
 50
246.4020062103193993
 51
276.2529640367932871
  0
ARC
  5
B999
  8
0
 10
3903.834562268587888
 20
229.1009386621923056
 30
0.0
 40
0.0187865808573981
 50
276.2529640367932871
 51
298.7024437722682819
  0
ARC
  5
B99A
  8
0
 10
3903.8403363977940899
 20
229.0903930672587876
 30
0.0
 40
0.0067636801850961
 50
298.7024437722691914
 51
341.0904814616002909
  0
ARC
  5
B99B
  8
0
 10
3903.84315439018701
 20
229.0894277297535098
 30
0.0
 40
0.0037849291664018
 50
341.0904814616018257
 51
37.6318903552018327
  0
ARC
  5
B99C
  8
0
 10
3903.8375448493879958
 20
229.0851028257615098
 30
0.0
 40
0.0108681305979638
 50
37.6318903552018327
 51
72.5285099215734306
  0
ARC
  5
B99D
  8
0
 10
3903.8343092108470955
 20
229.0748228579165016
 30
0.0
 40
0.0216452867935429
 50
72.5285099215734306
 51
99.1390965128223201
  0
ARC
  5
B99E
  8
0
 10
3903.8322233848639371
 20
229.0837484852357022
 30
0.0
 40
0.0125181257606922
 50
96.2008492872173804
 51
139.0219651063250126
  0
ARC
  5
B99F
  8
0
 10
3903.7669903575979333
 20
229.0700440407082112
 30
0.0
 40
0.0043878299172106
 50
143.0516482314201028
 51
215.86406950997781
  0
ARC
  5
B9A0
  8
0
 10
3903.7705948014299793
 20
229.0726497796642036
 30
0.0
 40
0.0088355136791561
 50
215.86406950997781
 51
246.4020062103193993
  0
ARC
  5
B9A1
  8
0
 10
3903.7751246532197911
 20
229.0830191904317985
 30
0.0
 40
0.0201511770229849
 50
246.4020062103193993
 51
276.2529640367932871
  0
ARC
  5
B9A2
  8
0
 10
3903.7752732827138971
 20
229.0816627126513936
 30
0.0
 40
0.0187865808573981
 50
276.2529640367932871
 51
298.7024437722682819
  0
ARC
  5
B9A3
  8
0
 10
3903.7810474119191895
 20
229.071117117717904
 30
0.0
 40
0.0067636801850961
 50
298.7024437722691914
 51
341.0904814616002909
  0
ARC
  5
B9A4
  8
0
 10
3903.7838654043130191
 20
229.0701517802125124
 30
0.0
 40
0.0037849291664018
 50
341.0904814616018257
 51
37.6318903552018327
  0
ARC
  5
B9A5
  8
0
 10
3903.7782558635130954
 20
229.0658268762205125
 30
0.0
 40
0.0108681305979638
 50
37.6318903552018327
 51
72.5285099215734306
  0
ARC
  5
B9A6
  8
0
 10
3903.7750202249731046
 20
229.0555469083755042
 30
0.0
 40
0.0216452867935429
 50
72.5285099215734306
 51
99.1390965128223201
  0
ARC
  5
B9A7
  8
0
 10
3903.7729343989890367
 20
229.0644725356947049
 30
0.0
 40
0.0125181257606922
 50
96.2008492872173804
 51
139.0219651063250126
  0
ARC
  5
B9A8
  8
0
 10
3903.7086018244008301
 20
229.0502398118881899
 30
0.0
 40
0.0043878299172106
 50
143.0516482314201028
 51
215.86406950997781
  0
ARC
  5
B9A9
  8
0
 10
3903.712206268232876
 20
229.052845550844296
 30
0.0
 40
0.0088355136791561
 50
215.86406950997781
 51
246.4020062103193993
  0
ARC
  5
B9AA
  8
0
 10
3903.7167361200240521
 20
229.0632149616118909
 30
0.0
 40
0.0201511770229849
 50
246.4020062103193993
 51
276.2529640367932871
  0
ARC
  5
B9AB
  8
0
 10
3903.7168847495167938
 20
229.0618584838314007
 30
0.0
 40
0.0187865808573981
 50
276.2529640367932871
 51
298.7024437722682819
  0
ARC
  5
B9AC
  8
0
 10
3903.7226588787220862
 20
229.0513128888979111
 30
0.0
 40
0.0067636801850961
 50
298.7024437722691914
 51
341.0904814616002909
  0
ARC
  5
B9AD
  8
0
 10
3903.7254768711159159
 20
229.0503475513926048
 30
0.0
 40
0.0037849291664018
 50
341.0904814616018257
 51
37.6318903552018327
  0
ARC
  5
B9AE
  8
0
 10
3903.7198673303159921
 20
229.0460226474006049
 30
0.0
 40
0.0108681305979638
 50
37.6318903552018327
 51
72.5285099215734306
  0
ARC
  5
B9AF
  8
0
 10
3903.7166316917750919
 20
229.0357426795555114
 30
0.0
 40
0.0216452867935429
 50
72.5285099215734306
 51
99.1390965128223201
  0
ARC
  5
B9B0
  8
0
 10
3903.7145458657919335
 20
229.044668306874712
 30
0.0
 40
0.0125181257606922
 50
96.2008492872173804
 51
139.0219651063250126
  0
ARC
  5
B9B1
  8
0
 10
3903.7672632409680773
 20
229.0308527660496054
 30
0.0
 40
0.0043878299172106
 50
143.0516482314201028
 51
215.86406950997781
  0
ARC
  5
B9B2
  8
0
 10
3903.7708676848010327
 20
229.0334585050055978
 30
0.0
 40
0.0088355136791561
 50
215.86406950997781
 51
246.4020062103193993
  0
ARC
  5
B9B3
  8
0
 10
3903.775397536589935
 20
229.0438279157731074
 30
0.0
 40
0.0201511770229849
 50
246.4020062103193993
 51
276.2529640367932871
  0
ARC
  5
B9B4
  8
0
 10
3903.775546166084041
 20
229.0424714379927025
 30
0.0
 40
0.0187865808573981
 50
276.2529640367932871
 51
298.7024437722682819
  0
ARC
  5
B9B5
  8
0
 10
3903.7813202952897882
 20
229.0319258430592129
 30
0.0
 40
0.0067636801850961
 50
298.7024437722691914
 51
341.0904814616002909
  0
ARC
  5
B9B6
  8
0
 10
3903.7841382876831631
 20
229.0309605055539066
 30
0.0
 40
0.0037849291664018
 50
341.0904814616018257
 51
37.6318903552018327
  0
ARC
  5
B9B7
  8
0
 10
3903.7785287468827846
 20
229.0266356015619067
 30
0.0
 40
0.0108681305979638
 50
37.6318903552018327
 51
72.5285099215734306
  0
ARC
  5
B9B8
  8
0
 10
3903.7752931083427939
 20
229.0163556337168131
 30
0.0
 40
0.0216452867935429
 50
72.5285099215734306
 51
99.1390965128223201
  0
ARC
  5
B9B9
  8
0
 10
3903.7732072823591807
 20
229.0252812610360991
 30
0.0
 40
0.0125181257606922
 50
96.2008492872173804
 51
139.0219651063250126
  0
ARC
  5
B9BA
  8
0
 10
3903.7673877010752221
 20
228.9918020619012111
 30
0.0
 40
0.0043878299172106
 50
143.0516482314201028
 51
175.9449723280582987
  0
ARC
  5
B9BB
  8
0
 10
3903.7755219966979894
 20
229.0047772116247984
 30
0.0
 40
0.0201511770229849
 50
271.9127921912610759
 51
276.2529640367932871
  0
ARC
  5
B9BC
  8
0
 10
3903.7756706261920954
 20
229.0034207338443935
 30
0.0
 40
0.0187865808573981
 50
276.2529640367932871
 51
298.7024437722682819
  0
ARC
  5
B9BD
  8
0
 10
3903.7814447553960235
 20
228.9928751389109038
 30
0.0
 40
0.0067636801850961
 50
298.7024437722691914
 51
341.0904814616002909
  0
ARC
  5
B9BE
  8
0
 10
3903.7842627477912174
 20
228.9919098014055123
 30
0.0
 40
0.0037849291664018
 50
341.0904814616018257
 51
37.6318903552018327
  0
ARC
  5
B9BF
  8
0
 10
3903.778653206990839
 20
228.9875848974135124
 30
0.0
 40
0.0108681305979638
 50
37.6318903552018327
 51
72.5285099215734306
  0
ARC
  5
B9C0
  8
0
 10
3903.7754175684499387
 20
228.9773049295685041
 30
0.0
 40
0.0216452867935429
 50
72.5285099215734306
 51
99.1390965128223201
  0
ARC
  5
B9C1
  8
0
 10
3903.7733317424667803
 20
228.9862305568877048
 30
0.0
 40
0.0125181257606922
 50
96.2008492872173804
 51
139.0219651063250126
  0
ARC
  5
B9C2
  8
0
 10
3903.8263004575887862
 20
228.9722067491437087
 30
0.0
 40
0.0043878299172106
 50
143.0516482314201028
 51
215.86406950997781
  0
ARC
  5
B9C3
  8
0
 10
3903.8299049014208322
 20
228.9748124880997011
 30
0.0
 40
0.0088355136791561
 50
215.86406950997781
 51
246.4020062103193993
  0
ARC
  5
B9C4
  8
0
 10
3903.8344347532120082
 20
228.9851818988672107
 30
0.0
 40
0.0201511770229849
 50
246.4020062103193993
 51
276.2529640367932871
  0
ARC
  5
B9C5
  8
0
 10
3903.8345833827052047
 20
228.9838254210868911
 30
0.0
 40
0.0187865808573981
 50
276.2529640367932871
 51
298.7024437722682819
  0
ARC
  5
B9C6
  8
0
 10
3903.8403575119100424
 20
228.9732798261534015
 30
0.0
 40
0.0067636801850961
 50
298.7024437722691914
 51
341.0904814616002909
  0
ARC
  5
B9C7
  8
0
 10
3903.843175504303872
 20
228.97231448864801
 30
0.0
 40
0.0037849291664018
 50
341.0904814616018257
 51
37.6318903552018327
  0
ARC
  5
B9C8
  8
0
 10
3903.8375659635048578
 20
228.96798958465601
 30
0.0
 40
0.0108681305979638
 50
37.6318903552018327
 51
72.5285099215734306
  0
ARC
  5
B9C9
  8
0
 10
3903.834330324963048
 20
228.9577096168110018
 30
0.0
 40
0.0216452867935429
 50
72.5285099215734306
 51
99.1390965128223201
  0
ARC
  5
B9CA
  8
0
 10
3903.8322444989798896
 20
228.9666352441302024
 30
0.0
 40
0.0125181257606922
 50
96.2008492872173804
 51
139.0219651063250126
  0
ARC
  5
B9CB
  8
0
 10
3903.8264665995379801
 20
229.0115330456800962
 30
0.0
 40
0.0043878299172106
 50
143.0516482314201028
 51
215.86406950997781
  0
ARC
  5
B9CC
  8
0
 10
3903.830071043370026
 20
229.0141387846360885
 30
0.0
 40
0.0088355136791561
 50
215.86406950997781
 51
246.4020062103193993
  0
ARC
  5
B9CD
  8
0
 10
3903.8346008951612021
 20
229.0245081954037119
 30
0.0
 40
0.0201511770229849
 50
246.4020062103193993
 51
276.2529640367932871
  0
ARC
  5
B9CE
  8
0
 10
3903.8347495246548533
 20
229.0231517176233069
 30
0.0
 40
0.0187865808573981
 50
276.2529640367932871
 51
298.7024437722682819
  0
ARC
  5
B9CF
  8
0
 10
3903.8405236538601457
 20
229.0126061226897889
 30
0.0
 40
0.0067636801850961
 50
298.7024437722691914
 51
341.0904814616002909
  0
ARC
  5
B9D0
  8
0
 10
3903.8433416462530658
 20
229.0116407851843974
 30
0.0
 40
0.0037849291664018
 50
341.0904814616018257
 51
37.6318903552018327
  0
ARC
  5
B9D1
  8
0
 10
3903.8377321054540516
 20
229.0073158811923975
 30
0.0
 40
0.0108681305979638
 50
37.6318903552018327
 51
72.5285099215734306
  0
ARC
  5
B9D2
  8
0
 10
3903.8344964669117871
 20
228.9970359133473892
 30
0.0
 40
0.0216452867935429
 50
72.5285099215734306
 51
99.1390965128223201
  0
ARC
  5
B9D3
  8
0
 10
3903.8324106409290835
 20
229.0059615406665898
 30
0.0
 40
0.0125181257606922
 50
96.2008492872173804
 51
139.0219651063250126
  0
ARC
  5
B9D4
  8
0
 10
3903.8260803790240061
 20
229.0504799177572011
 30
0.0
 40
0.0043878299172106
 50
143.0516482314201028
 51
215.86406950997781
  0
ARC
  5
B9D5
  8
0
 10
3903.8296848228560521
 20
229.0530856567131934
 30
0.0
 40
0.0088355136791561
 50
215.86406950997781
 51
246.4020062103193993
  0
ARC
  5
B9D6
  8
0
 10
3903.8342146746467733
 20
229.0634550674807031
 30
0.0
 40
0.0201511770229849
 50
246.4020062103193993
 51
276.2529640367932871
  0
ARC
  5
B9D7
  8
0
 10
3903.8343633041399698
 20
229.0620985897004118
 30
0.0
 40
0.0187865808573981
 50
276.2529640367932871
 51
298.7024437722682819
  0
ARC
  5
B9D8
  8
0
 10
3903.8401374333448075
 20
229.0515529947668085
 30
0.0
 40
0.0067636801850961
 50
298.7024437722691914
 51
341.0904814616002909
  0
ARC
  5
B9D9
  8
0
 10
3903.8429554257390919
 20
229.0505876572615023
 30
0.0
 40
0.0037849291664018
 50
341.0904814616018257
 51
37.6318903552018327
  0
ARC
  5
B9DA
  8
0
 10
3903.8373458849400777
 20
229.0462627532695024
 30
0.0
 40
0.0108681305979638
 50
37.6318903552018327
 51
72.5285099215734306
  0
ARC
  5
B9DB
  8
0
 10
3903.8341102463978132
 20
229.0359827854244941
 30
0.0
 40
0.0216452867935429
 50
72.5285099215734306
 51
99.1390965128223201
  0
ARC
  5
B9DC
  8
0
 10
3903.8320244204151095
 20
229.0449084127436947
 30
0.0
 40
0.0125181257606922
 50
96.2008492872173804
 51
139.0219651063250126
  0
ARC
  5
B9DD
  8
0
 10
3903.8851178298118612
 20
229.1475244194639913
 30
0.0
 40
0.0043878299172106
 50
143.0516482314201028
 51
215.86406950997781
  0
ARC
  5
B9DE
  8
0
 10
3903.8887222736439071
 20
229.1501301584200121
 30
0.0
 40
0.0088355136791561
 50
215.86406950997781
 51
246.4020062103193993
  0
ARC
  5
B9DF
  8
0
 10
3903.8932521254350831
 20
229.1604995691874933
 30
0.0
 40
0.0201511770229849
 50
246.4020062103193993
 51
276.2529640367932871
  0
ARC
  5
B9E0
  8
0
 10
3903.8934007549291891
 20
229.1591430914070884
 30
0.0
 40
0.0187865808573981
 50
276.2529640367932871
 51
298.7024437722682819
  0
ARC
  5
B9E1
  8
0
 10
3903.8991748841331173
 20
229.1485974964735988
 30
0.0
 40
0.0067636801850961
 50
298.7024437722691914
 51
341.0904814616002909
  0
ARC
  5
B9E2
  8
0
 10
3903.9019928765278564
 20
229.1476321589682925
 30
0.0
 40
0.0037849291664018
 50
341.0904814616018257
 51
37.6318903552018327
  0
ARC
  5
B9E3
  8
0
 10
3903.8963833357279327
 20
229.1433072549762926
 30
0.0
 40
0.0108681305979638
 50
37.6318903552018327
 51
72.5285099215734306
  0
ARC
  5
B9E4
  8
0
 10
3903.8931476971870325
 20
229.133027287131199
 30
0.0
 40
0.0216452867935429
 50
72.5285099215734306
 51
99.1390965128223201
  0
ARC
  5
B9E5
  8
0
 10
3903.891061871203874
 20
229.1419529144503997
 30
0.0
 40
0.0125181257606922
 50
96.2008492872173804
 51
139.0219651063250126
  0
ARC
  5
B9E6
  8
0
 10
3903.8850036730818829
 20
229.1088443917915924
 30
0.0
 40
0.0043878299172106
 50
143.0516482314201028
 51
215.86406950997781
  0
ARC
  5
B9E7
  8
0
 10
3903.8886081169139288
 20
229.1114501307476132
 30
0.0
 40
0.0088355136791561
 50
215.86406950997781
 51
246.4020062103193993
  0
ARC
  5
B9E8
  8
0
 10
3903.8931379687041954
 20
229.1218195415150944
 30
0.0
 40
0.0201511770229849
 50
246.4020062103193993
 51
276.2529640367932871
  0
ARC
  5
B9E9
  8
0
 10
3903.8932865981992109
 20
229.1204630637348032
 30
0.0
 40
0.0187865808573981
 50
276.2529640367932871
 51
298.7024437722682819
  0
ARC
  5
B9EA
  8
0
 10
3903.899060727403139
 20
229.1099174688011999
 30
0.0
 40
0.0067636801850961
 50
298.7024437722691914
 51
341.0904814616002909
  0
ARC
  5
B9EB
  8
0
 10
3903.9018787197969687
 20
229.1089521312958937
 30
0.0
 40
0.0037849291664018
 50
341.0904814616018257
 51
37.6318903552018327
  0
ARC
  5
B9EC
  8
0
 10
3903.8962691789979544
 20
229.1046272273038937
 30
0.0
 40
0.0108681305979638
 50
37.6318903552018327
 51
72.5285099215734306
  0
ARC
  5
B9ED
  8
0
 10
3903.8930335404570542
 20
229.0943472594589139
 30
0.0
 40
0.0216452867935429
 50
72.5285099215734306
 51
99.1390965128223201
  0
ARC
  5
B9EE
  8
0
 10
3903.8909477144729863
 20
229.1032728867780861
 30
0.0
 40
0.0125181257606922
 50
96.2008492872173804
 51
139.0219651063250126
  0
ARC
  5
B9EF
  8
0
 10
3903.885167785577778
 20
229.0699883070896874
 30
0.0
 40
0.0043878299172106
 50
143.0516482314201028
 51
215.86406950997781
  0
ARC
  5
B9F0
  8
0
 10
3903.8887722294098239
 20
229.0725940460457934
 30
0.0
 40
0.0088355136791561
 50
215.86406950997781
 51
246.4020062103193993
  0
ARC
  5
B9F1
  8
0
 10
3903.8933020812000905
 20
229.0829634568133031
 30
0.0
 40
0.0201511770229849
 50
246.4020062103193993
 51
276.2529640367932871
  0
ARC
  5
B9F2
  8
0
 10
3903.893450710695106
 20
229.0816069790328982
 30
0.0
 40
0.0187865808573981
 50
276.2529640367932871
 51
298.7024437722682819
  0
ARC
  5
B9F3
  8
0
 10
3903.8992248398990341
 20
229.0710613840994085
 30
0.0
 40
0.0067636801850961
 50
298.7024437722691914
 51
341.0904814616002909
  0
ARC
  5
B9F4
  8
0
 10
3903.9020428322937732
 20
229.0700960465939886
 30
0.0
 40
0.0037849291664018
 50
341.0904814616018257
 51
37.6318903552018327
  0
ARC
  5
B9F5
  8
0
 10
3903.8964332914938495
 20
229.0657711426021024
 30
0.0
 40
0.0108681305979638
 50
37.6318903552018327
 51
72.5285099215734306
  0
ARC
  5
B9F6
  8
0
 10
3903.8931976529529493
 20
229.0554911747570088
 30
0.0
 40
0.0216452867935429
 50
72.5285099215734306
 51
99.1390965128223201
  0
ARC
  5
B9F7
  8
0
 10
3903.8911118269697909
 20
229.0644168020762095
 30
0.0
 40
0.0125181257606922
 50
96.2008492872173804
 51
139.0219651063250126
  0
ARC
  5
B9F8
  8
0
 10
3903.8852081014420037
 20
229.0310319606066116
 30
0.0
 40
0.0043878299172106
 50
143.0516482314201028
 51
215.86406950997781
  0
ARC
  5
B9F9
  8
0
 10
3903.8888125452740496
 20
229.033637699562604
 30
0.0
 40
0.0088355136791561
 50
215.86406950997781
 51
246.4020062103193993
  0
ARC
  5
B9FA
  8
0
 10
3903.8933423970652257
 20
229.0440071103301989
 30
0.0
 40
0.0201511770229849
 50
246.4020062103193993
 51
276.2529640367932871
  0
ARC
  5
B9FB
  8
0
 10
3903.8934910265588769
 20
229.042650632549794
 30
0.0
 40
0.0187865808573981
 50
276.2529640367932871
 51
298.7024437722682819
  0
ARC
  5
B9FC
  8
0
 10
3903.8992651557641693
 20
229.0321050376163043
 30
0.0
 40
0.0067636801850961
 50
298.7024437722691914
 51
341.0904814616002909
  0
ARC
  5
B9FD
  8
0
 10
3903.9020831481570895
 20
229.0311397001109128
 30
0.0
 40
0.0037849291664018
 50
341.0904814616018257
 51
37.6318903552018327
  0
ARC
  5
B9FE
  8
0
 10
3903.8964736073571657
 20
229.0268147961189129
 30
0.0
 40
0.0108681305979638
 50
37.6318903552018327
 51
72.5285099215734306
  0
ARC
  5
B9FF
  8
0
 10
3903.893237968817175
 20
229.0165348282739046
 30
0.0
 40
0.0216452867935429
 50
72.5285099215734306
 51
99.1390965128223201
  0
ARC
  5
BA00
  8
0
 10
3903.8911521428331071
 20
229.0254604555931053
 30
0.0
 40
0.0125181257606922
 50
96.2008492872173804
 51
139.0219651063250126
  0
ARC
  5
BA01
  8
0
 10
3903.8846937912230715
 20
228.9917291568877999
 30
0.0
 40
0.0043878299172106
 50
143.0516482314201028
 51
215.86406950997781
  0
ARC
  5
BA02
  8
0
 10
3903.8882982350551174
 20
228.9943348958437923
 30
0.0
 40
0.0088355136791561
 50
215.86406950997781
 51
246.4020062103193993
  0
ARC
  5
BA03
  8
0
 10
3903.8928280868449292
 20
229.0047043066113019
 30
0.0
 40
0.0201511770229849
 50
246.4020062103193993
 51
276.2529640367932871
  0
ARC
  5
BA04
  8
0
 10
3903.8929767163390352
 20
229.003347828830897
 30
0.0
 40
0.0187865808573981
 50
276.2529640367932871
 51
298.7024437722682819
  0
ARC
  5
BA05
  8
0
 10
3903.8987508455438729
 20
228.9928022338974074
 30
0.0
 40
0.0067636801850961
 50
298.7024437722691914
 51
341.0904814616002909
  0
ARC
  5
BA06
  8
0
 10
3903.901568837936793
 20
228.9918368963921012
 30
0.0
 40
0.0037849291664018
 50
341.0904814616018257
 51
37.6318903552018327
  0
ARC
  5
BA07
  8
0
 10
3903.8959592971377788
 20
228.9875119924001012
 30
0.0
 40
0.0108681305979638
 50
37.6318903552018327
 51
72.5285099215734306
  0
ARC
  5
BA08
  8
0
 10
3903.8927236585968785
 20
228.9772320245550929
 30
0.0
 40
0.0216452867935429
 50
72.5285099215734306
 51
99.1390965128223201
  0
ARC
  5
BA09
  8
0
 10
3903.8906378326141748
 20
228.9861576518742936
 30
0.0
 40
0.0125181257606922
 50
96.2008492872173804
 51
139.0219651063250126
  0
ARC
  5
BA0A
  8
0
 10
3903.8855070164490826
 20
228.952729997835803
 30
0.0
 40
0.0043878299172106
 50
143.0516482314201028
 51
215.86406950997781
  0
ARC
  5
BA0B
  8
0
 10
3903.889111460282038
 20
228.9553357367917954
 30
0.0
 40
0.0088355136791561
 50
215.86406950997781
 51
246.4020062103193993
  0
ARC
  5
BA0C
  8
0
 10
3903.8936413120718498
 20
228.9657051475593903
 30
0.0
 40
0.0201511770229849
 50
246.4020062103193993
 51
276.2529640367932871
  0
ARC
  5
BA0D
  8
0
 10
3903.8937899415659558
 20
228.9643486697790138
 30
0.0
 40
0.0187865808573981
 50
276.2529640367932871
 51
298.7024437722682819
  0
ARC
  5
BA0E
  8
0
 10
3903.8995640707707935
 20
228.9538030748454958
 30
0.0
 40
0.0067636801850961
 50
298.7024437722691914
 51
341.0904814616002909
  0
ARC
  5
BA0F
  8
0
 10
3903.9023820631650779
 20
228.9528377373401042
 30
0.0
 40
0.0037849291664018
 50
341.0904814616018257
 51
37.6318903552018327
  0
ARC
  5
BA10
  8
0
 10
3903.8967725223660636
 20
228.9485128333481043
 30
0.0
 40
0.0108681305979638
 50
37.6318903552018327
 51
72.5285099215734306
  0
ARC
  5
BA11
  8
0
 10
3903.8935368838237991
 20
228.938232865503096
 30
0.0
 40
0.0216452867935429
 50
72.5285099215734306
 51
99.1390965128223201
  0
ARC
  5
BA12
  8
0
 10
3903.8914510578410955
 20
228.9471584928222967
 30
0.0
 40
0.0125181257606922
 50
96.2008492872173804
 51
139.0219651063250126
  0
ARC
  5
BA13
  8
0
 10
3903.9442355610772211
 20
228.9725611506611926
 30
0.0
 40
0.0043878299172106
 50
143.0516482314201028
 51
215.86406950997781
  0
ARC
  5
BA14
  8
0
 10
3903.9478400049088123
 20
228.9751668896172134
 30
0.0
 40
0.0088355136791561
 50
215.86406950997781
 51
246.4020062103193993
  0
ARC
  5
BA15
  8
0
 10
3903.9523698566999883
 20
228.9855363003848083
 30
0.0
 40
0.0201511770229849
 50
246.4020062103193993
 51
276.2529640367932871
  0
ARC
  5
BA16
  8
0
 10
3903.9525184861940943
 20
228.9841798226042897
 30
0.0
 40
0.0187865808573981
 50
276.2529640367932871
 51
298.7024437722682819
  0
ARC
  5
BA17
  8
0
 10
3903.9582926153980225
 20
228.9736342276709138
 30
0.0
 40
0.0067636801850961
 50
298.7024437722691914
 51
341.0904814616002909
  0
ARC
  5
BA18
  8
0
 10
3903.9611106077918521
 20
228.9726688901654938
 30
0.0
 40
0.0037849291664018
 50
341.0904814616018257
 51
37.6318903552018327
  0
ARC
  5
BA19
  8
0
 10
3903.9555010669928379
 20
228.9683439861734939
 30
0.0
 40
0.0108681305979638
 50
37.6318903552018327
 51
72.5285099215734306
  0
ARC
  5
BA1A
  8
0
 10
3903.9522654284519376
 20
228.9580640183285141
 30
0.0
 40
0.0216452867935429
 50
72.5285099215734306
 51
99.1390965128223201
  0
ARC
  5
BA1B
  8
0
 10
3903.9501796024687792
 20
228.9669896456476863
 30
0.0
 40
0.0125181257606922
 50
96.2008492872173804
 51
139.0219651063250126
  0
ARC
  5
BA1C
  8
0
 10
3903.9441424404071768
 20
229.0118005392284033
 30
0.0
 40
0.0043878299172106
 50
143.0516482314201028
 51
215.86406950997781
  0
ARC
  5
BA1D
  8
0
 10
3903.9477468842401322
 20
229.0144062781845093
 30
0.0
 40
0.0088355136791561
 50
215.86406950997781
 51
246.4020062103193993
  0
ARC
  5
BA1E
  8
0
 10
3903.952276736029944
 20
229.0247756889519906
 30
0.0
 40
0.0201511770229849
 50
246.4020062103193993
 51
276.2529640367932871
  0
ARC
  5
BA1F
  8
0
 10
3903.95242536552405
 20
229.0234192111716141
 30
0.0
 40
0.0187865808573981
 50
276.2529640367932871
 51
298.7024437722682819
  0
ARC
  5
BA20
  8
0
 10
3903.9581994947288877
 20
229.012873616238096
 30
0.0
 40
0.0067636801850961
 50
298.7024437722691914
 51
341.0904814616002909
  0
ARC
  5
BA21
  8
0
 10
3903.961017487123172
 20
229.0119082787327045
 30
0.0
 40
0.0037849291664018
 50
341.0904814616018257
 51
37.6318903552018327
  0
ARC
  5
BA22
  8
0
 10
3903.9554079463241578
 20
229.0075833747407898
 30
0.0
 40
0.0108681305979638
 50
37.6318903552018327
 51
72.5285099215734306
  0
ARC
  5
BA23
  8
0
 10
3903.9521723077818933
 20
228.9973034068956963
 30
0.0
 40
0.0216452867935429
 50
72.5285099215734306
 51
99.1390965128223201
  0
ARC
  5
BA24
  8
0
 10
3903.9500864817991896
 20
229.0062290342150106
 30
0.0
 40
0.0125181257606922
 50
96.2008492872173804
 51
139.0219651063250126
  0
ARC
  5
BA25
  8
0
 10
3903.9441854492001767
 20
229.0503740918875906
 30
0.0
 40
0.0043878299172106
 50
143.0516482314201028
 51
215.86406950997781
  0
ARC
  5
BA26
  8
0
 10
3903.9477898930322226
 20
229.0529798308436114
 30
0.0
 40
0.0088355136791561
 50
215.86406950997781
 51
246.4020062103193993
  0
ARC
  5
BA27
  8
0
 10
3903.9523197448229439
 20
229.0633492416110926
 30
0.0
 40
0.0201511770229849
 50
246.4020062103193993
 51
276.2529640367932871
  0
ARC
  5
BA28
  8
0
 10
3903.9524683743161404
 20
229.0619927638306876
 30
0.0
 40
0.0187865808573981
 50
276.2529640367932871
 51
298.7024437722682819
  0
ARC
  5
BA29
  8
0
 10
3903.9582425035218876
 20
229.051447168897198
 30
0.0
 40
0.0067636801850961
 50
298.7024437722691914
 51
341.0904814616002909
  0
ARC
  5
BA2A
  8
0
 10
3903.9610604959148077
 20
229.0504818313918918
 30
0.0
 40
0.0037849291664018
 50
341.0904814616018257
 51
37.6318903552018327
  0
ARC
  5
BA2B
  8
0
 10
3903.955450955114884
 20
229.0461569273998919
 30
0.0
 40
0.0108681305979638
 50
37.6318903552018327
 51
72.5285099215734306
  0
ARC
  5
BA2C
  8
0
 10
3903.9522153165748932
 20
229.0358769595547983
 30
0.0
 40
0.0216452867935429
 50
72.5285099215734306
 51
99.1390965128223201
  0
ARC
  5
BA2D
  8
0
 10
3903.9501294905908253
 20
229.0448025868741126
 30
0.0
 40
0.0125181257606922
 50
96.2008492872173804
 51
139.0219651063250126
  0
ARC
  5
BA2E
  8
0
 10
3903.9439407830318487
 20
229.089743587387801
 30
0.0
 40
0.0043878299172106
 50
143.0516482314201028
 51
215.86406950997781
  0
ARC
  5
BA2F
  8
0
 10
3903.9475452268629851
 20
229.0923493263437933
 30
0.0
 40
0.0088355136791561
 50
215.86406950997781
 51
246.4020062103193993
  0
ARC
  5
BA30
  8
0
 10
3903.9520750786541612
 20
229.1027187371113882
 30
0.0
 40
0.0201511770229849
 50
246.4020062103193993
 51
276.2529640367932871
  0
ARC
  5
BA31
  8
0
 10
3903.9522237081478124
 20
229.1013622593310117
 30
0.0
 40
0.0187865808573981
 50
276.2529640367932871
 51
298.7024437722682819
  0
ARC
  5
BA32
  8
0
 10
3903.9579978373521953
 20
229.0908166643974937
 30
0.0
 40
0.0067636801850961
 50
298.7024437722691914
 51
341.0904814616002909
  0
ARC
  5
BA33
  8
0
 10
3903.9608158297469345
 20
229.0898513268921022
 30
0.0
 40
0.0037849291664018
 50
341.0904814616018257
 51
37.6318903552018327
  0
ARC
  5
BA34
  8
0
 10
3903.9552062889470108
 20
229.0855264229001023
 30
0.0
 40
0.0108681305979638
 50
37.6318903552018327
 51
72.5285099215734306
  0
ARC
  5
BA35
  8
0
 10
3903.9519706504061105
 20
229.0752464550552077
 30
0.0
 40
0.0216452867935429
 50
72.5285099215734306
 51
99.1390965128223201
  0
ARC
  5
BA36
  8
0
 10
3903.9498848244229521
 20
229.0841720823744083
 30
0.0
 40
0.0125181257606922
 50
96.2008492872173804
 51
139.0219651063250126
  0
ARC
  5
BA37
  8
0
 10
3903.9441968843871109
 20
229.1282847910553926
 30
0.0
 40
0.0043878299172106
 50
143.0516482314201028
 51
215.86406950997781
  0
ARC
  5
BA38
  8
0
 10
3903.9478013282177926
 20
229.1308905300114134
 30
0.0
 40
0.0088355136791561
 50
215.86406950997781
 51
246.4020062103193993
  0
ARC
  5
BA39
  8
0
 10
3903.9523311800098782
 20
229.1412599407790083
 30
0.0
 40
0.0201511770229849
 50
246.4020062103193993
 51
276.2529640367932871
  0
ARC
  5
BA3A
  8
0
 10
3903.9524798095030746
 20
229.1399034629986033
 30
0.0
 40
0.0187865808573981
 50
276.2529640367932871
 51
298.7024437722682819
  0
ARC
  5
BA3B
  8
0
 10
3903.9582539387079123
 20
229.1293578680651137
 30
0.0
 40
0.0067636801850961
 50
298.7024437722691914
 51
341.0904814616002909
  0
ARC
  5
BA3C
  8
0
 10
3903.9610719311021967
 20
229.1283925305596938
 30
0.0
 40
0.0037849291664018
 50
341.0904814616018257
 51
37.6318903552018327
  0
ARC
  5
BA3D
  8
0
 10
3903.9554623903031825
 20
229.1240676265676939
 30
0.0
 40
0.0108681305979638
 50
37.6318903552018327
 51
72.5285099215734306
  0
ARC
  5
BA3E
  8
0
 10
3903.952226751760918
 20
229.113787658722714
 30
0.0
 40
0.0216452867935429
 50
72.5285099215734306
 51
99.1390965128223201
  0
ARC
  5
BA3F
  8
0
 10
3903.9501409257782143
 20
229.1227132860419999
 30
0.0
 40
0.0125181257606922
 50
96.2008492872173804
 51
139.0219651063250126
  0
ARC
  5
BA40
  8
0
 10
3903.9440806982038339
 20
229.1674554940429971
 30
0.0
 40
0.0043878299172106
 50
143.0516482314201028
 51
215.86406950997781
  0
ARC
  5
BA41
  8
0
 10
3903.9476851420358798
 20
229.1700612329989042
 30
0.0
 40
0.0088355136791561
 50
215.86406950997781
 51
246.4020062103193993
  0
ARC
  5
BA42
  8
0
 10
3903.9522149938270559
 20
229.1804306437664991
 30
0.0
 40
0.0201511770229849
 50
246.4020062103193993
 51
276.2529640367932871
  0
ARC
  5
BA43
  8
0
 10
3903.9523636233197976
 20
229.1790741659860942
 30
0.0
 40
0.0187865808573981
 50
276.2529640367932871
 51
298.7024437722682819
  0
ARC
  5
BA44
  8
0
 10
3903.95813775252509
 20
229.1685285710526045
 30
0.0
 40
0.0067636801850961
 50
298.7024437722691914
 51
341.0904814616002909
  0
ARC
  5
BA45
  8
0
 10
3903.9609557449180102
 20
229.1675632335472983
 30
0.0
 40
0.0037849291664018
 50
341.0904814616018257
 51
37.6318903552018327
  0
ARC
  5
BA46
  8
0
 10
3903.955346204118996
 20
229.1632383295552131
 30
0.0
 40
0.0108681305979638
 50
37.6318903552018327
 51
72.5285099215734306
  0
ARC
  5
BA47
  8
0
 10
3903.9521105655780957
 20
229.1529583617102048
 30
0.0
 40
0.0216452867935429
 50
72.5285099215734306
 51
99.1390965128223201
  0
ARC
  5
BA48
  8
0
 10
3903.9500247395940278
 20
229.1618839890294907
 30
0.0
 40
0.0125181257606922
 50
96.2008492872173804
 51
139.0219651063250126
  0
ARC
  5
BA49
  8
0
 10
3903.9438291240890067
 20
229.2062533721980913
 30
0.0
 40
0.0043878299172106
 50
143.0516482314201028
 51
215.86406950997781
  0
ARC
  5
BA4A
  8
0
 10
3903.9474335679210526
 20
229.208859111154112
 30
0.0
 40
0.0088355136791561
 50
215.86406950997781
 51
246.4020062103193993
  0
ARC
  5
BA4B
  8
0
 10
3903.9519634197117739
 20
229.2192285219217069
 30
0.0
 40
0.0201511770229849
 50
246.4020062103193993
 51
276.2529640367932871
  0
ARC
  5
BA4C
  8
0
 10
3903.9521120492058799
 20
229.217872044141302
 30
0.0
 40
0.0187865808573981
 50
276.2529640367932871
 51
298.7024437722682819
  0
ARC
  5
BA4D
  8
0
 10
3903.9578861784098081
 20
229.2073264492078124
 30
0.0
 40
0.0067636801850961
 50
298.7024437722691914
 51
341.0904814616002909
  0
ARC
  5
BA4E
  8
0
 10
3903.9607041708050019
 20
229.2063611117023925
 30
0.0
 40
0.0037849291664018
 50
341.0904814616018257
 51
37.6318903552018327
  0
ARC
  5
BA4F
  8
0
 10
3903.9550946300050782
 20
229.2020362077103925
 30
0.0
 40
0.0108681305979638
 50
37.6318903552018327
 51
72.5285099215734306
  0
ARC
  5
BA50
  8
0
 10
3903.951858991464178
 20
229.1917562398654127
 30
0.0
 40
0.0216452867935429
 50
72.5285099215734306
 51
99.1390965128223201
  0
ARC
  5
BA51
  8
0
 10
3903.9497731654810195
 20
229.2006818671846133
 30
0.0
 40
0.0125181257606922
 50
96.2008492872173804
 51
139.0219651063250126
  0
ARC
  5
BA52
  8
0
 10
3904.0038947269817982
 20
229.2262672589590125
 30
0.0
 40
0.0043878299172106
 50
143.0516482314201028
 51
215.86406950997781
  0
ARC
  5
BA53
  8
0
 10
3904.0074991708138441
 20
229.2288729979150048
 30
0.0
 40
0.0088355136791561
 50
215.86406950997781
 51
246.4020062103193993
  0
ARC
  5
BA54
  8
0
 10
3904.0120290226050201
 20
229.2392424086825997
 30
0.0
 40
0.0201511770229849
 50
246.4020062103193993
 51
276.2529640367932871
  0
ARC
  5
BA55
  8
0
 10
3904.0121776520991261
 20
229.2378859309021095
 30
0.0
 40
0.0187865808573981
 50
276.2529640367932871
 51
298.7024437722682819
  0
ARC
  5
BA56
  8
0
 10
3904.0179517813030543
 20
229.2273403359687052
 30
0.0
 40
0.0067636801850961
 50
298.7024437722691914
 51
341.0904814616002909
  0
ARC
  5
BA57
  8
0
 10
3904.0207697736968839
 20
229.2263749984633137
 30
0.0
 40
0.0037849291664018
 50
341.0904814616018257
 51
37.6318903552018327
  0
ARC
  5
BA58
  8
0
 10
3904.0151602328978697
 20
229.2220500944713137
 30
0.0
 40
0.0108681305979638
 50
37.6318903552018327
 51
72.5285099215734306
  0
ARC
  5
BA59
  8
0
 10
3904.0119245943569695
 20
229.2117701266263055
 30
0.0
 40
0.0216452867935429
 50
72.5285099215734306
 51
99.1390965128223201
  0
ARC
  5
BA5A
  8
0
 10
3904.0098387683729015
 20
229.2206957539455061
 30
0.0
 40
0.0125181257606922
 50
96.2008492872173804
 51
139.0219651063250126
  0
ARC
  5
BA5B
  8
0
 10
3904.0018452916910974
 20
229.1869979325051077
 30
0.0
 40
0.0043878299172106
 50
143.0516482314201028
 51
215.86406950997781
  0
ARC
  5
BA5C
  8
0
 10
3904.0054497355240528
 20
229.1896036714612137
 30
0.0
 40
0.0088355136791561
 50
215.86406950997781
 51
246.4020062103193993
  0
ARC
  5
BA5D
  8
0
 10
3904.0099795873138646
 20
229.1999730822286949
 30
0.0
 40
0.0201511770229849
 50
246.4020062103193993
 51
276.2529640367932871
  0
ARC
  5
BA5E
  8
0
 10
3904.0101282168070611
 20
229.19861660444829
 30
0.0
 40
0.0187865808573981
 50
276.2529640367932871
 51
298.7024437722682819
  0
ARC
  5
BA5F
  8
0
 10
3904.0159023460128083
 20
229.1880710095148004
 30
0.0
 40
0.0067636801850961
 50
298.7024437722691914
 51
341.0904814616002909
  0
ARC
  5
BA60
  8
0
 10
3904.0187203384061831
 20
229.1871056720094941
 30
0.0
 40
0.0037849291664018
 50
341.0904814616018257
 51
37.6318903552018327
  0
ARC
  5
BA61
  8
0
 10
3904.0131107976080784
 20
229.1827807680174942
 30
0.0
 40
0.0108681305979638
 50
37.6318903552018327
 51
72.5285099215734306
  0
ARC
  5
BA62
  8
0
 10
3904.0098751590658139
 20
229.1725008001724007
 30
0.0
 40
0.0216452867935429
 50
72.5285099215734306
 51
99.1390965128223201
  0
ARC
  5
BA63
  8
0
 10
3904.0077893330822008
 20
229.1814264274916866
 30
0.0
 40
0.0125181257606922
 50
96.2008492872173804
 51
139.0219651063250126
  0
ARC
  5
BA64
  8
0
 10
3904.0038937512831581
 20
229.1473942970750954
 30
0.0
 40
0.0043878299172106
 50
143.0516482314201028
 51
215.86406950997781
  0
ARC
  5
BA65
  8
0
 10
3904.007498195115204
 20
229.1500000360310878
 30
0.0
 40
0.0088355136791561
 50
215.86406950997781
 51
246.4020062103193993
  0
ARC
  5
BA66
  8
0
 10
3904.0120280469059253
 20
229.1603694467987111
 30
0.0
 40
0.0201511770229849
 50
246.4020062103193993
 51
276.2529640367932871
  0
ARC
  5
BA67
  8
0
 10
3904.0121766763991218
 20
229.1590129690183062
 30
0.0
 40
0.0187865808573981
 50
276.2529640367932871
 51
298.7024437722682819
  0
ARC
  5
BA68
  8
0
 10
3904.0179508056039595
 20
229.1484673740847882
 30
0.0
 40
0.0067636801850961
 50
298.7024437722691914
 51
341.0904814616002909
  0
ARC
  5
BA69
  8
0
 10
3904.0207687979977891
 20
229.1475020365793966
 30
0.0
 40
0.0037849291664018
 50
341.0904814616018257
 51
37.6318903552018327
  0
ARC
  5
BA6A
  8
0
 10
3904.0151592572001391
 20
229.1431771325873967
 30
0.0
 40
0.0108681305979638
 50
37.6318903552018327
 51
72.5285099215734306
  0
ARC
  5
BA6B
  8
0
 10
3904.0119236186578746
 20
229.1328971647423884
 30
0.0
 40
0.0216452867935429
 50
72.5285099215734306
 51
99.1390965128223201
  0
ARC
  5
BA6C
  8
0
 10
3904.0098377926738067
 20
229.1418227920615891
 30
0.0
 40
0.0125181257606922
 50
96.2008492872173804
 51
139.0219651063250126
  0
ARC
  5
BA6D
  8
0
 10
3904.0017671967789283
 20
229.1085676247625997
 30
0.0
 40
0.0043878299172106
 50
143.0516482314201028
 51
215.86406950997781
  0
ARC
  5
BA6E
  8
0
 10
3904.0053716406109743
 20
229.1111733637185921
 30
0.0
 40
0.0088355136791561
 50
215.86406950997781
 51
246.4020062103193993
  0
ARC
  5
BA6F
  8
0
 10
3904.0099014924021503
 20
229.121542774486187
 30
0.0
 40
0.0201511770229849
 50
246.4020062103193993
 51
276.2529640367932871
  0
ARC
  5
BA70
  8
0
 10
3904.0100501218958016
 20
229.1201862967058105
 30
0.0
 40
0.0187865808573981
 50
276.2529640367932871
 51
298.7024437722682819
  0
ARC
  5
BA71
  8
0
 10
3904.0158242511001845
 20
229.1096407017722925
 30
0.0
 40
0.0067636801850961
 50
298.7024437722691914
 51
341.0904814616002909
  0
ARC
  5
BA72
  8
0
 10
3904.0186422434940141
 20
229.1086753642669862
 30
0.0
 40
0.0037849291664018
 50
341.0904814616018257
 51
37.6318903552018327
  0
ARC
  5
BA73
  8
0
 10
3904.0130327026949999
 20
229.104350460274901
 30
0.0
 40
0.0108681305979638
 50
37.6318903552018327
 51
72.5285099215734306
  0
ARC
  5
BA74
  8
0
 10
3904.0097970641540996
 20
229.0940704924298927
 30
0.0
 40
0.0216452867935429
 50
72.5285099215734306
 51
99.1390965128223201
  0
ARC
  5
BA75
  8
0
 10
3904.0077112381700317
 20
229.1029961197490934
 30
0.0
 40
0.0125181257606922
 50
96.2008492872173804
 51
139.0219651063250126
  0
ARC
  5
BA76
  8
0
 10
3904.0031368043478324
 20
229.0698110599635982
 30
0.0
 40
0.0043878299172106
 50
143.0516482314201028
 51
215.86406950997781
  0
ARC
  5
BA77
  8
0
 10
3904.0067412481798783
 20
229.0724167989195905
 30
0.0
 40
0.0088355136791561
 50
215.86406950997781
 51
246.4020062103193993
  0
ARC
  5
BA78
  8
0
 10
3904.0112710999710544
 20
229.0827862096871002
 30
0.0
 40
0.0201511770229849
 50
246.4020062103193993
 51
276.2529640367932871
  0
ARC
  5
BA79
  8
0
 10
3904.0114197294637961
 20
229.0814297319068089
 30
0.0
 40
0.0187865808573981
 50
276.2529640367932871
 51
298.7024437722682819
  0
ARC
  5
BA7A
  8
0
 10
3904.017193858669998
 20
229.0708841369732056
 30
0.0
 40
0.0067636801850961
 50
298.7024437722691914
 51
341.0904814616002909
  0
ARC
  5
BA7B
  8
0
 10
3904.0200118510629181
 20
229.0699187994678994
 30
0.0
 40
0.0037849291664018
 50
341.0904814616018257
 51
37.6318903552018327
  0
ARC
  5
BA7C
  8
0
 10
3904.0144023102639039
 20
229.0655938954758994
 30
0.0
 40
0.0108681305979638
 50
37.6318903552018327
 51
72.5285099215734306
  0
ARC
  5
BA7D
  8
0
 10
3904.0111666717220942
 20
229.0553139276308912
 30
0.0
 40
0.0216452867935429
 50
72.5285099215734306
 51
99.1390965128223201
  0
ARC
  5
BA7E
  8
0
 10
3904.0090808457389357
 20
229.0642395549500918
 30
0.0
 40
0.0125181257606922
 50
96.2008492872173804
 51
139.0219651063250126
  0
ARC
  5
BA7F
  8
0
 10
3904.0024680605620233
 20
229.0309611730378947
 30
0.0
 40
0.0043878299172106
 50
143.0516482314201028
 51
215.86406950997781
  0
ARC
  5
BA80
  8
0
 10
3904.0060725043940693
 20
229.0335669119940007
 30
0.0
 40
0.0088355136791561
 50
215.86406950997781
 51
246.4020062103193993
  0
ARC
  5
BA81
  8
0
 10
3904.0106023561847906
 20
229.0439363227615104
 30
0.0
 40
0.0201511770229849
 50
246.4020062103193993
 51
276.2529640367932871
  0
ARC
  5
BA82
  8
0
 10
3904.010750985677987
 20
229.0425798449811055
 30
0.0
 40
0.0187865808573981
 50
276.2529640367932871
 51
298.7024437722682819
  0
ARC
  5
BA83
  8
0
 10
3904.0165251148828247
 20
229.0320342500475874
 30
0.0
 40
0.0067636801850961
 50
298.7024437722691914
 51
341.0904814616002909
  0
ARC
  5
BA84
  8
0
 10
3904.0193431072771091
 20
229.0310689125423096
 30
0.0
 40
0.0037849291664018
 50
341.0904814616018257
 51
37.6318903552018327
  0
ARC
  5
BA85
  8
0
 10
3904.0137335664780949
 20
229.0267440085503097
 30
0.0
 40
0.0108681305979638
 50
37.6318903552018327
 51
72.5285099215734306
  0
ARC
  5
BA86
  8
0
 10
3904.0104979279358304
 20
229.0164640407053014
 30
0.0
 40
0.0216452867935429
 50
72.5285099215734306
 51
99.1390965128223201
  0
ARC
  5
BA87
  8
0
 10
3904.0084121019531267
 20
229.025389668024502
 30
0.0
 40
0.0125181257606922
 50
96.2008492872173804
 51
139.0219651063250126
  0
ARC
  5
BA88
  8
0
 10
3904.0028351964119793
 20
228.9923652867464057
 30
0.0
 40
0.0043878299172106
 50
143.0516482314201028
 51
215.86406950997781
  0
ARC
  5
BA89
  8
0
 10
3904.0064396402440252
 20
228.9949710257023128
 30
0.0
 40
0.0088355136791561
 50
215.86406950997781
 51
246.4020062103193993
  0
ARC
  5
BA8A
  8
0
 10
3904.010969492033837
 20
229.0053404364699077
 30
0.0
 40
0.0201511770229849
 50
246.4020062103193993
 51
276.2529640367932871
  0
ARC
  5
BA8B
  8
0
 10
3904.0111181215288525
 20
229.0039839586895027
 30
0.0
 40
0.0187865808573981
 50
276.2529640367932871
 51
298.7024437722682819
  0
ARC
  5
BA8C
  8
0
 10
3904.0168922507341449
 20
228.9934383637560131
 30
0.0
 40
0.0067636801850961
 50
298.7024437722691914
 51
341.0904814616002909
  0
ARC
  5
BA8D
  8
0
 10
3904.0197102431279745
 20
228.9924730262505932
 30
0.0
 40
0.0037849291664018
 50
341.0904814616018257
 51
37.6318903552018327
  0
ARC
  5
BA8E
  8
0
 10
3904.0141007023280508
 20
228.9881481222585933
 30
0.0
 40
0.0108681305979638
 50
37.6318903552018327
 51
72.5285099215734306
  0
ARC
  5
BA8F
  8
0
 10
3904.0108650637871506
 20
228.9778681544136134
 30
0.0
 40
0.0216452867935429
 50
72.5285099215734306
 51
99.1390965128223201
  0
ARC
  5
BA90
  8
0
 10
3904.0087792378039921
 20
228.9867937817328993
 30
0.0
 40
0.0125181257606922
 50
96.2008492872173804
 51
139.0219651063250126
  0
ARC
  5
BA91
  8
0
 10
3904.0032036592128861
 20
228.952800723581305
 30
0.0
 40
0.0043878299172106
 50
143.0516482314201028
 51
215.86406950997781
  0
ARC
  5
BA92
  8
0
 10
3904.0068081030449321
 20
228.9554064625372973
 30
0.0
 40
0.0088355136791561
 50
215.86406950997781
 51
246.4020062103193993
  0
ARC
  5
BA93
  8
0
 10
3904.0113379548351986
 20
228.9657758733048922
 30
0.0
 40
0.0201511770229849
 50
246.4020062103193993
 51
276.2529640367932871
  0
ARC
  5
BA94
  8
0
 10
3904.0114865843288499
 20
228.9644193955244873
 30
0.0
 40
0.0187865808573981
 50
276.2529640367932871
 51
298.7024437722682819
  0
ARC
  5
BA95
  8
0
 10
3904.0172607135341423
 20
228.9538738005909977
 30
0.0
 40
0.0067636801850961
 50
298.7024437722691914
 51
341.0904814616002909
  0
ARC
  5
BA96
  8
0
 10
3904.0200787059279719
 20
228.9529084630856062
 30
0.0
 40
0.0037849291664018
 50
341.0904814616018257
 51
37.6318903552018327
  0
ARC
  5
BA97
  8
0
 10
3904.0144691651289577
 20
228.9485835590936063
 30
0.0
 40
0.0108681305979638
 50
37.6318903552018327
 51
72.5285099215734306
  0
ARC
  5
BA98
  8
0
 10
3904.0112335265871479
 20
228.938303591248598
 30
0.0
 40
0.0216452867935429
 50
72.5285099215734306
 51
99.1390965128223201
  0
ARC
  5
BA99
  8
0
 10
3904.0091477006039895
 20
228.9472292185677986
 30
0.0
 40
0.0125181257606922
 50
96.2008492872173804
 51
139.0219651063250126
  0
ARC
  5
BA9A
  8
0
 10
3904.0621783140418302
 20
228.9724432692667904
 30
0.0
 40
0.0043878299172106
 50
143.0516482314201028
 51
215.86406950997781
  0
ARC
  5
BA9B
  8
0
 10
3904.0657827578738761
 20
228.9750490082226975
 30
0.0
 40
0.0088355136791561
 50
215.86406950997781
 51
246.4020062103193993
  0
ARC
  5
BA9C
  8
0
 10
3904.0703126096650522
 20
228.9854184189902924
 30
0.0
 40
0.0201511770229849
 50
246.4020062103193993
 51
276.2529640367932871
  0
ARC
  5
BA9D
  8
0
 10
3904.0704612391591581
 20
228.9840619412100011
 30
0.0
 40
0.0187865808573981
 50
276.2529640367932871
 51
298.7024437722682819
  0
ARC
  5
BA9E
  8
0
 10
3904.0762353683639958
 20
228.9735163462763978
 30
0.0
 40
0.0067636801850961
 50
298.7024437722691914
 51
341.0904814616002909
  0
ARC
  5
BA9F
  8
0
 10
3904.0790533607578254
 20
228.9725510087710063
 30
0.0
 40
0.0037849291664018
 50
341.0904814616018257
 51
37.6318903552018327
  0
ARC
  5
BAA0
  8
0
 10
3904.0734438199588112
 20
228.9682261047790917
 30
0.0
 40
0.0108681305979638
 50
37.6318903552018327
 51
72.5285099215734306
  0
ARC
  5
BAA1
  8
0
 10
3904.0702081814170015
 20
228.9579461369341118
 30
0.0
 40
0.0216452867935429
 50
72.5285099215734306
 51
99.1390965128223201
  0
ARC
  5
BAA2
  8
0
 10
3904.068122355433843
 20
228.9668717642533124
 30
0.0
 40
0.0125181257606922
 50
96.2008492872173804
 51
139.0219651063250126
  0
ARC
  5
BAA3
  8
0
 10
3904.0624322298340303
 20
229.011126372643588
 30
0.0
 40
0.0043878299172106
 50
143.0516482314201028
 51
215.86406950997781
  0
ARC
  5
BAA4
  8
0
 10
3904.0660366736651667
 20
229.0137321115996087
 30
0.0
 40
0.0088355136791561
 50
215.86406950997781
 51
246.4020062103193993
  0
ARC
  5
BAA5
  8
0
 10
3904.070566525455888
 20
229.02410152236709
 30
0.0
 40
0.0201511770229849
 50
246.4020062103193993
 51
276.2529640367932871
  0
ARC
  5
BAA6
  8
0
 10
3904.070715154949994
 20
229.0227450445867134
 30
0.0
 40
0.0187865808573981
 50
276.2529640367932871
 51
298.7024437722682819
  0
ARC
  5
BAA7
  8
0
 10
3904.0764892841539222
 20
229.0121994496531954
 30
0.0
 40
0.0067636801850961
 50
298.7024437722691914
 51
341.0904814616002909
  0
ARC
  5
BAA8
  8
0
 10
3904.0793072765482066
 20
229.0112341121478892
 30
0.0
 40
0.0037849291664018
 50
341.0904814616018257
 51
37.6318903552018327
  0
ARC
  5
BAA9
  8
0
 10
3904.0736977357491924
 20
229.0069092081558892
 30
0.0
 40
0.0108681305979638
 50
37.6318903552018327
 51
72.5285099215734306
  0
ARC
  5
BAAA
  8
0
 10
3904.0704620972078374
 20
228.9966292403107957
 30
0.0
 40
0.0216452867935429
 50
72.5285099215734306
 51
99.1390965128223201
  0
ARC
  5
BAAB
  8
0
 10
3904.0683762712242242
 20
229.00555486763011
 30
0.0
 40
0.0125181257606922
 50
96.2008492872173804
 51
139.0219651063250126
  0
ARC
  5
BAAC
  8
0
 10
3904.0616421481749967
 20
229.0499041273457976
 30
0.0
 40
0.0043878299172106
 50
143.0516482314201028
 51
215.86406950997781
  0
ARC
  5
BAAD
  8
0
 10
3904.0652465920070426
 20
229.05250986630179
 30
0.0
 40
0.0088355136791561
 50
215.86406950997781
 51
246.4020062103193993
  0
ARC
  5
BAAE
  8
0
 10
3904.0697764437982187
 20
229.0628792770692996
 30
0.0
 40
0.0201511770229849
 50
246.4020062103193993
 51
276.2529640367932871
  0
ARC
  5
BAAF
  8
0
 10
3904.0699250732918699
 20
229.0615227992890084
 30
0.0
 40
0.0187865808573981
 50
276.2529640367932871
 51
298.7024437722682819
  0
ARC
  5
BAB0
  8
0
 10
3904.0756992024957981
 20
229.0509772043554051
 30
0.0
 40
0.0067636801850961
 50
298.7024437722691914
 51
341.0904814616002909
  0
ARC
  5
BAB1
  8
0
 10
3904.078517194890992
 20
229.0500118668500988
 30
0.0
 40
0.0037849291664018
 50
341.0904814616018257
 51
37.6318903552018327
  0
ARC
  5
BAB2
  8
0
 10
3904.0729076540919777
 20
229.0456869628580989
 30
0.0
 40
0.0108681305979638
 50
37.6318903552018327
 51
72.5285099215734306
  0
ARC
  5
BAB3
  8
0
 10
3904.069672015550168
 20
229.0354069950130906
 30
0.0
 40
0.0216452867935429
 50
72.5285099215734306
 51
99.1390965128223201
  0
ARC
  5
BAB4
  8
0
 10
3904.0675861895670096
 20
229.0443326223322913
 30
0.0
 40
0.0125181257606922
 50
96.2008492872173804
 51
139.0219651063250126
  0
ARC
  5
BAB5
  8
0
 10
3904.0610297997650378
 20
229.0894333894613055
 30
0.0
 40
0.0043878299172106
 50
143.0516482314201028
 51
215.86406950997781
  0
ARC
  5
BAB6
  8
0
 10
3904.0646342435970837
 20
229.0920391284172979
 30
0.0
 40
0.0088355136791561
 50
215.86406950997781
 51
246.4020062103193993
  0
ARC
  5
BAB7
  8
0
 10
3904.069164095387805
 20
229.1024085391848928
 30
0.0
 40
0.0201511770229849
 50
246.4020062103193993
 51
276.2529640367932871
  0
ARC
  5
BAB8
  8
0
 10
3904.069312724881911
 20
229.1010520614044879
 30
0.0
 40
0.0187865808573981
 50
276.2529640367932871
 51
298.7024437722682819
  0
ARC
  5
BAB9
  8
0
 10
3904.0750868540858391
 20
229.0905064664709982
 30
0.0
 40
0.0067636801850961
 50
298.7024437722691914
 51
341.0904814616002909
  0
ARC
  5
BABA
  8
0
 10
3904.0779048464801235
 20
229.0895411289656067
 30
0.0
 40
0.0037849291664018
 50
341.0904814616018257
 51
37.6318903552018327
  0
ARC
  5
BABB
  8
0
 10
3904.0722953056811093
 20
229.0852162249736068
 30
0.0
 40
0.0108681305979638
 50
37.6318903552018327
 51
72.5285099215734306
  0
ARC
  5
BABC
  8
0
 10
3904.0690596671402091
 20
229.0749362571285985
 30
0.0
 40
0.0216452867935429
 50
72.5285099215734306
 51
99.1390965128223201
  0
ARC
  5
BABD
  8
0
 10
3904.0669738411561411
 20
229.0838618844477992
 30
0.0
 40
0.0125181257606922
 50
96.2008492872173804
 51
139.0219651063250126
  0
ARC
  5
BABE
  8
0
 10
3904.0625651199761705
 20
229.1284946190100982
 30
0.0
 40
0.0043878299172106
 50
143.0516482314201028
 51
215.86406950997781
  0
ARC
  5
BABF
  8
0
 10
3904.0661695638082165
 20
229.1311003579660905
 30
0.0
 40
0.0088355136791561
 50
215.86406950997781
 51
246.4020062103193993
  0
ARC
  5
BAC0
  8
0
 10
3904.0706994155980283
 20
229.1414697687337139
 30
0.0
 40
0.0201511770229849
 50
246.4020062103193993
 51
276.2529640367932871
  0
ARC
  5
BAC1
  8
0
 10
3904.0708480450930438
 20
229.1401132909533089
 30
0.0
 40
0.0187865808573981
 50
276.2529640367932871
 51
298.7024437722682819
  0
ARC
  5
BAC2
  8
0
 10
3904.0766221742969719
 20
229.1295676960197909
 30
0.0
 40
0.0067636801850961
 50
298.7024437722691914
 51
341.0904814616002909
  0
ARC
  5
BAC3
  8
0
 10
3904.0794401666908016
 20
229.1286023585143994
 30
0.0
 40
0.0037849291664018
 50
341.0904814616018257
 51
37.6318903552018327
  0
ARC
  5
BAC4
  8
0
 10
3904.0738306258917873
 20
229.1242774545223995
 30
0.0
 40
0.0108681305979638
 50
37.6318903552018327
 51
72.5285099215734306
  0
ARC
  5
BAC5
  8
0
 10
3904.0705949873508871
 20
229.1139974866773912
 30
0.0
 40
0.0216452867935429
 50
72.5285099215734306
 51
99.1390965128223201
  0
ARC
  5
BAC6
  8
0
 10
3904.0685091613668192
 20
229.1229231139967055
 30
0.0
 40
0.0125181257606922
 50
96.2008492872173804
 51
139.0219651063250126
  0
ARC
  5
BAC7
  8
0
 10
3904.0615720930190946
 20
229.1678484114165997
 30
0.0
 40
0.0043878299172106
 50
143.0516482314201028
 51
215.86406950997781
  0
ARC
  5
BAC8
  8
0
 10
3904.06517653685205
 20
229.170454150372592
 30
0.0
 40
0.0088355136791561
 50
215.86406950997781
 51
246.4020062103193993
  0
ARC
  5
BAC9
  8
0
 10
3904.0697063886418618
 20
229.1808235611401869
 30
0.0
 40
0.0201511770229849
 50
246.4020062103193993
 51
276.2529640367932871
  0
ARC
  5
BACA
  8
0
 10
3904.0698550181359678
 20
229.1794670833596967
 30
0.0
 40
0.0187865808573981
 50
276.2529640367932871
 51
298.7024437722682819
  0
ARC
  5
BACB
  8
0
 10
3904.0756291473408055
 20
229.1689214884262924
 30
0.0
 40
0.0067636801850961
 50
298.7024437722691914
 51
341.0904814616002909
  0
ARC
  5
BACC
  8
0
 10
3904.0784471397350899
 20
229.1679561509209009
 30
0.0
 40
0.0037849291664018
 50
341.0904814616018257
 51
37.6318903552018327
  0
ARC
  5
BACD
  8
0
 10
3904.0728375989351662
 20
229.163631246928901
 30
0.0
 40
0.0108681305979638
 50
37.6318903552018327
 51
72.5285099215734306
  0
ARC
  5
BACE
  8
0
 10
3904.0696019603938112
 20
229.1533512790838074
 30
0.0
 40
0.0216452867935429
 50
72.5285099215734306
 51
99.1390965128223201
  0
ARC
  5
BACF
  8
0
 10
3904.0675161344111075
 20
229.1622769064030933
 30
0.0
 40
0.0125181257606922
 50
96.2008492872173804
 51
139.0219651063250126
  0
ARC
  5
BAD0
  8
0
 10
3904.0618231987978106
 20
229.2065570014092941
 30
0.0
 40
0.0043878299172106
 50
143.0516482314201028
 51
215.86406950997781
  0
ARC
  5
BAD1
  8
0
 10
3904.0654276426298566
 20
229.2091627403652865
 30
0.0
 40
0.0088355136791561
 50
215.86406950997781
 51
246.4020062103193993
  0
ARC
  5
BAD2
  8
0
 10
3904.0699574944210326
 20
229.2195321511327961
 30
0.0
 40
0.0201511770229849
 50
246.4020062103193993
 51
276.2529640367932871
  0
ARC
  5
BAD3
  8
0
 10
3904.0701061239151386
 20
229.2181756733523912
 30
0.0
 40
0.0187865808573981
 50
276.2529640367932871
 51
298.7024437722682819
  0
ARC
  5
BAD4
  8
0
 10
3904.0758802531190668
 20
229.2076300784189016
 30
0.0
 40
0.0067636801850961
 50
298.7024437722691914
 51
341.0904814616002909
  0
ARC
  5
BAD5
  8
0
 10
3904.0786982455128964
 20
229.2066647409135953
 30
0.0
 40
0.0037849291664018
 50
341.0904814616018257
 51
37.6318903552018327
  0
ARC
  5
BAD6
  8
0
 10
3904.0730887047138822
 20
229.2023398369215954
 30
0.0
 40
0.0108681305979638
 50
37.6318903552018327
 51
72.5285099215734306
  0
ARC
  5
BAD7
  8
0
 10
3904.0698530661729819
 20
229.1920598690765871
 30
0.0
 40
0.0216452867935429
 50
72.5285099215734306
 51
99.1390965128223201
  0
ARC
  5
BAD8
  8
0
 10
3904.067767240188914
 20
229.2009854963957878
 30
0.0
 40
0.0125181257606922
 50
96.2008492872173804
 51
139.0219651063250126
  0
ARC
  5
BAD9
  8
0
 10
3904.1213583339031175
 20
229.1867663273268079
 30
0.0
 40
0.0043878299172106
 50
143.0516482314201028
 51
215.86406950997781
  0
ARC
  5
BADA
  8
0
 10
3904.1249627777360729
 20
229.1893720662828002
 30
0.0
 40
0.0088355136791561
 50
215.86406950997781
 51
246.4020062103193993
  0
ARC
  5
BADB
  8
0
 10
3904.1294926295258847
 20
229.1997414770503951
 30
0.0
 40
0.0201511770229849
 50
246.4020062103193993
 51
276.2529640367932871
  0
ARC
  5
BADC
  8
0
 10
3904.1296412590199907
 20
229.1983849992699902
 30
0.0
 40
0.0187865808573981
 50
276.2529640367932871
 51
298.7024437722682819
  0
ARC
  5
BADD
  8
0
 10
3904.1354153882248283
 20
229.1878394043365006
 30
0.0
 40
0.0067636801850961
 50
298.7024437722691914
 51
341.0904814616002909
  0
ARC
  5
BADE
  8
0
 10
3904.1382333806191127
 20
229.1868740668311091
 30
0.0
 40
0.0037849291664018
 50
341.0904814616018257
 51
37.6318903552018327
  0
ARC
  5
BADF
  8
0
 10
3904.132623839819189
 20
229.1825491628391092
 30
0.0
 40
0.0108681305979638
 50
37.6318903552018327
 51
72.5285099215734306
  0
ARC
  5
BAE0
  8
0
 10
3904.129388201277834
 20
229.1722691949941009
 30
0.0
 40
0.0216452867935429
 50
72.5285099215734306
 51
99.1390965128223201
  0
ARC
  5
BAE1
  8
0
 10
3904.1273023752951303
 20
229.1811948223133015
 30
0.0
 40
0.0125181257606922
 50
96.2008492872173804
 51
139.0219651063250126
  0
ARC
  5
BAE2
  8
0
 10
3904.1207461025760495
 20
229.1474444356936999
 30
0.0
 40
0.0043878299172106
 50
143.0516482314201028
 51
215.86406950997781
  0
ARC
  5
BAE3
  8
0
 10
3904.1243505464090049
 20
229.1500501746496923
 30
0.0
 40
0.0088355136791561
 50
215.86406950997781
 51
246.4020062103193993
  0
ARC
  5
BAE4
  8
0
 10
3904.1288803981988167
 20
229.1604195854172019
 30
0.0
 40
0.0201511770229849
 50
246.4020062103193993
 51
276.2529640367932871
  0
ARC
  5
BAE5
  8
0
 10
3904.1290290276929227
 20
229.159063107636797
 30
0.0
 40
0.0187865808573981
 50
276.2529640367932871
 51
298.7024437722682819
  0
ARC
  5
BAE6
  8
0
 10
3904.1348031568982151
 20
229.1485175127033074
 30
0.0
 40
0.0067636801850961
 50
298.7024437722691914
 51
341.0904814616002909
  0
ARC
  5
BAE7
  8
0
 10
3904.1376211492920447
 20
229.1475521751980011
 30
0.0
 40
0.0037849291664018
 50
341.0904814616018257
 51
37.6318903552018327
  0
ARC
  5
BAE8
  8
0
 10
3904.132011608492121
 20
229.1432272712060012
 30
0.0
 40
0.0108681305979638
 50
37.6318903552018327
 51
72.5285099215734306
  0
ARC
  5
BAE9
  8
0
 10
3904.1287759699512208
 20
229.1329473033609077
 30
0.0
 40
0.0216452867935429
 50
72.5285099215734306
 51
99.1390965128223201
  0
ARC
  5
BAEA
  8
0
 10
3904.1266901439680623
 20
229.1418729306801936
 30
0.0
 40
0.0125181257606922
 50
96.2008492872173804
 51
139.0219651063250126
  0
ARC
  5
BAEB
  8
0
 10
3904.1210021258762026
 20
229.1088235419159957
 30
0.0
 40
0.0043878299172106
 50
143.0516482314201028
 51
215.86406950997781
  0
ARC
  5
BAEC
  8
0
 10
3904.1246065697077938
 20
229.1114292808719881
 30
0.0
 40
0.0088355136791561
 50
215.86406950997781
 51
246.4020062103193993
  0
ARC
  5
BAED
  8
0
 10
3904.1291364214989699
 20
229.1217986916396114
 30
0.0
 40
0.0201511770229849
 50
246.4020062103193993
 51
276.2529640367932871
  0
ARC
  5
BAEE
  8
0
 10
3904.1292850509930759
 20
229.1204422138592065
 30
0.0
 40
0.0187865808573981
 50
276.2529640367932871
 51
298.7024437722682819
  0
ARC
  5
BAEF
  8
0
 10
3904.135059180197004
 20
229.1098966189256032
 30
0.0
 40
0.0067636801850961
 50
298.7024437722691914
 51
341.0904814616002909
  0
ARC
  5
BAF0
  8
0
 10
3904.1378771725921979
 20
229.108931281420297
 30
0.0
 40
0.0037849291664018
 50
341.0904814616018257
 51
37.6318903552018327
  0
ARC
  5
BAF1
  8
0
 10
3904.1322676317931837
 20
229.104606377428297
 30
0.0
 40
0.0108681305979638
 50
37.6318903552018327
 51
72.5285099215734306
  0
ARC
  5
BAF2
  8
0
 10
3904.1290319932509192
 20
229.0943264095832888
 30
0.0
 40
0.0216452867935429
 50
72.5285099215734306
 51
99.1390965128223201
  0
ARC
  5
BAF3
  8
0
 10
3904.1269461672682155
 20
229.1032520369024894
 30
0.0
 40
0.0125181257606922
 50
96.2008492872173804
 51
139.0219651063250126
  0
ARC
  5
BAF4
  8
0
 10
3904.1210036869938449
 20
229.0695849570504095
 30
0.0
 40
0.0043878299172106
 50
143.0516482314201028
 51
215.86406950997781
  0
ARC
  5
BAF5
  8
0
 10
3904.1246081308258908
 20
229.0721906960064018
 30
0.0
 40
0.0088355136791561
 50
215.86406950997781
 51
246.4020062103193993
  0
ARC
  5
BAF6
  8
0
 10
3904.1291379826170669
 20
229.0825601067739115
 30
0.0
 40
0.0201511770229849
 50
246.4020062103193993
 51
276.2529640367932871
  0
ARC
  5
BAF7
  8
0
 10
3904.1292866121111729
 20
229.0812036289935918
 30
0.0
 40
0.0187865808573981
 50
276.2529640367932871
 51
298.7024437722682819
  0
ARC
  5
BAF8
  8
0
 10
3904.135060741315101
 20
229.0706580340601022
 30
0.0
 40
0.0067636801850961
 50
298.7024437722691914
 51
341.0904814616002909
  0
ARC
  5
BAF9
  8
0
 10
3904.1378787337089307
 20
229.0696926965547107
 30
0.0
 40
0.0037849291664018
 50
341.0904814616018257
 51
37.6318903552018327
  0
ARC
  5
BAFA
  8
0
 10
3904.1322691929099165
 20
229.0653677925627107
 30
0.0
 40
0.0108681305979638
 50
37.6318903552018327
 51
72.5285099215734306
  0
ARC
  5
BAFB
  8
0
 10
3904.1290335543690162
 20
229.0550878247177025
 30
0.0
 40
0.0216452867935429
 50
72.5285099215734306
 51
99.1390965128223201
  0
ARC
  5
BAFC
  8
0
 10
3904.1269477283858578
 20
229.0640134520369031
 30
0.0
 40
0.0125181257606922
 50
96.2008492872173804
 51
139.0219651063250126
  0
ARC
  5
BAFD
  8
0
 10
3904.1210929829258021
 20
229.0317060282758916
 30
0.0
 40
0.0043878299172106
 50
143.0516482314201028
 51
215.86406950997781
  0
ARC
  5
BAFE
  8
0
 10
3904.1246974267569385
 20
229.0343117672319124
 30
0.0
 40
0.0088355136791561
 50
215.86406950997781
 51
246.4020062103193993
  0
ARC
  5
BAFF
  8
0
 10
3904.129227278549024
 20
229.0446811779993936
 30
0.0
 40
0.0201511770229849
 50
246.4020062103193993
 51
276.2529640367932871
  0
ARC
  5
BB00
  8
0
 10
3904.1293759080422205
 20
229.0433247002189887
 30
0.0
 40
0.0187865808573981
 50
276.2529640367932871
 51
298.7024437722682819
  0
ARC
  5
BB01
  8
0
 10
3904.1351500372470582
 20
229.0327791052854991
 30
0.0
 40
0.0067636801850961
 50
298.7024437722691914
 51
341.0904814616002909
  0
ARC
  5
BB02
  8
0
 10
3904.1379680296408878
 20
229.0318137677801928
 30
0.0
 40
0.0037849291664018
 50
341.0904814616018257
 51
37.6318903552018327
  0
ARC
  5
BB03
  8
0
 10
3904.1323584888409641
 20
229.0274888637881929
 30
0.0
 40
0.0108681305979638
 50
37.6318903552018327
 51
72.5285099215734306
  0
ARC
  5
BB04
  8
0
 10
3904.1291228503000639
 20
229.0172088959430994
 30
0.0
 40
0.0216452867935429
 50
72.5285099215734306
 51
99.1390965128223201
  0
ARC
  5
BB05
  8
0
 10
3904.1270370243169054
 20
229.0261345232624137
 30
0.0
 40
0.0125181257606922
 50
96.2008492872173804
 51
139.0219651063250126
  0
ARC
  5
BB06
  8
0
 10
3904.1207663971058537
 20
228.9915563146649049
 30
0.0
 40
0.0043878299172106
 50
143.0516482314201028
 51
215.86406950997781
  0
ARC
  5
BB07
  8
0
 10
3904.1243708409388091
 20
228.9941620536208973
 30
0.0
 40
0.0088355136791561
 50
215.86406950997781
 51
246.4020062103193993
  0
ARC
  5
BB08
  8
0
 10
3904.1289006927290757
 20
229.0045314643884922
 30
0.0
 40
0.0201511770229849
 50
246.4020062103193993
 51
266.7435113425946156
  0
ARC
  5
BB09
  8
0
 10
3904.137641443821849
 20
228.9916640541692061
 30
0.0
 40
0.0037849291664018
 50
7.1733797113728981
 51
37.6318903552018327
  0
ARC
  5
BB0A
  8
0
 10
3904.1320319030228347
 20
228.9873391501772062
 30
0.0
 40
0.0108681305979638
 50
37.6318903552018327
 51
72.5285099215734306
  0
ARC
  5
BB0B
  8
0
 10
3904.128796264481025
 20
228.9770591823321979
 30
0.0
 40
0.0216452867935429
 50
72.5285099215734306
 51
99.1390965128223201
  0
ARC
  5
BB0C
  8
0
 10
3904.1267104384978666
 20
228.9859848096513986
 30
0.0
 40
0.0125181257606922
 50
96.2008492872173804
 51
139.0219651063250126
  0
ARC
  5
BB0D
  8
0
 10
3904.1796425844390797
 20
229.0504614480749126
 30
0.0
 40
0.0043878299172106
 50
143.0516482314201028
 51
215.86406950997781
  0
ARC
  5
BB0E
  8
0
 10
3904.1832470282711256
 20
229.0530671870309902
 30
0.0
 40
0.0088355136791561
 50
215.86406950997781
 51
246.4020062103193993
  0
ARC
  5
BB0F
  8
0
 10
3904.1877768800618469
 20
229.0634365977984999
 30
0.0
 40
0.0201511770229849
 50
246.4020062103193993
 51
276.2529640367932871
  0
ARC
  5
BB10
  8
0
 10
3904.1879255095550434
 20
229.0620801200180949
 30
0.0
 40
0.0187865808573981
 50
276.2529640367932871
 51
298.7024437722682819
  0
ARC
  5
BB11
  8
0
 10
3904.1936996387598811
 20
229.0515345250846053
 30
0.0
 40
0.0067636801850961
 50
298.7024437722691914
 51
341.0904814616002909
  0
ARC
  5
BB12
  8
0
 10
3904.1965176311541654
 20
229.0505691875792991
 30
0.0
 40
0.0037849291664018
 50
341.0904814616018257
 51
37.6318903552018327
  0
ARC
  5
BB13
  8
0
 10
3904.1909080903551512
 20
229.0462442835872992
 30
0.0
 40
0.0108681305979638
 50
37.6318903552018327
 51
72.5285099215734306
  0
ARC
  5
BB14
  8
0
 10
3904.1876724518128867
 20
229.0359643157422056
 30
0.0
 40
0.0216452867935429
 50
72.5285099215734306
 51
99.1390965128223201
  0
ARC
  5
BB15
  8
0
 10
3904.185586625830183
 20
229.0448899430614063
 30
0.0
 40
0.0125181257606922
 50
96.2008492872173804
 51
139.0219651063250126
  0
ARC
  5
BB16
  8
0
 10
3904.1797352367730127
 20
229.0893215049177059
 30
0.0
 40
0.0043878299172106
 50
143.0516482314201028
 51
215.86406950997781
  0
ARC
  5
BB17
  8
0
 10
3904.1833396806050587
 20
229.0919272438736982
 30
0.0
 40
0.0088355136791561
 50
215.86406950997781
 51
246.4020062103193993
  0
ARC
  5
BB18
  8
0
 10
3904.1878695323948705
 20
229.1022966546412931
 30
0.0
 40
0.0201511770229849
 50
246.4020062103193993
 51
276.2529640367932871
  0
ARC
  5
BB19
  8
0
 10
3904.1880181618889765
 20
229.1009401768608029
 30
0.0
 40
0.0187865808573981
 50
276.2529640367932871
 51
298.7024437722682819
  0
ARC
  5
BB1A
  8
0
 10
3904.1937922910951784
 20
229.0903945819273133
 30
0.0
 40
0.0067636801850961
 50
298.7024437722691914
 51
341.0904814616002909
  0
ARC
  5
BB1B
  8
0
 10
3904.1966102834880985
 20
229.0894292444220071
 30
0.0
 40
0.0037849291664018
 50
341.0904814616018257
 51
37.6318903552018327
  0
ARC
  5
BB1C
  8
0
 10
3904.1910007426881748
 20
229.0851043404300071
 30
0.0
 40
0.0108681305979638
 50
37.6318903552018327
 51
72.5285099215734306
  0
ARC
  5
BB1D
  8
0
 10
3904.187765104148184
 20
229.0748243725849989
 30
0.0
 40
0.0216452867935429
 50
72.5285099215734306
 51
99.1390965128223201
  0
ARC
  5
BB1E
  8
0
 10
3904.1856792781641161
 20
229.0837499999041995
 30
0.0
 40
0.0125181257606922
 50
96.2008492872173804
 51
139.0219651063250126
  0
ARC
  5
BB1F
  8
0
 10
3904.1795324475870075
 20
229.1283399682650952
 30
0.0
 40
0.0043878299172106
 50
143.0516482314201028
 51
215.86406950997781
  0
ARC
  5
BB20
  8
0
 10
3904.1831368914181439
 20
229.1309457072210876
 30
0.0
 40
0.0088355136791561
 50
215.86406950997781
 51
246.4020062103193993
  0
ARC
  5
BB21
  8
0
 10
3904.1876667432088652
 20
229.1413151179887109
 30
0.0
 40
0.0201511770229849
 50
246.4020062103193993
 51
276.2529640367932871
  0
ARC
  5
BB22
  8
0
 10
3904.1878153727029712
 20
229.139958640208306
 30
0.0
 40
0.0187865808573981
 50
276.2529640367932871
 51
298.7024437722682819
  0
ARC
  5
BB23
  8
0
 10
3904.1935895019068994
 20
229.1294130452747027
 30
0.0
 40
0.0067636801850961
 50
298.7024437722691914
 51
341.0904814616002909
  0
ARC
  5
BB24
  8
0
 10
3904.1964074943020933
 20
229.1284477077693964
 30
0.0
 40
0.0037849291664018
 50
341.0904814616018257
 51
37.6318903552018327
  0
ARC
  5
BB25
  8
0
 10
3904.190797953503079
 20
229.1241228037773965
 30
0.0
 40
0.0108681305979638
 50
37.6318903552018327
 51
72.5285099215734306
  0
ARC
  5
BB26
  8
0
 10
3904.1875623149608145
 20
229.1138428359323882
 30
0.0
 40
0.0216452867935429
 50
72.5285099215734306
 51
99.1390965128223201
  0
ARC
  5
BB27
  8
0
 10
3904.1854764889781109
 20
229.1227684632515889
 30
0.0
 40
0.0125181257606922
 50
96.2008492872173804
 51
139.0219651063250126
  0
LINE
  5
BB29
  8
0
 10
3903.7328502145278435
 20
233.3843921901830072
 30
0.0
 11
3903.73285010869904
 21
234.0266921879631923
 31
0.0
  0
LINE
  5
BB2A
  8
0
 10
3904.1728501087000041
 20
233.3843921901830072
 30
0.0
 11
3904.1728501087000041
 21
234.0266921879631923
 31
0.0
  0
ARC
  5
BB2B
  8
0
 10
3904.1501501087000179
 20
233.3843921901830072
 30
0.0
 40
0.0227
 50
270.0
 51
0.0000000000016284
  0
ARC
  5
BB2C
  8
0
 10
3903.7555502145278297
 20
233.3843921901830072
 30
0.0
 40
0.0227
 50
180.0
 51
270.0
  0
ENDSEC
  0
EOF
