  0
SECTION
  2
HEADER
  9
$ACADVER
  1
AC1009
  9
$INSBASE
 10
3894.6537922776092273
 20
218.8660181081417022
 30
0.0
  9
$EXTMIN
 10
3893.5337922776589039
 20
212.2756181081416003
 30
0.0
  9
$EXTMAX
 10
3895.773792277559096
 20
219.9860181081417068
 30
0.0
  9
$LIMMIN
 10
0.0
 20
0.0
  9
$LIMMAX
 10
11.6929133858000007
 20
8.2677165353999982
  9
$ORTHOMODE
 70
     0
  9
$REGENMODE
 70
     1
  9
$FILLMODE
 70
     1
  9
$QTEXTMODE
 70
     0
  9
$MIRRTEXT
 70
     0
  9
$DRAGMODE
 70
     2
  9
$LTSCALE
 40
0.6431102362
  9
$OSMODE
 70
  3839
  9
$ATTMODE
 70
     1
  9
$TEXTSIZE
 40
0.2
  9
$TRACEWID
 40
0.05
  9
$TEXTSTYLE
  7
STANDARD
  9
$CLAYER
  8
0
  9
$CELTYPE
  6
BYLAYER
  9
$CECOLOR
 62
   256
  9
$DIMSCALE
 40
1.0
  9
$DIMASZ
 40
0.1875
  9
$DIMEXO
 40
0.0625
  9
$DIMDLI
 40
0.4443307087
  9
$DIMRND
 40
0.0
  9
$DIMDLE
 40
0.0
  9
$DIMEXE
 40
0.125
  9
$DIMTP
 40
0.01
  9
$DIMTM
 40
0.01
  9
$DIMTXT
 40
2.0
  9
$DIMCEN
 40
0.1052362205
  9
$DIMTSZ
 40
0.0
  9
$DIMTOL
 70
     1
  9
$DIMLIM
 70
     0
  9
$DIMTIH
 70
     1
  9
$DIMTOH
 70
     1
  9
$DIMSE1
 70
     0
  9
$DIMSE2
 70
     0
  9
$DIMTAD
 70
     0
  9
$DIMZIN
 70
     0
  9
$DIMBLK
  1

  9
$DIMASO
 70
     1
  9
$DIMSHO
 70
     1
  9
$DIMPOST
  1
\X
  9
$DIMAPOST
  1

  9
$DIMALT
 70
     1
  9
$DIMALTD
 70
     2
  9
$DIMALTF
 40
25.3999999999999986
  9
$DIMLFAC
 40
1.0
  9
$DIMTOFL
 70
     0
  9
$DIMTVP
 40
0.0
  9
$DIMTIX
 70
     0
  9
$DIMSOXD
 70
     0
  9
$DIMSAH
 70
     0
  9
$DIMBLK1
  1

  9
$DIMBLK2
  1

  9
$DIMSTYLE
  2
STANDARD
  9
$DIMCLRD
 70
     0
  9
$DIMCLRE
 70
     0
  9
$DIMCLRT
 70
     0
  9
$DIMTFAC
 40
1.0
  9
$DIMGAP
 40
0.09
  9
$LUNITS
 70
     2
  9
$LUPREC
 70
     4
  9
$SKETCHINC
 40
0.1
  9
$FILLETRAD
 40
0.0
  9
$AUNITS
 70
     0
  9
$AUPREC
 70
     0
  9
$MENU
  1
.
  9
$ELEVATION
 40
0.0
  9
$PELEVATION
 40
0.0
  9
$THICKNESS
 40
0.0
  9
$LIMCHECK
 70
     0
  9
$BLIPMODE
 70
     0
  9
$CHAMFERA
 40
0.0
  9
$CHAMFERB
 40
0.0
  9
$SKPOLY
 70
     0
  9
$TDCREATE
 40
2458060.468368056230247
  9
$TDUPDATE
 40
2459029.6279282411560416
  9
$TDINDWG
 40
0.6147292824
  9
$TDUSRTIMER
 40
0.6147292824
  9
$USRTIMER
 70
     1
  9
$ANGBASE
 50
0.0
  9
$ANGDIR
 70
     0
  9
$PDMODE
 70
     0
  9
$PDSIZE
 40
0.3125
  9
$PLINEWID
 40
0.0
  9
$COORDS
 70
     1
  9
$SPLFRAME
 70
     0
  9
$SPLINETYPE
 70
     6
  9
$SPLINESEGS
 70
     8
  9
$ATTDIA
 70
     1
  9
$ATTREQ
 70
     1
  9
$HANDLING
 70
     1
  9
$HANDSEED
  5
B1E9
  9
$SURFTAB1
 70
     6
  9
$SURFTAB2
 70
     6
  9
$SURFTYPE
 70
     6
  9
$SURFU
 70
     6
  9
$SURFV
 70
     6
  9
$UCSNAME
  2

  9
$UCSORG
 10
0.0
 20
0.0
 30
0.0
  9
$UCSXDIR
 10
1.0
 20
0.0
 30
0.0
  9
$UCSYDIR
 10
0.0
 20
1.0
 30
0.0
  9
$PUCSNAME
  2

  9
$PUCSORG
 10
0.0
 20
0.0
 30
0.0
  9
$PUCSXDIR
 10
1.0
 20
0.0
 30
0.0
  9
$PUCSYDIR
 10
0.0
 20
1.0
 30
0.0
  9
$USERI1
 70
     0
  9
$USERI2
 70
     0
  9
$USERI3
 70
     0
  9
$USERI4
 70
     0
  9
$USERI5
 70
     0
  9
$USERR1
 40
0.0
  9
$USERR2
 40
0.0
  9
$USERR3
 40
0.0
  9
$USERR4
 40
0.0
  9
$USERR5
 40
0.0
  9
$WORLDVIEW
 70
     1
  9
$SHADEDGE
 70
     3
  9
$SHADEDIF
 70
    70
  9
$TILEMODE
 70
     1
  9
$MAXACTVP
 70
    64
  9
$PLIMCHECK
 70
     0
  9
$PEXTMIN
 10
1.0000000000000000E+20
 20
1.0000000000000000E+20
 30
1.0000000000000000E+20
  9
$PEXTMAX
 10
-1.0000000000000000E+20
 20
-1.0000000000000000E+20
 30
-1.0000000000000000E+20
  9
$PLIMMIN
 10
0.0
 20
0.0
  9
$PLIMMAX
 10
12.0
 20
9.0
  9
$UNITMODE
 70
     0
  9
$VISRETAIN
 70
     1
  9
$PLINEGEN
 70
     0
  9
$PSLTSCALE
 70
     1
  0
ENDSEC
  0
SECTION
  2
TABLES
  0
TABLE
  2
VPORT
 70
     1
  0
VPORT
  2
*ACTIVE
 70
     0
 10
0.0
 20
0.0
 11
1.0
 21
1.0
 12
0.0
 22
0.0
 13
0.0
 23
0.0
 14
1.0
 24
1.0
 15
0.0
 25
0.0
 16
0.0
 26
0.0
 36
33.3156183491179902
 17
3894.65380859375
 27
216.1316909790039063
 37
0.0
 40
8.0248670139266185
 41
3.314341846758349
 42
50.0
 43
0.0
 44
0.0
 50
0.0
 51
0.0
 71
     0
 72
   100
 73
     1
 74
     1
 75
     0
 76
     0
 77
     0
 78
     0
  0
ENDTAB
  0
TABLE
  2
LTYPE
 70
     2
  0
LTYPE
  2
CONTINUOUS
 70
     0
  3
Solid line
 72
    65
 73
     0
 40
0.0
  0
LTYPE
  2
PHANTOM2
 70
     0
  3
___ _ _ ___ _ _ ___ _ _ ___ _ _
 72
    65
 73
     6
 40
1.25
 49
0.625
 49
-0.125
 49
0.125
 49
-0.125
 49
0.125
 49
-0.125
  0
ENDTAB
  0
TABLE
  2
LAYER
 70
     2
  0
LAYER
  2
0
 70
     0
 62
   255
  6
CONTINUOUS
  0
LAYER
  2
DEFPOINTS
 70
     0
 62
     7
  6
CONTINUOUS
  0
ENDTAB
  0
TABLE
  2
STYLE
 70
     1
  0
STYLE
  2
STANDARD
 70
     0
 40
0.0
 41
0.8
 50
0.0
 71
     0
 42
0.2
  3
txt
  4

  0
ENDTAB
  0
TABLE
  2
VIEW
 70
     0
  0
ENDTAB
  0
TABLE
  2
UCS
 70
     0
  0
ENDTAB
  0
TABLE
  2
APPID
 70
     9
  0
APPID
  2
ACAD
 70
     0
  0
APPID
  2
ACAD_MLEADERVER
 70
     0
  0
APPID
  2
ACAD_EXEMPT_FROM_CAD_STANDARDS
 70
     0
  0
APPID
  2
ACAD_NAV_VCDISPLAY
 70
     0
  0
APPID
  2
ACAECLAYERSTANDARD
 70
     0
  0
APPID
  2
ACCMTRANSPARENCY
 70
     0
  0
APPID
  2
ACAD_DSTYLE_DIMJAG
 70
     0
  0
APPID
  2
ACAD_DSTYLE_DIMTALN
 70
     0
  0
APPID
  2
ACDBATTR
 70
     0
  0
ENDTAB
  0
TABLE
  2
DIMSTYLE
 70
     1
  0
DIMSTYLE
  2
STANDARD
 70
     0
  3

  4

  5

  6

  7

 40
1.0
 41
0.1875
 42
0.0625
 43
0.38
 44
0.125
 45
0.0
 46
0.0
 47
0.01
 48
0.01
140
0.15625
141
0.09
142
0.0
143
25.3999999999999986
144
1.0
145
0.0
146
1.0
147
0.09
 71
     1
 72
     0
 73
     1
 74
     1
 75
     0
 76
     0
 77
     0
 78
     4
170
     0
171
     2
172
     0
173
     0
174
     0
175
     0
176
     0
177
     0
178
     0
  0
ENDTAB
  0
ENDSEC
  0
SECTION
  2
BLOCKS
  0
BLOCK
  8
0
  2
$MODEL_SPACE
 70
     0
 10
0.0
 20
0.0
 30
0.0
  3
$MODEL_SPACE
  1

  0
ENDBLK
  5
21
  8
0
  0
BLOCK
 67
     1
  8
0
  2
$PAPER_SPACE
 70
     0
 10
0.0
 20
0.0
 30
0.0
  3
$PAPER_SPACE
  1

  0
ENDBLK
  5
1D
 67
     1
  8
0
  0
BLOCK
  8
0
  2
_FILLED
 70
     0
 10
0.0
 20
0.0
 30
0.0
  3
_FILLED
  1

  0
SOLID
  5
6F59
  8
0
  6
BYBLOCK
 62
     0
 10
0.0
 20
0.0
 30
0.0
 11
-1.0
 21
0.1666666667
 31
0.0
 12
-1.0
 22
-0.1666666667
 32
0.0
 13
-1.0
 23
-0.1666666667
 33
0.0
  0
ENDBLK
  5
6F5A
  8
0
  6
BYBLOCK
 62
     0
  0
BLOCK
  8
0
  2
_CLOSED
 70
     0
 10
0.0
 20
0.0
 30
0.0
  3
_CLOSED
  1

  0
LINE
  5
9506
  8
0
  6
BYBLOCK
 62
     0
 10
0.0
 20
0.0
 30
0.0
 11
-1.0
 21
0.1666666667
 31
0.0
  0
LINE
  5
9507
  8
0
  6
BYBLOCK
 62
     0
 10
-1.0
 20
0.1666666667
 30
0.0
 11
-1.0
 21
-0.1666666667
 31
0.0
  0
LINE
  5
9508
  8
0
  6
BYBLOCK
 62
     0
 10
-1.0
 20
-0.1666666667
 30
0.0
 11
0.0
 21
0.0
 31
0.0
  0
LINE
  5
9509
  8
0
  6
BYBLOCK
 62
     0
 10
-1.0
 20
0.0
 30
0.0
 11
0.0
 21
0.0
 31
0.0
  0
ENDBLK
  5
950A
  8
0
  6
BYBLOCK
 62
     0
  0
BLOCK
  8
0
  2
A$CA6EE900F
 70
     0
 10
0.0
 20
0.0
 30
0.0
  3
A$CA6EE900F
  1

  0
LINE
  5
B082
  8
0
 10
0.0000000168924998
 20
3.2400742852885571
 30
0.0
 11
0.0000000168924998
 21
-0.0000000068060331
 31
0.0
  0
ENDBLK
  5
B086
  8
0
  0
ENDSEC
  0
SECTION
  2
ENTITIES
  0
ATTDEF
  5
3930
  8
DEFPOINTS
 10
3894.6545357298768977
 20
218.8696564823333972
 30
0.0
 40
0.001
  1
K-14404T-4A
  3

  2
MODELNUMBER
 70
     0
1001
ACDBATTR
1070
     0
1070
     1
  0
ATTDEF
  5
3931
  8
DEFPOINTS
 10
3894.6545357298768977
 20
218.8679898156667889
 30
0.0
 40
0.001
  1
PURIST
  3

  2
TRADENAME
 70
     0
1001
ACDBATTR
1070
     0
1070
     1
  0
ATTDEF
  5
3932
  8
DEFPOINTS
 10
3894.6545357298768977
 20
218.8663231490000953
 30
0.0
 40
0.001
  1
BATHROOM SINK FAUCET
  3

  2
PRODUCT
 70
     0
1001
ACDBATTR
1070
     0
1070
     1
  0
ARC
  5
AF7D
  8
0
 10
3888.6825078830938764
 20
199.6928605834754933
 30
0.0
 40
19.1945249805657312
 50
72.584045755788253
 51
72.8008594179712389
  0
ARC
  5
AF7E
  8
0
 10
3894.6537922776587948
 20
218.8660181081415885
 30
0.0
 40
0.908220723940297
 50
100.307002621441697
 51
250.5477921256467937
  0
ARC
  5
AF7F
  8
0
 10
3894.6537922776587948
 20
218.8660181081415885
 30
0.0
 40
0.908220723940297
 50
255.5120121157412996
 51
256.0250745215591905
  0
LINE
  5
AF80
  8
0
 10
3894.4344594803751534
 20
218.0047747396002933
 30
0.0
 11
3894.3476195531598023
 21
218.0313730110416088
 31
0.0
  0
LINE
  5
AF81
  8
0
 10
3894.3476195531598023
 20
218.0313730110416088
 30
0.0
 11
3894.3441663463590885
 21
218.0200780722645959
 31
0.0
  0
LINE
  5
AF82
  8
0
 10
3894.3441663463590885
 20
218.0200780722645959
 30
0.0
 11
3894.4344594803751534
 21
217.9922380989742976
 31
0.0
  0
ARC
  5
AF83
  8
0
 10
3894.4063341746577862
 20
218.0551057286699006
 30
0.0
 40
0.0713582677264865
 50
209.3971810228611901
 51
293.2124869569345833
  0
LINE
  5
AF84
  8
0
 10
3894.3582084002591728
 20
218.0290601043415961
 30
0.0
 11
3894.3578900636930484
 21
218.0282272480754955
 31
0.0
  0
LINE
  5
AF85
  8
0
 10
3894.4275538356591824
 20
218.0074513851415929
 30
0.0
 11
3894.4273966011060111
 21
218.0069380345956063
 31
0.0
  0
LINE
  5
AF86
  8
0
 10
3894.2487922776590494
 20
212.6084101754476876
 30
0.0
 11
3894.2487922776590494
 21
218.0511101378774867
 31
0.0
  0
ARC
  5
AF89
  8
0
 10
3894.6537922776587948
 20
218.8660181081417022
 30
0.0
 40
1.119999999999999
 50
90.0000000025534064
 51
248.8010709828579081
  0
ARC
  5
AF8A
  8
0
 10
3894.6537922776587948
 20
218.8660181081417022
 30
0.0
 40
0.9100000000000001
 50
100.0760201834858947
 51
250.7450244112148994
  0
ARC
  5
AF8B
  8
0
 10
3894.6537922776587948
 20
218.8660181081417022
 30
0.0
 40
0.9100000000000001
 50
255.3147798301648095
 51
256.0529523542795118
  0
ARC
  5
AF8C
  8
0
 10
3894.6537922776587948
 20
218.8660181081417022
 30
0.0
 40
0.9100000000000001
 50
284.0336265857490048
 51
284.6852201667109057
  0
ARC
  5
AF8D
  8
0
 10
3894.6537922776587948
 20
218.8660181081417022
 30
0.0
 40
0.9100000000000001
 50
289.2549755789618757
 51
79.9239798256972165
  0
ARC
  5
AF8E
  8
0
 10
3894.6537922776587948
 20
218.8660181081417022
 30
0.0
 40
0.8822310971554653
 50
284.4848450182836928
 51
255.6046368246229008
  0
LINE
  5
AF8F
  8
0
 10
3894.4846363695469336
 20
219.7379604996885121
 30
0.0
 11
3894.4846363575579744
 21
219.7446645637593008
 31
0.0
  0
ARC
  5
AF90
  8
0
 10
3894.5046854392880959
 20
219.7446645996124062
 30
0.0
 40
0.0200490817297504
 50
102.8298848182658958
 51
180.0001024602470068
  0
ARC
  5
AF91
  8
0
 10
3894.4930865557162178
 20
219.7075206540013141
 30
0.0
 40
0.0357516686411513
 50
103.6716873311412996
 51
121.3996149870849024
  0
ARC
  5
AF92
  8
0
 10
3894.4769018146439521
 20
219.9283537237531903
 30
0.0
 40
0.190332745809932
 50
269.26486039201518
 51
279.4796781114770852
  0
ARC
  5
AF93
  8
0
 10
3894.6581045616380834
 20
218.5674971346734026
 30
0.0
 40
1.1826555849954541
 50
90.2089164635297465
 51
97.2795695065252914
  0
LINE
  5
AF95
  8
0
 10
3895.0587922775589504
 20
212.6084101754476023
 30
0.0
 11
3895.0587922775589504
 21
218.0511101378774867
 31
0.0
  0
ARC
  5
AF97
  8
0
 10
3894.6537922775592051
 20
218.8660181081417022
 30
0.0
 40
1.119999999999999
 50
291.1989290171421203
 51
89.9999999974465936
  0
LINE
  5
AF98
  8
0
 10
3894.8229481856719758
 20
219.7379604996885121
 30
0.0
 11
3894.8229481976600255
 21
219.7446645637593008
 31
0.0
  0
ARC
  5
AF99
  8
0
 10
3894.8028991159299039
 20
219.7446645996124062
 30
0.0
 40
0.0200490817297504
 50
359.9998975397513732
 51
77.1701151817340332
  0
ARC
  5
AF9A
  8
0
 10
3894.814497999501782
 20
219.7075206540013141
 30
0.0
 40
0.0357516686411513
 50
58.6003850129150834
 51
76.3283126688587146
  0
ARC
  5
AF9B
  8
0
 10
3894.8306827405740478
 20
219.9283537237531903
 30
0.0
 40
0.190332745809932
 50
260.5203218885229148
 51
270.73513960798482
  0
ARC
  5
AF9C
  8
0
 10
3894.649479993580826
 20
218.5674971346734026
 30
0.0
 40
1.1826555849954541
 50
82.7204304934747086
 51
89.7910835364702535
  0
ARC
  5
AF9D
  8
0
 10
3894.6537922776092273
 20
212.6884518067415968
 30
0.0
 40
0.4128336985999167
 50
191.1795065816064039
 51
348.8204934183935961
  0
ARC
  5
AF9E
  8
0
 10
3894.6544594274600968
 20
218.8663238642947135
 30
0.0
 40
0.2203635630379393
 50
3.2919174582360169
 51
176.708082541757193
  0
ARC
  5
AF9F
  8
0
 10
3894.6537922776101368
 20
218.8670283505873044
 30
0.0
 40
0.2249390517442368
 50
348.8157141036705866
 51
192.8188115939445879
  0
ARC
  5
AFA0
  8
0
 10
3894.6537922776101368
 20
219.1865788065829861
 30
0.0
 40
0.5976970303415855
 50
75.1127590129596427
 51
104.8872409870403004
  0
ARC
  5
AFA2
  8
0
 10
3900.6250766721241234
 20
199.6928605834754933
 30
0.0
 40
19.1945249805657312
 50
107.1991405820287042
 51
107.4159542442117043
  0
ARC
  5
AFA3
  8
0
 10
3894.6537922775592051
 20
218.8660181081415885
 30
0.0
 40
0.908220723940297
 50
289.4522078743531779
 51
79.6929973785582604
  0
ARC
  5
AFA4
  8
0
 10
3894.6537922775592051
 20
218.8660181081415885
 30
0.0
 40
0.908220723940297
 50
284.0616846017474018
 51
284.4879878842587004
  0
LINE
  5
AFA5
  8
0
 10
3894.8744593745468592
 20
218.0051834233339036
 30
0.0
 11
3894.9599650020591071
 21
218.0313730110416088
 31
0.0
  0
LINE
  5
AFA6
  8
0
 10
3894.9599650020591071
 20
218.0313730110416088
 30
0.0
 11
3894.9634182088598209
 21
218.0200780722645959
 31
0.0
  0
LINE
  5
AFA7
  8
0
 10
3894.9634182088598209
 20
218.0200780722645959
 30
0.0
 11
3894.8744593745468592
 21
217.9926495019950039
 31
0.0
  0
ARC
  5
AFA8
  8
0
 10
3894.9012503805611232
 20
218.0551057286699006
 30
0.0
 40
0.0713582677264865
 50
247.9482663827340048
 51
330.6028189771387815
  0
LINE
  5
AFA9
  8
0
 10
3894.9493761549588271
 20
218.0290601043415961
 30
0.0
 11
3894.9496944915258609
 21
218.0282272480754955
 31
0.0
  0
LINE
  5
AFAA
  8
0
 10
3894.8800307195588175
 20
218.0074513851415929
 30
0.0
 11
3894.8801879541119888
 21
218.0069380345956063
 31
0.0
  0
LINE
  5
B092
  8
0
 10
3894.4344594803751534
 20
215.6390172070431959
 30
0.0
 11
3894.4344594803751534
 21
218.8789778437792961
 31
0.0
  0
LINE
  5
B093
  8
0
 10
3894.8744593745468592
 20
218.8789778437792961
 30
0.0
 11
3894.8744593745468592
 21
215.6389035516847059
 31
0.0
  0
ARC
  5
B094
  8
0
 10
3894.4444598351001332
 20
215.6389793318269028
 30
0.0
 40
0.0100004264492051
 50
179.7829997310739998
 51
269.9989879682254923
  0
LINE
  5
B095
  8
0
 10
3894.4444596584598912
 20
215.6289789053793129
 30
0.0
 11
3894.8644596583940256
 21
215.6289714867990028
 31
0.0
  0
ARC
  5
B096
  8
0
 10
3894.8644598350228989
 20
215.6389712555194933
 30
0.0
 40
0.0099997687221339
 50
269.9989879682254923
 51
359.6120736640515929
  0
ENDSEC
  0
EOF
