  0
SECTION
  2
HEADER
  9
$ACADVER
  1
AC1009
  9
$INSBASE
 10
4330.031104073032111
 20
238.7320182371030057
 30
0.0
  9
$EXTMIN
 10
4323.3443519603688401
 20
237.441379883608505
 30
-0.0000000000000058
  9
$EXTMAX
 10
4336.9100118908309014
 20
240.0233389832743001
 30
0.0000000000000104
  9
$LIMMIN
 10
0.0
 20
0.0
  9
$LIMMAX
 10
11.6929133858000007
 20
8.2677165353999982
  9
$ORTHOMODE
 70
     0
  9
$REGENMODE
 70
     1
  9
$FILLMODE
 70
     1
  9
$QTEXTMODE
 70
     0
  9
$MIRRTEXT
 70
     0
  9
$DRAGMODE
 70
     2
  9
$LTSCALE
 40
0.6431102362
  9
$OSMODE
 70
     7
  9
$ATTMODE
 70
     1
  9
$TEXTSIZE
 40
0.2
  9
$TRACEWID
 40
0.05
  9
$TEXTSTYLE
  7
STANDARD
  9
$CLAYER
  8
0
  9
$CELTYPE
  6
BYLAYER
  9
$CECOLOR
 62
   256
  9
$DIMSCALE
 40
1.0
  9
$DIMASZ
 40
0.1875
  9
$DIMEXO
 40
0.0625
  9
$DIMDLI
 40
0.4443307087
  9
$DIMRND
 40
0.0
  9
$DIMDLE
 40
0.0
  9
$DIMEXE
 40
0.125
  9
$DIMTP
 40
0.01
  9
$DIMTM
 40
0.01
  9
$DIMTXT
 40
2.0
  9
$DIMCEN
 40
0.1052362205
  9
$DIMTSZ
 40
0.0
  9
$DIMTOL
 70
     1
  9
$DIMLIM
 70
     0
  9
$DIMTIH
 70
     1
  9
$DIMTOH
 70
     1
  9
$DIMSE1
 70
     0
  9
$DIMSE2
 70
     0
  9
$DIMTAD
 70
     0
  9
$DIMZIN
 70
     0
  9
$DIMBLK
  1

  9
$DIMASO
 70
     1
  9
$DIMSHO
 70
     1
  9
$DIMPOST
  1
\X
  9
$DIMAPOST
  1

  9
$DIMALT
 70
     1
  9
$DIMALTD
 70
     2
  9
$DIMALTF
 40
25.3999999999999986
  9
$DIMLFAC
 40
1.0
  9
$DIMTOFL
 70
     0
  9
$DIMTVP
 40
0.0
  9
$DIMTIX
 70
     0
  9
$DIMSOXD
 70
     0
  9
$DIMSAH
 70
     0
  9
$DIMBLK1
  1

  9
$DIMBLK2
  1

  9
$DIMSTYLE
  2
STANDARD
  9
$DIMCLRD
 70
     0
  9
$DIMCLRE
 70
     0
  9
$DIMCLRT
 70
     0
  9
$DIMTFAC
 40
1.0
  9
$DIMGAP
 40
0.09
  9
$LUNITS
 70
     2
  9
$LUPREC
 70
     4
  9
$SKETCHINC
 40
0.1
  9
$FILLETRAD
 40
0.0
  9
$AUNITS
 70
     0
  9
$AUPREC
 70
     0
  9
$MENU
  1
.
  9
$ELEVATION
 40
0.0
  9
$PELEVATION
 40
0.0
  9
$THICKNESS
 40
0.0
  9
$LIMCHECK
 70
     0
  9
$BLIPMODE
 70
     0
  9
$CHAMFERA
 40
0.0
  9
$CHAMFERB
 40
0.0
  9
$SKPOLY
 70
     0
  9
$TDCREATE
 40
2458060.468368056230247
  9
$TDUPDATE
 40
2459470.9210300929844379
  9
$TDINDWG
 40
0.6463265046
  9
$TDUSRTIMER
 40
0.6463265046
  9
$USRTIMER
 70
     1
  9
$ANGBASE
 50
0.0
  9
$ANGDIR
 70
     0
  9
$PDMODE
 70
     0
  9
$PDSIZE
 40
0.3125
  9
$PLINEWID
 40
0.0
  9
$COORDS
 70
     1
  9
$SPLFRAME
 70
     0
  9
$SPLINETYPE
 70
     6
  9
$SPLINESEGS
 70
     8
  9
$ATTDIA
 70
     1
  9
$ATTREQ
 70
     1
  9
$HANDLING
 70
     1
  9
$HANDSEED
  5
136EB
  9
$SURFTAB1
 70
     6
  9
$SURFTAB2
 70
     6
  9
$SURFTYPE
 70
     6
  9
$SURFU
 70
     6
  9
$SURFV
 70
     6
  9
$UCSNAME
  2

  9
$UCSORG
 10
0.0
 20
0.0
 30
0.0
  9
$UCSXDIR
 10
1.0
 20
0.0
 30
0.0
  9
$UCSYDIR
 10
0.0
 20
1.0
 30
0.0
  9
$PUCSNAME
  2

  9
$PUCSORG
 10
0.0
 20
0.0
 30
0.0
  9
$PUCSXDIR
 10
1.0
 20
0.0
 30
0.0
  9
$PUCSYDIR
 10
0.0
 20
1.0
 30
0.0
  9
$USERI1
 70
     0
  9
$USERI2
 70
     0
  9
$USERI3
 70
     0
  9
$USERI4
 70
     0
  9
$USERI5
 70
     0
  9
$USERR1
 40
0.0
  9
$USERR2
 40
0.0
  9
$USERR3
 40
0.0
  9
$USERR4
 40
0.0
  9
$USERR5
 40
0.0
  9
$WORLDVIEW
 70
     1
  9
$SHADEDGE
 70
     3
  9
$SHADEDIF
 70
    70
  9
$TILEMODE
 70
     1
  9
$MAXACTVP
 70
    64
  9
$PLIMCHECK
 70
     0
  9
$PEXTMIN
 10
1.0000000000000000E+20
 20
1.0000000000000000E+20
 30
1.0000000000000000E+20
  9
$PEXTMAX
 10
-1.0000000000000000E+20
 20
-1.0000000000000000E+20
 30
-1.0000000000000000E+20
  9
$PLIMMIN
 10
0.0
 20
0.0
  9
$PLIMMAX
 10
12.0
 20
9.0
  9
$UNITMODE
 70
     0
  9
$VISRETAIN
 70
     1
  9
$PLINEGEN
 70
     0
  9
$PSLTSCALE
 70
     1
  0
ENDSEC
  0
SECTION
  2
TABLES
  0
TABLE
  2
VPORT
 70
     1
  0
VPORT
  2
*ACTIVE
 70
     0
 10
0.0
 20
0.0
 11
1.0
 21
1.0
 12
168.5707854412258087
 22
12.6215272190859196
 13
0.0
 23
0.0
 14
1.0
 24
1.0
 15
0.0
 25
0.0
 16
0.0
 26
0.0
 36
202.37134017897489
 17
4161.556396484375
 27
226.1108322143554972
 37
0.0
 40
6.1525313540579383
 41
2.2118055555555549
 42
50.0
 43
0.0
 44
0.0
 50
0.0
 51
0.0
 71
     0
 72
   100
 73
     1
 74
     1
 75
     0
 76
     0
 77
     0
 78
     0
  0
ENDTAB
  0
TABLE
  2
LTYPE
 70
     2
  0
LTYPE
  2
CONTINUOUS
 70
     0
  3
Solid line
 72
    65
 73
     0
 40
0.0
  0
LTYPE
  2
PHANTOM2
 70
     0
  3
___ _ _ ___ _ _ ___ _ _ ___ _ _
 72
    65
 73
     6
 40
1.25
 49
0.625
 49
-0.125
 49
0.125
 49
-0.125
 49
0.125
 49
-0.125
  0
ENDTAB
  0
TABLE
  2
LAYER
 70
     2
  0
LAYER
  2
0
 70
     0
 62
   255
  6
CONTINUOUS
  0
LAYER
  2
DEFPOINTS
 70
     0
 62
     7
  6
CONTINUOUS
  0
ENDTAB
  0
TABLE
  2
STYLE
 70
     1
  0
STYLE
  2
STANDARD
 70
     0
 40
0.0
 41
0.8
 50
0.0
 71
     0
 42
0.2
  3
txt
  4

  0
ENDTAB
  0
TABLE
  2
VIEW
 70
     0
  0
ENDTAB
  0
TABLE
  2
UCS
 70
     0
  0
ENDTAB
  0
TABLE
  2
APPID
 70
    10
  0
APPID
  2
ACAD
 70
     0
  0
APPID
  2
ACAD_MLEADERVER
 70
     0
  0
APPID
  2
ACAD_EXEMPT_FROM_CAD_STANDARDS
 70
     0
  0
APPID
  2
ACAD_NAV_VCDISPLAY
 70
     0
  0
APPID
  2
ACAECLAYERSTANDARD
 70
     0
  0
APPID
  2
ACCMTRANSPARENCY
 70
     0
  0
APPID
  2
ACAD_DSTYLE_DIMJAG
 70
     0
  0
APPID
  2
ACAD_DSTYLE_DIMTALN
 70
     0
  0
APPID
  2
ACDBATTR
 70
     0
  0
APPID
  2
DCO15
 70
     0
  0
ENDTAB
  0
TABLE
  2
DIMSTYLE
 70
     1
  0
DIMSTYLE
  2
STANDARD
 70
     0
  3

  4

  5

  6

  7

 40
1.0
 41
0.1875
 42
0.0625
 43
0.38
 44
0.125
 45
0.0
 46
0.0
 47
0.01
 48
0.01
140
0.15625
141
0.09
142
0.0
143
25.3999999999999986
144
1.0
145
0.0
146
1.0
147
0.09
 71
     1
 72
     0
 73
     1
 74
     1
 75
     0
 76
     0
 77
     0
 78
     4
170
     0
171
     2
172
     0
173
     0
174
     0
175
     0
176
     0
177
     0
178
     0
  0
ENDTAB
  0
ENDSEC
  0
SECTION
  2
BLOCKS
  0
BLOCK
  8
0
  2
$MODEL_SPACE
 70
     0
 10
0.0
 20
0.0
 30
0.0
  3
$MODEL_SPACE
  1

  0
ENDBLK
  5
21
  8
0
  0
BLOCK
 67
     1
  8
0
  2
$PAPER_SPACE
 70
     0
 10
0.0
 20
0.0
 30
0.0
  3
$PAPER_SPACE
  1

  0
ENDBLK
  5
1D
 67
     1
  8
0
  0
ENDSEC
  0
SECTION
  2
ENTITIES
  0
ATTDEF
  5
12CA7
  8
DEFPOINTS
 10
4330.0311054689873345
 20
238.73535260176061
 30
0.0
 40
0.001
  1
K-14411W-4
  3

  2
MODELNUMBER
 70
     0
1001
ACDBATTR
1070
     0
1070
     1
  0
ATTDEF
  5
12CA8
  8
DEFPOINTS
 10
4330.0311054689873345
 20
238.7336859350940017
 30
0.0
 40
0.001
  1
PURIST
  3

  2
TRADENAME
 70
     0
1001
ACDBATTR
1070
     0
1070
     1
  0
ATTDEF
  5
12CA9
  8
DEFPOINTS
 10
4330.0311054689873345
 20
238.7320192684273081
 30
0.0
 40
0.001
  1
BATHROOM SINK FAUCET HANDLES
  3

  2
PRODUCT
 70
     0
1001
ACDBATTR
1070
     0
1070
     1
  0
ARC
  5
1360B
  8
0
 10
4326.0311040730330205
 20
238.7320182371030057
 30
0.0
 40
1.28
 50
13.5547840371800508
 51
166.4452159628199013
  0
ARC
  5
1360C
  8
0
 10
4326.0311040730330205
 20
238.7320182371030057
 30
0.0
 40
1.28
 50
193.5547840371800135
 51
346.4452159628199865
  0
ARC
  5
1360D
  8
0
 10
4326.0311040730330205
 20
238.7320182371030057
 30
0.0
 40
0.799999999999999
 50
22.0243128370432899
 51
157.9756871629566888
  0
ARC
  5
1360E
  8
0
 10
4326.0311040730330205
 20
238.7320182371030057
 30
0.0
 40
0.799999999999999
 50
202.0243128370433112
 51
337.9756871629567172
  0
LINE
  5
1360F
  8
0
 10
4323.4031040732861584
 20
239.0320182371029887
 30
0.0
 11
4327.373104072778915
 21
239.0320182371029887
 31
0.0
  0
LINE
  5
13610
  8
0
 10
4323.4031040732861584
 20
238.4320182371029944
 30
0.0
 11
4327.3731040729917368
 21
238.4320182371029944
 31
0.0
  0
LINE
  5
13611
  8
0
 10
4323.3931040730331006
 20
238.4420155619253876
 30
0.0
 11
4323.3931040730331006
 21
239.0220209123785935
 31
0.0
  0
ARC
  5
13612
  8
0
 10
4323.4031040732861584
 20
239.0220182364917036
 30
0.0
 40
0.0100000006112584
 50
90.0000014509566313
 51
179.9846682984587005
  0
ARC
  5
13613
  8
0
 10
4323.4031040732861584
 20
238.4420182377141941
 30
0.0
 40
0.0100000006112122
 50
180.0153311396564106
 51
269.9999985491476195
  0
LINE
  5
13614
  8
0
 10
4327.3831040727318396
 20
238.4420155608931111
 30
0.0
 11
4327.3831040727318396
 21
239.0220218641412941
 31
0.0
  0
ARC
  5
13615
  8
0
 10
4327.373104072778915
 20
239.0220182364917889
 30
0.0
 40
0.0100000006112115
 50
0.0207848998157209
 51
89.9999985491476053
  0
ARC
  5
13616
  8
0
 10
4327.3731040729917368
 20
238.4420182372022055
 30
0.0
 40
0.0100000000992484
 50
270.0000002355902211
 51
359.9846658785191948
  0
ARC
  5
13617
  8
0
 10
4334.0311040730330205
 20
238.7320182371030057
 30
0.0
 40
1.28
 50
13.5547840371800508
 51
166.4452159628199013
  0
ARC
  5
13618
  8
0
 10
4334.0311040730330205
 20
238.7320182371030057
 30
0.0
 40
1.28
 50
193.5547840371800135
 51
346.4452159628199865
  0
ARC
  5
13619
  8
0
 10
4334.0311040730330205
 20
238.7320182371030057
 30
0.0
 40
0.799999999999999
 50
22.0243128370432899
 51
157.9756871629566888
  0
ARC
  5
1361A
  8
0
 10
4334.0311040730330205
 20
238.7320182371030057
 30
0.0
 40
0.799999999999999
 50
202.0243128370433112
 51
337.9756871629567172
  0
LINE
  5
1361B
  8
0
 10
4336.6591040727789732
 20
239.0320182371029887
 30
0.0
 11
4332.6891040732862166
 21
239.0320182371029887
 31
0.0
  0
LINE
  5
1361C
  8
0
 10
4336.6591040727789732
 20
238.4320182371029944
 30
0.0
 11
4332.6891040730743043
 21
238.4320182371029944
 31
0.0
  0
LINE
  5
1361D
  8
0
 10
4336.6691040730329405
 20
238.4420155619253876
 30
0.0
 11
4336.6691040730329405
 21
239.0220209123785935
 31
0.0
  0
ARC
  5
1361E
  8
0
 10
4336.6591040727789732
 20
239.0220182364917036
 30
0.0
 40
0.0100000006112611
 50
0.0153317015559256
 51
89.9999985490433545
  0
ARC
  5
1361F
  8
0
 10
4336.6591040727789732
 20
238.4420182377141941
 30
0.0
 40
0.0100000006112122
 50
270.0000014508523805
 51
359.9846688603386724
  0
LINE
  5
13620
  8
0
 10
4332.6791040733323825
 20
238.4420155608931111
 30
0.0
 11
4332.6791040733323825
 21
239.0220218641412941
 31
0.0
  0
ARC
  5
13621
  8
0
 10
4332.6891040732862166
 20
239.0220182364917889
 30
0.0
 40
0.0100000006112115
 50
90.0000014508524231
 51
179.979215100184291
  0
ARC
  5
13622
  8
0
 10
4332.6891040730743043
 20
238.4420182372022055
 30
0.0
 40
0.0100000000992484
 50
180.0153341214808052
 51
269.999999764409722
  0
ENDSEC
  0
EOF
