  0
SECTION
  2
HEADER
  9
$ACADVER
  1
AC1009
  9
$INSBASE
 10
4817.1624175698880208
 20
538.4191992094530406
 30
0.0
  9
$EXTMIN
 10
4810.9824175698877298
 20
532.9005200331272363
 30
0.0
  9
$EXTMAX
 10
4823.3424175698892213
 20
538.4235337756161925
 30
0.0
  9
$LIMMIN
 10
0.0
 20
0.0
  9
$LIMMAX
 10
11.6929133858000007
 20
8.2677165353999982
  9
$ORTHOMODE
 70
     0
  9
$REGENMODE
 70
     1
  9
$FILLMODE
 70
     1
  9
$QTEXTMODE
 70
     0
  9
$MIRRTEXT
 70
     0
  9
$DRAGMODE
 70
     2
  9
$LTSCALE
 40
0.6431102362
  9
$OSMODE
 70
     7
  9
$ATTMODE
 70
     1
  9
$TEXTSIZE
 40
0.2
  9
$TRACEWID
 40
0.05
  9
$TEXTSTYLE
  7
STANDARD
  9
$CLAYER
  8
0
  9
$CELTYPE
  6
BYLAYER
  9
$CECOLOR
 62
   256
  9
$DIMSCALE
 40
1.0
  9
$DIMASZ
 40
0.1875
  9
$DIMEXO
 40
0.0625
  9
$DIMDLI
 40
0.4443307087
  9
$DIMRND
 40
0.0
  9
$DIMDLE
 40
0.0
  9
$DIMEXE
 40
0.125
  9
$DIMTP
 40
0.01
  9
$DIMTM
 40
0.01
  9
$DIMTXT
 40
2.0
  9
$DIMCEN
 40
0.1052362205
  9
$DIMTSZ
 40
0.0
  9
$DIMTOL
 70
     1
  9
$DIMLIM
 70
     0
  9
$DIMTIH
 70
     1
  9
$DIMTOH
 70
     1
  9
$DIMSE1
 70
     0
  9
$DIMSE2
 70
     0
  9
$DIMTAD
 70
     0
  9
$DIMZIN
 70
     0
  9
$DIMBLK
  1

  9
$DIMASO
 70
     1
  9
$DIMSHO
 70
     1
  9
$DIMPOST
  1
\X
  9
$DIMAPOST
  1

  9
$DIMALT
 70
     1
  9
$DIMALTD
 70
     2
  9
$DIMALTF
 40
25.3999999999999986
  9
$DIMLFAC
 40
1.0
  9
$DIMTOFL
 70
     0
  9
$DIMTVP
 40
0.0
  9
$DIMTIX
 70
     0
  9
$DIMSOXD
 70
     0
  9
$DIMSAH
 70
     0
  9
$DIMBLK1
  1

  9
$DIMBLK2
  1

  9
$DIMSTYLE
  2
STANDARD
  9
$DIMCLRD
 70
     0
  9
$DIMCLRE
 70
     0
  9
$DIMCLRT
 70
     0
  9
$DIMTFAC
 40
1.0
  9
$DIMGAP
 40
0.09
  9
$LUNITS
 70
     2
  9
$LUPREC
 70
     4
  9
$SKETCHINC
 40
0.1
  9
$FILLETRAD
 40
0.0
  9
$AUNITS
 70
     0
  9
$AUPREC
 70
     0
  9
$MENU
  1
.
  9
$ELEVATION
 40
0.0
  9
$PELEVATION
 40
0.0
  9
$THICKNESS
 40
0.0
  9
$LIMCHECK
 70
     0
  9
$BLIPMODE
 70
     0
  9
$CHAMFERA
 40
0.0
  9
$CHAMFERB
 40
0.0
  9
$SKPOLY
 70
     0
  9
$TDCREATE
 40
2458060.468368056230247
  9
$TDUPDATE
 40
2459347.0551736121997237
  9
$TDINDWG
 40
1.605263125
  9
$TDUSRTIMER
 40
1.605263125
  9
$USRTIMER
 70
     1
  9
$ANGBASE
 50
0.0
  9
$ANGDIR
 70
     0
  9
$PDMODE
 70
     0
  9
$PDSIZE
 40
0.3125
  9
$PLINEWID
 40
0.0
  9
$COORDS
 70
     1
  9
$SPLFRAME
 70
     0
  9
$SPLINETYPE
 70
     6
  9
$SPLINESEGS
 70
     8
  9
$ATTDIA
 70
     1
  9
$ATTREQ
 70
     1
  9
$HANDLING
 70
     1
  9
$HANDSEED
  5
1F233
  9
$SURFTAB1
 70
     6
  9
$SURFTAB2
 70
     6
  9
$SURFTYPE
 70
     6
  9
$SURFU
 70
     6
  9
$SURFV
 70
     6
  9
$UCSNAME
  2

  9
$UCSORG
 10
0.0
 20
0.0
 30
0.0
  9
$UCSXDIR
 10
1.0
 20
0.0
 30
0.0
  9
$UCSYDIR
 10
0.0
 20
1.0
 30
0.0
  9
$PUCSNAME
  2

  9
$PUCSORG
 10
0.0
 20
0.0
 30
0.0
  9
$PUCSXDIR
 10
1.0
 20
0.0
 30
0.0
  9
$PUCSYDIR
 10
0.0
 20
1.0
 30
0.0
  9
$USERI1
 70
     0
  9
$USERI2
 70
     0
  9
$USERI3
 70
     0
  9
$USERI4
 70
     0
  9
$USERI5
 70
     0
  9
$USERR1
 40
0.0
  9
$USERR2
 40
0.0
  9
$USERR3
 40
0.0
  9
$USERR4
 40
0.0
  9
$USERR5
 40
0.0
  9
$WORLDVIEW
 70
     1
  9
$SHADEDGE
 70
     3
  9
$SHADEDIF
 70
    70
  9
$TILEMODE
 70
     1
  9
$MAXACTVP
 70
    64
  9
$PLIMCHECK
 70
     0
  9
$PEXTMIN
 10
1.0000000000000000E+20
 20
1.0000000000000000E+20
 30
1.0000000000000000E+20
  9
$PEXTMAX
 10
-1.0000000000000000E+20
 20
-1.0000000000000000E+20
 30
-1.0000000000000000E+20
  9
$PLIMMIN
 10
0.0
 20
0.0
  9
$PLIMMAX
 10
12.0
 20
9.0
  9
$UNITMODE
 70
     0
  9
$VISRETAIN
 70
     1
  9
$PLINEGEN
 70
     0
  9
$PSLTSCALE
 70
     1
  0
ENDSEC
  0
SECTION
  2
TABLES
  0
TABLE
  2
VPORT
 70
     1
  0
VPORT
  2
*ACTIVE
 70
     0
 10
0.0
 20
0.0
 11
1.0
 21
1.0
 12
905.8260781860252564
 22
403.0763582999629762
 13
0.0
 23
0.0
 14
1.0
 24
1.0
 15
0.0
 25
0.0
 16
0.0
 26
0.0
 36
60.4960186965801583
 17
3911.3653564453120453
 27
132.5796051025390057
 37
0.0
 40
5.5870262252656149
 41
2.3461538461538458
 42
50.0
 43
0.0
 44
0.0
 50
0.0
 51
0.0
 71
     0
 72
   100
 73
     1
 74
     1
 75
     0
 76
     0
 77
     0
 78
     0
  0
ENDTAB
  0
TABLE
  2
LTYPE
 70
     2
  0
LTYPE
  2
CONTINUOUS
 70
     0
  3
Solid line
 72
    65
 73
     0
 40
0.0
  0
LTYPE
  2
PHANTOM2
 70
     0
  3
___ _ _ ___ _ _ ___ _ _ ___ _ _
 72
    65
 73
     6
 40
1.25
 49
0.625
 49
-0.125
 49
0.125
 49
-0.125
 49
0.125
 49
-0.125
  0
ENDTAB
  0
TABLE
  2
LAYER
 70
     2
  0
LAYER
  2
0
 70
     0
 62
   255
  6
CONTINUOUS
  0
LAYER
  2
DEFPOINTS
 70
     0
 62
     7
  6
CONTINUOUS
  0
ENDTAB
  0
TABLE
  2
STYLE
 70
     1
  0
STYLE
  2
STANDARD
 70
     0
 40
0.0
 41
0.8
 50
0.0
 71
     0
 42
0.2
  3
txt
  4

  0
ENDTAB
  0
TABLE
  2
VIEW
 70
     0
  0
ENDTAB
  0
TABLE
  2
UCS
 70
     0
  0
ENDTAB
  0
TABLE
  2
APPID
 70
    11
  0
APPID
  2
ACAD
 70
     0
  0
APPID
  2
ACAD_MLEADERVER
 70
     0
  0
APPID
  2
ACAD_EXEMPT_FROM_CAD_STANDARDS
 70
     0
  0
APPID
  2
ACAD_NAV_VCDISPLAY
 70
     0
  0
APPID
  2
ACAECLAYERSTANDARD
 70
     0
  0
APPID
  2
ACCMTRANSPARENCY
 70
     0
  0
APPID
  2
ACAD_DSTYLE_DIMJAG
 70
     0
  0
APPID
  2
ACAD_DSTYLE_DIMTALN
 70
     0
  0
APPID
  2
ACDBATTR
 70
     0
  0
APPID
  2
ACADANNOTATIVE
 70
     0
  0
APPID
  2
DCO15
 70
     0
  0
ENDTAB
  0
TABLE
  2
DIMSTYLE
 70
     1
  0
DIMSTYLE
  2
STANDARD
 70
     0
  3

  4

  5

  6

  7

 40
1.0
 41
0.1875
 42
0.0625
 43
0.38
 44
0.125
 45
0.0
 46
0.0
 47
0.01
 48
0.01
140
0.15625
141
0.09
142
0.0
143
25.3999999999999986
144
1.0
145
0.0
146
1.0
147
0.09
 71
     1
 72
     0
 73
     1
 74
     1
 75
     0
 76
     0
 77
     0
 78
     4
170
     0
171
     2
172
     0
173
     0
174
     0
175
     0
176
     0
177
     0
178
     0
  0
ENDTAB
  0
ENDSEC
  0
SECTION
  2
BLOCKS
  0
BLOCK
  8
0
  2
$MODEL_SPACE
 70
     0
 10
0.0
 20
0.0
 30
0.0
  3
$MODEL_SPACE
  1

  0
ENDBLK
  5
21
  8
0
  0
BLOCK
 67
     1
  8
0
  2
$PAPER_SPACE
 70
     0
 10
0.0
 20
0.0
 30
0.0
  3
$PAPER_SPACE
  1

  0
ENDBLK
  5
1D
 67
     1
  8
0
  0
ENDSEC
  0
SECTION
  2
ENTITIES
  0
ATTDEF
  5
159BF
  8
DEFPOINTS
 10
4817.1624181508841502
 20
538.4225337756158751
 30
0.0
 40
0.001
  1
K-14419W-4
  3

  2
MODELNUMBER
 70
     0
1001
ACDBATTR
1070
     0
1070
     1
  0
ATTDEF
  5
159C0
  8
DEFPOINTS
 10
4817.1624181508841502
 20
538.4208669352367451
 30
0.0
 40
0.001
  1
PURIST
  3

  2
TRADENAME
 70
     0
1001
ACDBATTR
1070
     0
1070
     1
  0
ATTDEF
  5
159C1
  8
DEFPOINTS
 10
4817.1624181508841502
 20
538.4192004422826585
 30
0.0
 40
0.001
  1
BATHROOM SINK FAUCET
  3

  2
PRODUCT
 70
     0
1001
ACDBATTR
1070
     0
1070
     1
  0
LINE
  5
1F0E3
  8
0
 10
4812.1724175698891486
 20
538.4191992094530406
 30
0.0
 11
4814.152417569886893
 21
538.4191992094530406
 31
0.0
  0
LINE
  5
1F0E4
  8
0
 10
4816.1824089302490393
 20
538.4191992094530406
 30
0.0
 11
4818.1424262095270024
 21
538.4191992094530406
 31
0.0
  0
LINE
  5
1F0E5
  8
0
 10
4816.1724175698882391
 20
538.4091992068099444
 30
0.0
 11
4816.1724175698882391
 21
538.2724739226549673
 31
0.0
  0
LINE
  5
1F0E6
  8
0
 10
4812.1724175698891486
 20
538.4191992094530406
 30
0.0
 11
4812.1724175698891486
 21
538.2391992094530906
 31
0.0
  0
LINE
  5
1F0E7
  8
0
 10
4814.152417569886893
 20
538.4191992094530406
 30
0.0
 11
4814.152417569886893
 21
538.2391992094530906
 31
0.0
  0
LINE
  5
1F0E8
  8
0
 10
4812.1724175698891486
 20
538.2391992094530906
 30
0.0
 11
4814.152417569886893
 21
538.2391992094530906
 31
0.0
  0
LINE
  5
1F0E9
  8
0
 10
4810.9924175714495505
 20
534.9271992094529651
 30
0.0
 11
4814.1224175698880572
 21
534.9271992094529651
 31
0.0
  0
LINE
  5
1F0EA
  8
0
 10
4810.9924175714495505
 20
535.4571992094530515
 30
0.0
 11
4812.919918292188413
 21
535.4571992094530515
 31
0.0
  0
LINE
  5
1F0EB
  8
0
 10
4813.4049252441882345
 20
535.4571992094530515
 30
0.0
 11
4814.1224175698880572
 21
535.4571992094530515
 31
0.0
  0
LINE
  5
1F0EC
  8
0
 10
4810.9824175698877298
 20
534.9371925670934615
 30
0.0
 11
4810.9824175698877298
 21
535.4472058518128961
 31
0.0
  0
LINE
  5
1F0ED
  8
0
 10
4812.617417569887948
 20
536.4371992094530697
 30
0.0
 11
4812.617417569887948
 21
537.9591992094530042
 31
0.0
  0
LINE
  5
1F0EE
  8
0
 10
4813.7074175698880936
 20
536.4371992094530697
 30
0.0
 11
4813.7074175698880936
 21
537.9591992094530042
 31
0.0
  0
LINE
  5
1F0EF
  8
0
 10
4814.1324175698882755
 20
535.4471992094529469
 30
0.0
 11
4814.1324175698882755
 21
534.937199209452956
 31
0.0
  0
ARC
  5
1F0F0
  8
0
 10
4814.1224175698880572
 20
535.4471992094529469
 30
0.0
 40
0.009999999999998
 50
359.9999999999869829
 51
90.0
  0
ARC
  5
1F0F1
  8
0
 10
4814.1224175698880572
 20
534.937199209452956
 30
0.0
 40
0.0099999999999998
 50
270.0
 51
0.0
  0
ARC
  5
1F0F2
  8
0
 10
4810.9924175714495505
 20
535.4471992056827503
 30
0.0
 40
0.0100000037702302
 50
90.0
 51
179.9619204910036103
  0
ARC
  5
1F0F3
  8
0
 10
4810.9924175714495505
 20
534.9371992132231526
 30
0.0
 40
0.0100000037702285
 50
180.0380795070227009
 51
270.0
  0
LINE
  5
1F0F4
  8
0
 10
4813.7074175698880936
 20
536.4371992094530697
 30
0.0
 11
4812.617417569887948
 21
536.4371992094530697
 31
0.0
  0
LINE
  5
1F0F5
  8
0
 10
4812.62803002048895
 20
536.3471992094530378
 30
0.0
 11
4813.6968051192880012
 21
536.3471992094530378
 31
0.0
  0
ARC
  5
1F0F6
  8
0
 10
4812.628030020387996
 20
536.4271992094529651
 30
0.0
 40
0.0099999999999945
 50
90.0
 51
178.9999992750350941
  0
ARC
  5
1F0F7
  8
0
 10
4813.6252981722400364
 20
536.3921992086804948
 30
0.0
 40
1.0078806023529601
 50
178.0000000503852107
 51
181.9999998715456968
  0
ARC
  5
1F0F8
  8
0
 10
4812.628030020387996
 20
536.3571992094530287
 30
0.0
 40
0.0099999999999936
 50
181.0000011939694957
 51
270.0000005765994047
  0
ARC
  5
1F0F9
  8
0
 10
4812.3374175698891122
 20
537.9591992094530042
 30
0.0
 40
0.2799999999999994
 50
0.0
 51
90.0
  0
ARC
  5
1F0FA
  8
0
 10
4813.9874175698878389
 20
537.9591992094530042
 30
0.0
 40
0.2799999999999994
 50
90.0
 51
180.0
  0
ARC
  5
1F0FB
  8
0
 10
4813.6968051192880012
 20
536.4271992094529651
 30
0.0
 40
0.0099999999999986
 50
1.000000724977921
 51
90.0
  0
ARC
  5
1F0FC
  8
0
 10
4813.6968051192880012
 20
536.3571992094530287
 30
0.0
 40
0.0100000000000016
 50
270.0
 51
358.9999988059914244
  0
ARC
  5
1F0FD
  8
0
 10
4812.6995370885006196
 20
536.3921992094325333
 30
0.0
 40
1.0078804813860509
 50
357.9999998455263039
 51
2.0000001521413902
  0
ARC
  5
1F0FE
  8
0
 10
4812.6989681429449774
 20
536.0971992095908263
 30
0.0
 40
0.2499999998622359
 50
0.2499999637094431
 51
90.0000000130275737
  0
ARC
  5
1F0FF
  8
0
 10
4813.6258669967310198
 20
536.0971992095908263
 30
0.0
 40
0.2499999998622382
 50
89.9999999869724547
 51
179.7500000362904871
  0
LINE
  5
1F100
  8
0
 10
4812.9489657629883368
 20
536.0982900367530419
 30
0.0
 11
4812.9518730786803644
 21
535.431986603994801
 31
0.0
  0
LINE
  5
1F101
  8
0
 10
4813.3758693766876604
 20
536.0982900367530419
 30
0.0
 11
4813.3729620253980102
 21
535.431978443461162
 31
0.0
  0
ARC
  5
1F102
  8
0
 10
4812.9199093929755691
 20
535.442179474404611
 30
0.0
 40
0.0150197376847644
 50
45.9493766018978675
 51
89.9660521831735451
  0
ARC
  5
1F103
  8
0
 10
4815.6692568071039204
 20
538.2398571360781716
 30
0.0
 40
3.9074686502198479
 50
225.4974649396997108
 51
228.165664184936503
  0
ARC
  5
1F104
  8
0
 10
4813.1624217681883238
 20
535.8074242128807327
 30
0.0
 40
0.4978708680028455
 50
265.2052429105373221
 51
274.7947570894626779
  0
ARC
  5
1F105
  8
0
 10
4813.0986413667742454
 20
535.3737698287460489
 30
0.0
 40
0.0575857941984581
 50
231.8342750582187932
 51
255.5552622727190908
  0
ARC
  5
1F106
  8
0
 10
4813.1354761354641596
 20
535.4939804528570448
 30
0.0
 40
0.1832728636502666
 50
253.7779193083015912
 51
265.4089565506845929
  0
ARC
  5
1F107
  8
0
 10
4813.4049341433992595
 20
535.442179474404611
 30
0.0
 40
0.0150197376847644
 50
90.0339478168264833
 51
134.0506233981020898
  0
ARC
  5
1F108
  8
0
 10
4810.6555867292709081
 20
538.2398571360781716
 30
0.0
 40
3.9074686502198479
 50
311.8343358150635822
 51
314.5025350603003176
  0
ARC
  5
1F109
  8
0
 10
4813.2262021696024021
 20
535.3737698287460489
 30
0.0
 40
0.0575857941984581
 50
284.4447377272808239
 51
308.1657249417812068
  0
ARC
  5
1F10A
  8
0
 10
4813.1893674009115784
 20
535.4939804528570448
 30
0.0
 40
0.1832728636502666
 50
274.5910434493154071
 51
286.2220806916984088
  0
LINE
  5
1F10B
  8
0
 10
4816.6359561268081961
 20
537.9591992094530042
 30
0.0
 11
4817.688879012966936
 21
537.9591992094530042
 31
0.0
  0
ARC
  5
1F10C
  8
0
 10
4816.1824175762685627
 20
538.4091992068099444
 30
0.0
 40
0.0100000063806172
 50
90.0495380165874479
 51
180.0000000000194973
  0
LINE
  5
1F10D
  8
0
 10
4816.2013935746099378
 20
538.2424739226529482
 30
0.0
 11
4818.1234415651661038
 21
538.2424739226529482
 31
0.0
  0
ARC
  5
1F10E
  8
0
 10
4816.2024492493992511
 20
538.2724870447359535
 30
0.0
 40
0.030031682377654
 50
180.0250348945361054
 51
267.9855216630363088
  0
LINE
  5
1F10F
  8
0
 10
4816.6624175698871113
 20
537.9591992094530042
 30
0.0
 11
4816.6624175698871113
 21
534.5091992094526177
 31
0.0
  0
LINE
  5
1F110
  8
0
 10
4816.6624175698871113
 20
534.4837523868402513
 30
0.0
 11
4816.6624175698871113
 21
533.2707828820543909
 31
0.0
  0
LINE
  5
1F111
  8
0
 10
4816.6624175698871113
 20
533.2198352013646172
 30
0.0
 11
4816.6624175698871113
 21
533.172165667398076
 31
0.0
  0
ARC
  5
1F112
  8
0
 10
4816.2599992708628633
 20
537.5547801222983253
 30
0.0
 40
0.6900000306078584
 50
80.5355937747628161
 51
85.3141816795964445
  0
ARC
  5
1F113
  8
0
 10
4816.3274175698879844
 20
537.9591992094530042
 30
0.0
 40
0.2800000000000014
 50
5.5534449802022197
 51
80.5355936156932444
  0
ARC
  5
1F114
  8
0
 10
4816.6359625435461567
 20
537.9891992100683638
 30
0.0
 40
0.0300000013016287
 50
185.5534378124013983
 51
269.9877449334052244
  0
ARC
  5
1F115
  8
0
 10
4817.1624175698880208
 20
533.7830940676564069
 30
0.0
 40
0.8825740345291633
 50
251.0494019874703895
 51
288.9505980125296105
  0
ARC
  5
1F116
  8
0
 10
4817.0358602374408292
 20
533.3921880388434147
 30
0.0
 40
0.4718113885499289
 50
232.9650666853731025
 51
250.1689390399407102
  0
ARC
  5
1F117
  8
0
 10
4816.9087033968871765
 20
533.2214018998409983
 30
0.0
 40
0.2588949752751882
 50
211.1166664747647133
 51
232.6641927005721868
  0
ARC
  5
1F118
  8
0
 10
4816.8379848647973631
 20
533.1774611878651058
 30
0.0
 40
0.1756471393976441
 50
181.7276509977511125
 51
210.7668852075157133
  0
ARC
  5
1F119
  8
0
 10
4817.1624175698880208
 20
533.8879439800255113
 30
0.0
 40
0.9191226225726437
 50
250.280948610204689
 51
289.719051389795311
  0
ARC
  5
1F11A
  8
0
 10
4817.0145564508293319
 20
533.4459670079386342
 30
0.0
 40
0.4532832383657807
 50
231.7018008862445129
 51
249.0248717409967867
  0
ARC
  5
1F11B
  8
0
 10
4816.8654528621464124
 20
533.2571569174416481
 30
0.0
 40
0.2126982628755683
 50
210.8468867840545045
 51
231.7018008862035003
  0
ARC
  5
1F11C
  8
0
 10
4816.7990369988856401
 20
533.2198352013646172
 30
0.0
 40
0.1366194289980748
 50
169.4686271302840908
 51
190.5313728697157956
  0
ARC
  5
1F11D
  8
0
 10
4816.8104896742370329
 20
533.2708183169112317
 30
0.0
 40
0.1480721085886109
 50
180.0137113455045892
 51
189.2389803027298001
  0
ARC
  5
1F11E
  8
0
 10
4816.8234178437678565
 20
533.27292125067504
 30
0.0
 40
0.1611701961542645
 50
189.2389803027298001
 51
211.2409619260126874
  0
ARC
  5
1F11F
  8
0
 10
4816.9010069445830595
 20
533.3216629728799489
 30
0.0
 40
0.252791779241777
 50
211.5657965206762867
 51
233.8183588450415016
  0
ARC
  5
1F120
  8
0
 10
4816.8067271133313625
 20
533.223001076246419
 30
0.0
 40
0.144768706621313
 50
191.2069732317536932
 51
211.1584395458245922
  0
ARC
  5
1F121
  8
0
 10
4817.0273035257932861
 20
533.4927743027561746
 30
0.0
 40
0.465463941964421
 50
233.7044781834642038
 51
249.8479737144467947
  0
ARC
  5
1F122
  8
0
 10
4817.1624175698880208
 20
533.9034417283229459
 30
0.0
 40
0.8976588464136733
 50
250.7822889268175004
 51
289.2177110731823859
  0
ARC
  5
1F123
  8
0
 10
4816.7888264552530018
 20
534.5092510648562438
 30
0.0
 40
0.126408896001351
 50
180.0235038508810987
 51
191.2141708640255899
  0
ARC
  5
1F124
  8
0
 10
4816.8180239270914171
 20
534.515039824809719
 30
0.0
 40
0.1561746834682041
 50
191.2141708640255899
 51
228.4668720517709914
  0
ARC
  5
1F125
  8
0
 10
4816.9741819653509083
 20
534.6693771830813375
 30
0.0
 40
0.3755308669941449
 50
226.2445864125884896
 51
246.2902776545556947
  0
ARC
  5
1F126
  8
0
 10
4817.1624175698880208
 20
535.1596855795072543
 30
0.0
 40
0.9004863700873803
 50
247.8688926797854037
 51
292.1311073202145963
  0
ARC
  5
1F127
  8
0
 10
4816.7979511718640424
 20
534.4837523868402513
 30
0.0
 40
0.1355336019750366
 50
174.5078053180457971
 51
185.6988270973762951
  0
ARC
  5
1F128
  8
0
 10
4816.8037299955867638
 20
534.4856801344024007
 30
0.0
 40
0.1414816760495821
 50
186.2432708715795968
 51
214.9497096318968943
  0
ARC
  5
1F129
  8
0
 10
4816.9105427220638376
 20
534.5620016111231507
 30
0.0
 40
0.2727560238915403
 50
215.2372551331093007
 51
239.3547181283051088
  0
ARC
  5
1F12A
  8
0
 10
4817.0366704676425798
 20
534.7584118290365041
 30
0.0
 40
0.5060951937168542
 50
238.4039062880065103
 51
249.1536946986998942
  0
ARC
  5
1F12B
  8
0
 10
4817.1624175698880208
 20
535.1548539181129627
 30
0.0
 40
0.9216354707736552
 50
250.6187272947535973
 51
289.3812727052463742
  0
LINE
  5
1F12C
  8
0
 10
4818.1524175698878025
 20
538.4091992068099444
 30
0.0
 11
4818.1524175698878025
 21
538.2724739226549673
 31
0.0
  0
ARC
  5
1F12D
  8
0
 10
4818.1424175635065694
 20
538.4091992068099444
 30
0.0
 40
0.0100000063806176
 50
359.9999999999805027
 51
89.9504619834125663
  0
ARC
  5
1F12E
  8
0
 10
4818.1223858903767905
 20
538.2724870447359535
 30
0.0
 40
0.030031682377654
 50
272.0144783369636912
 51
359.974965105463923
  0
LINE
  5
1F12F
  8
0
 10
4817.6624175698880208
 20
537.9591992094530042
 30
0.0
 11
4817.6624175698880208
 21
534.5091992094526177
 31
0.0
  0
LINE
  5
1F130
  8
0
 10
4817.6624175698880208
 20
534.4837523868402513
 30
0.0
 11
4817.6624175698880208
 21
533.2707828820543909
 31
0.0
  0
LINE
  5
1F131
  8
0
 10
4817.6624175698880208
 20
533.2198352013646172
 30
0.0
 11
4817.6624175698880208
 21
533.172165667398076
 31
0.0
  0
ARC
  5
1F132
  8
0
 10
4818.0648358689131783
 20
537.5547801222983253
 30
0.0
 40
0.6900000306078584
 50
94.6858183204035555
 51
99.4644062252371981
  0
ARC
  5
1F133
  8
0
 10
4817.9974175698880572
 20
537.9591992094530042
 30
0.0
 40
0.2800000000000014
 50
99.4644063843067556
 51
174.4465550197976995
  0
ARC
  5
1F134
  8
0
 10
4817.6888725962289755
 20
537.9891992100683638
 30
0.0
 40
0.0300000013016266
 50
270.0122550665947756
 51
354.446562187605025
  0
ARC
  5
1F135
  8
0
 10
4817.2889749023361219
 20
533.3921880388434147
 30
0.0
 40
0.4718113885499289
 50
289.8310609600592898
 51
307.0349333146269259
  0
ARC
  5
1F136
  8
0
 10
4817.4161317428888651
 20
533.2214018998409983
 30
0.0
 40
0.2588949752751882
 50
307.3358072994276995
 51
328.8833335252351731
  0
ARC
  5
1F137
  8
0
 10
4817.4868502749786785
 20
533.1774611878651058
 30
0.0
 40
0.1756471393976441
 50
329.2331147924842867
 51
358.2723490022488022
  0
ARC
  5
1F138
  8
0
 10
4817.3102786889458002
 20
533.4459670079386342
 30
0.0
 40
0.4532832383657807
 50
290.9751282590032133
 51
308.2981991137555724
  0
ARC
  5
1F139
  8
0
 10
4817.4593822776287197
 20
533.2571569174416481
 30
0.0
 40
0.2126982628755683
 50
308.298199113796386
 51
329.1531132159454955
  0
ARC
  5
1F13A
  8
0
 10
4817.5257981408904016
 20
533.2198352013646172
 30
0.0
 40
0.1366194289980748
 50
349.468627130284176
 51
10.5313728697158506
  0
ARC
  5
1F13B
  8
0
 10
4817.5143454655390087
 20
533.2708183169112317
 30
0.0
 40
0.1480721085886109
 50
350.7610196972636913
 51
359.9862886544954108
  0
ARC
  5
1F13C
  8
0
 10
4817.5014172960063661
 20
533.27292125067504
 30
0.0
 40
0.1611701961542645
 50
328.7590380739873126
 51
350.7610196972702283
  0
ARC
  5
1F13D
  8
0
 10
4817.4238281951920726
 20
533.3216629728799489
 30
0.0
 40
0.252791779241777
 50
306.1816411549585268
 51
328.434203479323628
  0
ARC
  5
1F13E
  8
0
 10
4817.5181080264446791
 20
533.223001076246419
 30
0.0
 40
0.144768706621313
 50
328.8415604541754078
 51
348.7930267682463068
  0
ARC
  5
1F13F
  8
0
 10
4817.297531613981846
 20
533.4927743027561746
 30
0.0
 40
0.465463941964421
 50
290.1520262855531769
 51
306.2955218165358247
  0
ARC
  5
1F140
  8
0
 10
4817.5360086845230398
 20
534.5092510648562438
 30
0.0
 40
0.126408896001351
 50
348.7858291359743248
 51
359.976496149118816
  0
ARC
  5
1F141
  8
0
 10
4817.506811212683715
 20
534.515039824809719
 30
0.0
 40
0.1561746834682041
 50
311.5331279482289801
 51
348.7858291359743248
  0
ARC
  5
1F142
  8
0
 10
4817.3506531744251333
 20
534.6693771830813375
 30
0.0
 40
0.3755308669941449
 50
293.7097223454442201
 51
313.7554135874115104
  0
ARC
  5
1F143
  8
0
 10
4817.5268839679129087
 20
534.4837523868402513
 30
0.0
 40
0.1355336019750366
 50
354.3011729026235912
 51
5.4921946819541931
  0
ARC
  5
1F144
  8
0
 10
4817.5211051441865493
 20
534.4856801344024007
 30
0.0
 40
0.1414816760495821
 50
325.0502903681031057
 51
353.7567291284203179
  0
ARC
  5
1F145
  8
0
 10
4817.414292417712204
 20
534.5620016111231507
 30
0.0
 40
0.2727560238915403
 50
300.6452818716949196
 51
324.7627448668907277
  0
ARC
  5
1F146
  8
0
 10
4817.2881646721343714
 20
534.7584118290365041
 30
0.0
 40
0.5060951937168542
 50
290.8463053013001058
 51
301.5960937119934897
  0
LINE
  5
1F148
  8
0
 10
4822.1524175698878025
 20
538.4191992094530406
 30
0.0
 11
4820.1724175698891486
 21
538.4191992094530406
 31
0.0
  0
LINE
  5
1F149
  8
0
 10
4822.1524175698878025
 20
538.4191992094530406
 30
0.0
 11
4822.1524175698878025
 21
538.2391992094530906
 31
0.0
  0
LINE
  5
1F14A
  8
0
 10
4820.1724175698891486
 20
538.4191992094530406
 30
0.0
 11
4820.1724175698891486
 21
538.2391992094530906
 31
0.0
  0
LINE
  5
1F14B
  8
0
 10
4822.1524175698878025
 20
538.2391992094530906
 30
0.0
 11
4820.1724175698891486
 21
538.2391992094530906
 31
0.0
  0
LINE
  5
1F14C
  8
0
 10
4823.3324175683274007
 20
534.9271992094529651
 30
0.0
 11
4820.2024175698879844
 21
534.9271992094529651
 31
0.0
  0
LINE
  5
1F14D
  8
0
 10
4823.3324175683274007
 20
535.4571992094530515
 30
0.0
 11
4821.4049168475867191
 21
535.4571992094530515
 31
0.0
  0
LINE
  5
1F14E
  8
0
 10
4820.9199098955887166
 20
535.4571992094530515
 30
0.0
 11
4820.2024175698879844
 21
535.4571992094530515
 31
0.0
  0
LINE
  5
1F14F
  8
0
 10
4823.3424175698892213
 20
534.9371925670934615
 30
0.0
 11
4823.3424175698892213
 21
535.4472058518128961
 31
0.0
  0
LINE
  5
1F150
  8
0
 10
4821.7074175698880936
 20
536.4371992094530697
 30
0.0
 11
4821.7074175698880936
 21
537.9591992094530042
 31
0.0
  0
LINE
  5
1F151
  8
0
 10
4820.617417569887948
 20
536.4371992094530697
 30
0.0
 11
4820.617417569887948
 21
537.9591992094530042
 31
0.0
  0
LINE
  5
1F152
  8
0
 10
4820.1924175698877661
 20
535.4471992094529469
 30
0.0
 11
4820.1924175698877661
 21
534.937199209452956
 31
0.0
  0
ARC
  5
1F153
  8
0
 10
4820.2024175698879844
 20
535.4471992094529469
 30
0.0
 40
0.009999999999998
 50
90.0
 51
180.0000000000129887
  0
ARC
  5
1F154
  8
0
 10
4820.2024175698879844
 20
534.937199209452956
 30
0.0
 40
0.0099999999999998
 50
180.0
 51
270.0
  0
ARC
  5
1F155
  8
0
 10
4823.3324175683274007
 20
535.4471992056827503
 30
0.0
 40
0.0100000037702302
 50
0.0380795089963828
 51
90.0
  0
ARC
  5
1F156
  8
0
 10
4823.3324175683274007
 20
534.9371992132231526
 30
0.0
 40
0.0100000037702285
 50
270.0
 51
359.9619204929772991
  0
LINE
  5
1F157
  8
0
 10
4820.617417569887948
 20
536.4371992094530697
 30
0.0
 11
4821.7074175698880936
 21
536.4371992094530697
 31
0.0
  0
LINE
  5
1F158
  8
0
 10
4821.6968051192870917
 20
536.3471992094530378
 30
0.0
 11
4820.6280300204880405
 21
536.3471992094530378
 31
0.0
  0
ARC
  5
1F159
  8
0
 10
4821.6968051193880456
 20
536.4271992094529651
 30
0.0
 40
0.0099999999999945
 50
1.0000007249648959
 51
90.0
  0
ARC
  5
1F15A
  8
0
 10
4820.6995369675350958
 20
536.3921992086804948
 30
0.0
 40
1.0078806023529601
 50
358.000000128447823
 51
1.999999949614794
  0
ARC
  5
1F15B
  8
0
 10
4821.6968051193880456
 20
536.3571992094530287
 30
0.0
 40
0.0099999999999936
 50
269.9999994234004816
 51
358.9999988060304759
  0
ARC
  5
1F15C
  8
0
 10
4821.9874175698878389
 20
537.9591992094530042
 30
0.0
 40
0.2799999999999994
 50
90.0
 51
180.0
  0
ARC
  5
1F15D
  8
0
 10
4820.3374175698882027
 20
537.9591992094530042
 30
0.0
 40
0.2799999999999994
 50
0.0
 51
90.0
  0
ARC
  5
1F15E
  8
0
 10
4820.6280300204880405
 20
536.4271992094529651
 30
0.0
 40
0.0099999999999986
 50
90.0
 51
178.9999992750221054
  0
ARC
  5
1F15F
  8
0
 10
4820.6280300204880405
 20
536.3571992094530287
 30
0.0
 40
0.0100000000000016
 50
181.000001194008604
 51
270.0
  0
ARC
  5
1F160
  8
0
 10
4821.6252980512726936
 20
536.3921992094325333
 30
0.0
 40
1.0078804813860509
 50
177.9999998478585894
 51
182.0000001544671875
  0
ARC
  5
1F161
  8
0
 10
4821.6258669968310642
 20
536.0971992095908263
 30
0.0
 40
0.2499999998622359
 50
89.9999999869724547
 51
179.7500000362904871
  0
ARC
  5
1F162
  8
0
 10
4820.6989681430441124
 20
536.0971992095908263
 30
0.0
 40
0.2499999998622382
 50
0.2499999637094431
 51
90.0000000130275737
  0
LINE
  5
1F163
  8
0
 10
4821.3758693767877048
 20
536.0982900367530419
 30
0.0
 11
4821.3729620610965867
 21
535.431986603994801
 31
0.0
  0
LINE
  5
1F164
  8
0
 10
4820.9489657630883812
 20
536.0982900367530419
 30
0.0
 11
4820.9518731143780315
 21
535.431978443461162
 31
0.0
  0
ARC
  5
1F165
  8
0
 10
4821.4049257467995631
 20
535.442179474404611
 30
0.0
 40
0.0150197376847644
 50
90.0339478168264833
 51
134.0506233981020898
  0
ARC
  5
1F166
  8
0
 10
4818.6555783326721212
 20
538.2398571360781716
 30
0.0
 40
3.9074686502198479
 50
311.8343358150635822
 51
314.5025350603003176
  0
ARC
  5
1F167
  8
0
 10
4821.1624133715877178
 20
535.8074242128807327
 30
0.0
 40
0.4978708680028455
 50
265.2052429105373221
 51
274.7947570894626779
  0
ARC
  5
1F168
  8
0
 10
4821.2261937730017962
 20
535.3737698287460489
 30
0.0
 40
0.0575857941984581
 50
284.4447377272808239
 51
308.1657249417812068
  0
ARC
  5
1F169
  8
0
 10
4821.1893590043127915
 20
535.4939804528570448
 30
0.0
 40
0.1832728636502666
 50
274.5910434493154071
 51
286.2220806916984088
  0
ARC
  5
1F16A
  8
0
 10
4820.9199009963758726
 20
535.442179474404611
 30
0.0
 40
0.0150197376847644
 50
45.9493766018978675
 51
89.9660521831735451
  0
ARC
  5
1F16B
  8
0
 10
4823.669248410504224
 20
538.2398571360781716
 30
0.0
 40
3.9074686502198479
 50
225.4974649396997108
 51
228.165664184936503
  0
ARC
  5
1F16C
  8
0
 10
4821.0986329701736395
 20
535.3737698287460489
 30
0.0
 40
0.0575857941984581
 50
231.8342750582187932
 51
255.5552622727190908
  0
ARC
  5
1F16D
  8
0
 10
4821.1354677388626442
 20
535.4939804528570448
 30
0.0
 40
0.1832728636502666
 50
253.7779193083015912
 51
265.4089565506845929
  0
ENDSEC
  0
EOF
