  0
SECTION
  2
HEADER
  9
$ACADVER
  1
AC1009
  9
$INSBASE
 10
3515.993864956708876
 20
202.3216083102107063
 30
0.0
  9
$EXTMIN
 10
3507.4587949010087868
 20
200.3216083102107063
 30
0.0
  9
$EXTMAX
 10
3516.005143264319031
 20
204.3216083102107063
 30
0.0
  9
$LIMMIN
 10
0.0
 20
0.0
  9
$LIMMAX
 10
11.6929133858000007
 20
8.2677165353999982
  9
$ORTHOMODE
 70
     0
  9
$REGENMODE
 70
     1
  9
$FILLMODE
 70
     1
  9
$QTEXTMODE
 70
     0
  9
$MIRRTEXT
 70
     0
  9
$DRAGMODE
 70
     2
  9
$LTSCALE
 40
0.6431102362
  9
$OSMODE
 70
  4095
  9
$ATTMODE
 70
     1
  9
$TEXTSIZE
 40
0.2
  9
$TRACEWID
 40
0.05
  9
$TEXTSTYLE
  7
STANDARD
  9
$CLAYER
  8
0
  9
$CELTYPE
  6
BYLAYER
  9
$CECOLOR
 62
   256
  9
$DIMSCALE
 40
1.0
  9
$DIMASZ
 40
0.1875
  9
$DIMEXO
 40
0.0625
  9
$DIMDLI
 40
0.4443307087
  9
$DIMRND
 40
0.0
  9
$DIMDLE
 40
0.0
  9
$DIMEXE
 40
0.125
  9
$DIMTP
 40
0.01
  9
$DIMTM
 40
0.01
  9
$DIMTXT
 40
2.0
  9
$DIMCEN
 40
0.1052362205
  9
$DIMTSZ
 40
0.0
  9
$DIMTOL
 70
     1
  9
$DIMLIM
 70
     0
  9
$DIMTIH
 70
     1
  9
$DIMTOH
 70
     1
  9
$DIMSE1
 70
     0
  9
$DIMSE2
 70
     0
  9
$DIMTAD
 70
     0
  9
$DIMZIN
 70
     0
  9
$DIMBLK
  1

  9
$DIMASO
 70
     1
  9
$DIMSHO
 70
     1
  9
$DIMPOST
  1
\X
  9
$DIMAPOST
  1

  9
$DIMALT
 70
     1
  9
$DIMALTD
 70
     2
  9
$DIMALTF
 40
25.3999999999999986
  9
$DIMLFAC
 40
1.0
  9
$DIMTOFL
 70
     0
  9
$DIMTVP
 40
0.0
  9
$DIMTIX
 70
     0
  9
$DIMSOXD
 70
     0
  9
$DIMSAH
 70
     0
  9
$DIMBLK1
  1

  9
$DIMBLK2
  1

  9
$DIMSTYLE
  2
STANDARD
  9
$DIMCLRD
 70
     0
  9
$DIMCLRE
 70
     0
  9
$DIMCLRT
 70
     0
  9
$DIMTFAC
 40
1.0
  9
$DIMGAP
 40
0.09
  9
$LUNITS
 70
     2
  9
$LUPREC
 70
     4
  9
$SKETCHINC
 40
0.1
  9
$FILLETRAD
 40
0.0
  9
$AUNITS
 70
     0
  9
$AUPREC
 70
     0
  9
$MENU
  1
.
  9
$ELEVATION
 40
0.0
  9
$PELEVATION
 40
0.0
  9
$THICKNESS
 40
0.0
  9
$LIMCHECK
 70
     0
  9
$BLIPMODE
 70
     0
  9
$CHAMFERA
 40
0.0
  9
$CHAMFERB
 40
0.0
  9
$SKPOLY
 70
     0
  9
$TDCREATE
 40
2458060.468368056230247
  9
$TDUPDATE
 40
2459018.9342476851306856
  9
$TDINDWG
 40
0.7165116898
  9
$TDUSRTIMER
 40
0.7165116898
  9
$USRTIMER
 70
     1
  9
$ANGBASE
 50
0.0
  9
$ANGDIR
 70
     0
  9
$PDMODE
 70
     0
  9
$PDSIZE
 40
0.3125
  9
$PLINEWID
 40
0.0
  9
$COORDS
 70
     1
  9
$SPLFRAME
 70
     0
  9
$SPLINETYPE
 70
     6
  9
$SPLINESEGS
 70
     8
  9
$ATTDIA
 70
     1
  9
$ATTREQ
 70
     1
  9
$HANDLING
 70
     1
  9
$HANDSEED
  5
99B1
  9
$SURFTAB1
 70
     6
  9
$SURFTAB2
 70
     6
  9
$SURFTYPE
 70
     6
  9
$SURFU
 70
     6
  9
$SURFV
 70
     6
  9
$UCSNAME
  2

  9
$UCSORG
 10
0.0
 20
0.0
 30
0.0
  9
$UCSXDIR
 10
1.0
 20
0.0
 30
0.0
  9
$UCSYDIR
 10
0.0
 20
1.0
 30
0.0
  9
$PUCSNAME
  2

  9
$PUCSORG
 10
0.0
 20
0.0
 30
0.0
  9
$PUCSXDIR
 10
1.0
 20
0.0
 30
0.0
  9
$PUCSYDIR
 10
0.0
 20
1.0
 30
0.0
  9
$USERI1
 70
     0
  9
$USERI2
 70
     0
  9
$USERI3
 70
     0
  9
$USERI4
 70
     0
  9
$USERI5
 70
     0
  9
$USERR1
 40
0.0
  9
$USERR2
 40
0.0
  9
$USERR3
 40
0.0
  9
$USERR4
 40
0.0
  9
$USERR5
 40
0.0
  9
$WORLDVIEW
 70
     1
  9
$SHADEDGE
 70
     3
  9
$SHADEDIF
 70
    70
  9
$TILEMODE
 70
     1
  9
$MAXACTVP
 70
    64
  9
$PLIMCHECK
 70
     0
  9
$PEXTMIN
 10
1.0000000000000000E+20
 20
1.0000000000000000E+20
 30
1.0000000000000000E+20
  9
$PEXTMAX
 10
-1.0000000000000000E+20
 20
-1.0000000000000000E+20
 30
-1.0000000000000000E+20
  9
$PLIMMIN
 10
0.0
 20
0.0
  9
$PLIMMAX
 10
12.0
 20
9.0
  9
$UNITMODE
 70
     0
  9
$VISRETAIN
 70
     1
  9
$PLINEGEN
 70
     0
  9
$PSLTSCALE
 70
     1
  0
ENDSEC
  0
SECTION
  2
TABLES
  0
TABLE
  2
VPORT
 70
     1
  0
VPORT
  2
*ACTIVE
 70
     0
 10
0.0
 20
0.0
 11
1.0
 21
1.0
 12
0.0
 22
0.0
 13
0.0
 23
0.0
 14
1.0
 24
1.0
 15
0.0
 25
0.0
 16
0.0
 26
0.0
 36
33.2685210662648672
 17
3511.7319417495050402
 27
202.3216094970703125
 37
0.0
 40
9.4361541294969928
 41
2.7557803468208091
 42
50.0
 43
0.0
 44
0.0
 50
0.0
 51
0.0
 71
     0
 72
   100
 73
     1
 74
     1
 75
     0
 76
     0
 77
     0
 78
     0
  0
ENDTAB
  0
TABLE
  2
LTYPE
 70
     2
  0
LTYPE
  2
CONTINUOUS
 70
     0
  3
Solid line
 72
    65
 73
     0
 40
0.0
  0
LTYPE
  2
PHANTOM2
 70
     0
  3
___ _ _ ___ _ _ ___ _ _ ___ _ _
 72
    65
 73
     6
 40
1.25
 49
0.625
 49
-0.125
 49
0.125
 49
-0.125
 49
0.125
 49
-0.125
  0
ENDTAB
  0
TABLE
  2
LAYER
 70
     2
  0
LAYER
  2
0
 70
     0
 62
   255
  6
CONTINUOUS
  0
LAYER
  2
DEFPOINTS
 70
     0
 62
     7
  6
CONTINUOUS
  0
ENDTAB
  0
TABLE
  2
STYLE
 70
     1
  0
STYLE
  2
STANDARD
 70
     0
 40
0.0
 41
0.8
 50
0.0
 71
     0
 42
0.2
  3
txt
  4

  0
ENDTAB
  0
TABLE
  2
VIEW
 70
     0
  0
ENDTAB
  0
TABLE
  2
UCS
 70
     0
  0
ENDTAB
  0
TABLE
  2
APPID
 70
     9
  0
APPID
  2
ACAD
 70
     0
  0
APPID
  2
ACAD_MLEADERVER
 70
     0
  0
APPID
  2
ACAD_EXEMPT_FROM_CAD_STANDARDS
 70
     0
  0
APPID
  2
ACAD_NAV_VCDISPLAY
 70
     0
  0
APPID
  2
ACAECLAYERSTANDARD
 70
     0
  0
APPID
  2
ACCMTRANSPARENCY
 70
     0
  0
APPID
  2
ACAD_DSTYLE_DIMJAG
 70
     0
  0
APPID
  2
ACAD_DSTYLE_DIMTALN
 70
     0
  0
APPID
  2
ACDBATTR
 70
     0
  0
ENDTAB
  0
TABLE
  2
DIMSTYLE
 70
     1
  0
DIMSTYLE
  2
STANDARD
 70
     0
  3

  4

  5

  6

  7

 40
1.0
 41
0.1875
 42
0.0625
 43
0.38
 44
0.125
 45
0.0
 46
0.0
 47
0.01
 48
0.01
140
0.15625
141
0.09
142
0.0
143
25.3999999999999986
144
1.0
145
0.0
146
1.0
147
0.09
 71
     1
 72
     0
 73
     1
 74
     1
 75
     0
 76
     0
 77
     0
 78
     4
170
     0
171
     2
172
     0
173
     0
174
     0
175
     0
176
     0
177
     0
178
     0
  0
ENDTAB
  0
ENDSEC
  0
SECTION
  2
BLOCKS
  0
BLOCK
  8
0
  2
$MODEL_SPACE
 70
     0
 10
0.0
 20
0.0
 30
0.0
  3
$MODEL_SPACE
  1

  0
ENDBLK
  5
21
  8
0
  0
BLOCK
 67
     1
  8
0
  2
$PAPER_SPACE
 70
     0
 10
0.0
 20
0.0
 30
0.0
  3
$PAPER_SPACE
  1

  0
ENDBLK
  5
1D
 67
     1
  8
0
  0
BLOCK
  8
0
  2
_FILLED
 70
     0
 10
0.0
 20
0.0
 30
0.0
  3
_FILLED
  1

  0
SOLID
  5
6F59
  8
0
  6
BYBLOCK
 62
     0
 10
0.0
 20
0.0
 30
0.0
 11
-1.0
 21
0.1666666667
 31
0.0
 12
-1.0
 22
-0.1666666667
 32
0.0
 13
-1.0
 23
-0.1666666667
 33
0.0
  0
ENDBLK
  5
6F5A
  8
0
  6
BYBLOCK
 62
     0
  0
ENDSEC
  0
SECTION
  2
ENTITIES
  0
ATTDEF
  5
3930
  8
DEFPOINTS
 10
3515.9944765976501913
 20
202.3250008838888903
 30
0.0
 40
0.001
  1
K-14426T
  3

  2
MODELNUMBER
 70
     0
1001
ACDBATTR
1070
     0
1070
     1
  0
ATTDEF
  5
3931
  8
DEFPOINTS
 10
3515.9944765976501913
 20
202.3233342172221967
 30
0.0
 40
0.001
  1
PURIST
  3

  2
TRADENAME
 70
     0
1001
ACDBATTR
1070
     0
1070
     1
  0
ATTDEF
  5
3932
  8
DEFPOINTS
 10
3515.9944765976501913
 20
202.3216675505555884
 30
0.0
 40
0.001
  1
BATH SPOUT
  3

  2
PRODUCT
 70
     0
1001
ACDBATTR
1070
     0
1070
     1
  0
LINE
  5
9786
  8
0
 10
3509.9622901536081372
 20
201.6966083102107063
 30
0.0
 11
3515.0922901536091558
 21
201.6966083102107063
 31
0.0
  0
LINE
  5
9787
  8
0
 10
3515.0922901536091558
 20
201.6966083102107063
 30
0.0
 11
3515.0922901536091558
 21
202.9466083102107063
 31
0.0
  0
LINE
  5
9788
  8
0
 10
3515.0922901536091558
 20
202.9466083102107063
 30
0.0
 11
3509.9622901536081372
 21
202.9466083102107063
 31
0.0
  0
ARC
  5
9789
  8
0
 10
3509.9622901536081372
 20
200.5716083102107063
 30
0.0
 40
2.3749999999999991
 50
90.0
 51
145.0000000008514007
  0
ARC
  5
978A
  8
0
 10
3509.9622901536081372
 20
200.5716083102107063
 30
0.0
 40
1.125
 50
90.0
 51
145.000000007428298
  0
LINE
  5
978B
  8
0
 10
3509.0407441037841636
 20
201.2168818011055862
 30
0.0
 11
3508.7998420005310436
 21
200.8728379424946979
 31
0.0
  0
LINE
  5
978C
  8
0
 10
3508.7998420005310436
 20
200.8728379424946979
 30
0.0
 11
3507.7759019451859785
 21
201.5898084880219017
 31
0.0
  0
LINE
  5
978D
  8
0
 10
3507.7759019451859785
 20
201.5898084880219017
 30
0.0
 11
3508.0168040485182246
 21
201.933852346666896
 31
0.0
  0
LINE
  5
978E
  8
0
 10
3515.130864956709047
 20
201.6966083102107063
 30
0.0
 11
3515.2938649567090579
 21
201.6966083102107063
 31
0.0
  0
ARC
  5
978F
  8
0
 10
3515.2938615953939916
 20
201.3966035153235907
 30
0.0
 40
0.3000047949059464
 50
19.9381545111525007
 51
89.9993580465323078
  0
ARC
  5
9790
  8
0
 10
3513.747508019057932
 20
200.8335110750188903
 30
0.0
 40
1.9456906214277869
 50
11.5403082503020205
 51
19.9977606527132217
  0
LINE
  5
9791
  8
0
 10
3515.653864956707821
 20
204.2416083102106938
 30
0.0
 11
3515.653864956707821
 21
200.4016083102106904
 31
0.0
  0
ARC
  5
9792
  8
0
 10
3515.733864956708203
 20
200.4016083102106904
 30
0.0
 40
0.0799999999999983
 50
180.0
 51
270.0
  0
LINE
  5
9793
  8
0
 10
3515.9038649567091852
 20
200.3216083102107063
 30
0.0
 11
3515.993864956708876
 21
200.3374777384107119
 31
0.0
  0
LINE
  5
9794
  8
0
 10
3515.993864956708876
 20
200.3374777384107119
 30
0.0
 11
3515.993864956708876
 21
204.3057388819107132
 31
0.0
  0
LINE
  5
9795
  8
0
 10
3515.993864956708876
 20
204.3057388819107132
 30
0.0
 11
3515.9038649567091852
 21
204.3216083102107063
 31
0.0
  0
ARC
  5
9796
  8
0
 10
3515.733864956708203
 20
204.2416083102106938
 30
0.0
 40
0.0800000000000019
 50
90.0
 51
179.9999999999984084
  0
LINE
  5
9797
  8
0
 10
3515.130864956709047
 20
202.9466083102107063
 30
0.0
 11
3515.2938649567090579
 21
202.9466083102107063
 31
0.0
  0
ARC
  5
9798
  8
0
 10
3515.2938649567090579
 20
203.2466083102106893
 30
0.0
 40
0.2999999999999998
 50
270.0
 51
340.0624874423128858
  0
ARC
  5
9799
  8
0
 10
3513.6958994607821296
 20
203.8262473378019024
 30
0.0
 40
1.9998456190125979
 50
340.0624874423128858
 51
348.2536158219202775
  0
LINE
  5
979A
  8
0
 10
3508.7957462403078353
 20
200.8757058246106908
 30
0.0
 11
3508.4745434359269893
 21
200.4169806797976037
 31
0.0
  0
LINE
  5
979B
  8
0
 10
3508.4745434359269893
 20
200.4169806797976037
 30
0.0
 11
3508.4606161511078426
 21
200.4145249238106885
 31
0.0
  0
LINE
  5
979C
  8
0
 10
3508.4606161511078426
 20
200.4145249238106885
 30
0.0
 11
3507.4612506571088488
 21
201.1142881761107049
 31
0.0
  0
LINE
  5
979D
  8
0
 10
3507.4612506571088488
 20
201.1142881761107049
 30
0.0
 11
3507.4587949010087868
 21
201.1282154609106954
 31
0.0
  0
LINE
  5
979E
  8
0
 10
3507.4587949010087868
 20
201.1282154609106954
 30
0.0
 11
3507.7799977054019109
 21
201.5869406058440063
 31
0.0
  0
ARC
  5
979F
  8
0
 10
3515.130864956709047
 20
201.7366083102106984
 30
0.0
 40
0.0400000000000012
 50
195.3406254253937959
 51
270.0
  0
ARC
  5
97A0
  8
0
 10
3515.130864956709047
 20
202.9066083102106859
 30
0.0
 40
0.0400000000000012
 50
90.0
 51
164.6593745746060904
  0
LINE
  5
97A1
  8
0
 10
3515.9038649567091852
 20
204.3216083102107063
 30
0.0
 11
3515.9038649567091852
 21
200.3216083102107063
 31
0.0
  0
LINE
  5
97A2
  8
0
 10
3515.9038649567091852
 20
204.3216083102107063
 30
0.0
 11
3515.733864956708203
 21
204.3216083102107063
 31
0.0
  0
LINE
  5
97A3
  8
0
 10
3515.9038649567091852
 20
200.3216083102107063
 30
0.0
 11
3515.733864956708203
 21
200.3216083102107063
 31
0.0
  0
ENDSEC
  0
EOF
