  0
SECTION
  2
HEADER
  9
$ACADVER
  1
AC1009
  9
$INSBASE
 10
413.8693306317371139
 20
67.5137276578634129
 30
0.0
  9
$EXTMIN
 10
405.735677510323228
 20
67.5133897412102044
 30
-0.0000000349181948
  9
$EXTMAX
 10
415.1746315306663178
 20
78.8883991223235341
 30
0.0000000814935746
  9
$LIMMIN
 10
0.0
 20
0.0
  9
$LIMMAX
 10
11.6929133858000007
 20
8.2677165353999982
  9
$ORTHOMODE
 70
     0
  9
$REGENMODE
 70
     1
  9
$FILLMODE
 70
     1
  9
$QTEXTMODE
 70
     0
  9
$MIRRTEXT
 70
     0
  9
$DRAGMODE
 70
     2
  9
$LTSCALE
 40
0.6431102362
  9
$OSMODE
 70
  4095
  9
$ATTMODE
 70
     1
  9
$TEXTSIZE
 40
0.2
  9
$TRACEWID
 40
0.05
  9
$TEXTSTYLE
  7
STANDARD
  9
$CLAYER
  8
0
  9
$CELTYPE
  6
BYLAYER
  9
$CECOLOR
 62
   256
  9
$DIMSCALE
 40
1.0
  9
$DIMASZ
 40
0.1875
  9
$DIMEXO
 40
0.0625
  9
$DIMDLI
 40
0.4443307087
  9
$DIMRND
 40
0.0
  9
$DIMDLE
 40
0.0
  9
$DIMEXE
 40
0.125
  9
$DIMTP
 40
0.01
  9
$DIMTM
 40
0.01
  9
$DIMTXT
 40
1.0
  9
$DIMCEN
 40
0.1052362205
  9
$DIMTSZ
 40
0.0
  9
$DIMTOL
 70
     1
  9
$DIMLIM
 70
     0
  9
$DIMTIH
 70
     0
  9
$DIMTOH
 70
     1
  9
$DIMSE1
 70
     0
  9
$DIMSE2
 70
     0
  9
$DIMTAD
 70
     0
  9
$DIMZIN
 70
     0
  9
$DIMBLK
  1

  9
$DIMASO
 70
     1
  9
$DIMSHO
 70
     1
  9
$DIMPOST
  1
\X
  9
$DIMAPOST
  1

  9
$DIMALT
 70
     1
  9
$DIMALTD
 70
     2
  9
$DIMALTF
 40
25.3999999999999986
  9
$DIMLFAC
 40
1.0
  9
$DIMTOFL
 70
     0
  9
$DIMTVP
 40
0.0
  9
$DIMTIX
 70
     0
  9
$DIMSOXD
 70
     0
  9
$DIMSAH
 70
     0
  9
$DIMBLK1
  1

  9
$DIMBLK2
  1

  9
$DIMSTYLE
  2
STANDARD
  9
$DIMCLRD
 70
     0
  9
$DIMCLRE
 70
     0
  9
$DIMCLRT
 70
     0
  9
$DIMTFAC
 40
1.0
  9
$DIMGAP
 40
0.09
  9
$LUNITS
 70
     2
  9
$LUPREC
 70
     4
  9
$SKETCHINC
 40
0.1
  9
$FILLETRAD
 40
0.0
  9
$AUNITS
 70
     0
  9
$AUPREC
 70
     0
  9
$MENU
  1
.
  9
$ELEVATION
 40
0.0
  9
$PELEVATION
 40
0.0
  9
$THICKNESS
 40
0.0
  9
$LIMCHECK
 70
     0
  9
$BLIPMODE
 70
     0
  9
$CHAMFERA
 40
0.0
  9
$CHAMFERB
 40
0.0
  9
$SKPOLY
 70
     0
  9
$TDCREATE
 40
2458172.5207638889551163
  9
$TDUPDATE
 40
2459053.7818865738809109
  9
$TDINDWG
 40
0.2664439583
  9
$TDUSRTIMER
 40
0.2664439583
  9
$USRTIMER
 70
     1
  9
$ANGBASE
 50
0.0
  9
$ANGDIR
 70
     0
  9
$PDMODE
 70
     0
  9
$PDSIZE
 40
0.3125
  9
$PLINEWID
 40
0.0
  9
$COORDS
 70
     1
  9
$SPLFRAME
 70
     0
  9
$SPLINETYPE
 70
     6
  9
$SPLINESEGS
 70
     8
  9
$ATTDIA
 70
     1
  9
$ATTREQ
 70
     1
  9
$HANDLING
 70
     1
  9
$HANDSEED
  5
DD27
  9
$SURFTAB1
 70
     6
  9
$SURFTAB2
 70
     6
  9
$SURFTYPE
 70
     6
  9
$SURFU
 70
     6
  9
$SURFV
 70
     6
  9
$UCSNAME
  2

  9
$UCSORG
 10
0.0
 20
0.0
 30
0.0
  9
$UCSXDIR
 10
1.0
 20
0.0
 30
0.0
  9
$UCSYDIR
 10
0.0
 20
1.0
 30
0.0
  9
$PUCSNAME
  2

  9
$PUCSORG
 10
0.0
 20
0.0
 30
0.0
  9
$PUCSXDIR
 10
1.0
 20
0.0
 30
0.0
  9
$PUCSYDIR
 10
0.0
 20
1.0
 30
0.0
  9
$USERI1
 70
     0
  9
$USERI2
 70
     0
  9
$USERI3
 70
     0
  9
$USERI4
 70
     0
  9
$USERI5
 70
     0
  9
$USERR1
 40
0.0
  9
$USERR2
 40
0.0
  9
$USERR3
 40
0.0
  9
$USERR4
 40
0.0
  9
$USERR5
 40
0.0
  9
$WORLDVIEW
 70
     1
  9
$SHADEDGE
 70
     3
  9
$SHADEDIF
 70
    70
  9
$TILEMODE
 70
     1
  9
$MAXACTVP
 70
    64
  9
$PLIMCHECK
 70
     0
  9
$PEXTMIN
 10
1.0000000000000000E+20
 20
1.0000000000000000E+20
 30
1.0000000000000000E+20
  9
$PEXTMAX
 10
-1.0000000000000000E+20
 20
-1.0000000000000000E+20
 30
-1.0000000000000000E+20
  9
$PLIMMIN
 10
0.0
 20
0.0
  9
$PLIMMAX
 10
12.0
 20
9.0
  9
$UNITMODE
 70
     0
  9
$VISRETAIN
 70
     1
  9
$PLINEGEN
 70
     0
  9
$PSLTSCALE
 70
     1
  0
ENDSEC
  0
SECTION
  2
TABLES
  0
TABLE
  2
VPORT
 70
     1
  0
VPORT
  2
*ACTIVE
 70
     0
 10
0.0
 20
0.0
 11
1.0
 21
1.0
 12
-19.1741345875589104
 22
3.4983529195481831
 13
0.0
 23
0.0
 14
1.0
 24
1.0
 15
0.0
 25
0.0
 16
0.0
 26
0.0
 36
14.6338572656650907
 17
429.6292891080536833
 27
69.7025415122186871
 37
0.0
 40
11.4696696533556004
 41
2.6486111111111108
 42
50.0
 43
0.0
 44
0.0
 50
0.0
 51
0.0
 71
     0
 72
   100
 73
     1
 74
     1
 75
     0
 76
     0
 77
     0
 78
     0
  0
ENDTAB
  0
TABLE
  2
LTYPE
 70
     2
  0
LTYPE
  2
CONTINUOUS
 70
     0
  3
Solid line
 72
    65
 73
     0
 40
0.0
  0
LTYPE
  2
PHANTOM2
 70
     0
  3
___ _ _ ___ _ _ ___ _ _ ___ _ _
 72
    65
 73
     6
 40
1.25
 49
0.625
 49
-0.125
 49
0.125
 49
-0.125
 49
0.125
 49
-0.125
  0
ENDTAB
  0
TABLE
  2
LAYER
 70
     2
  0
LAYER
  2
0
 70
     0
 62
   255
  6
CONTINUOUS
  0
LAYER
  2
DEFPOINTS
 70
     0
 62
     7
  6
CONTINUOUS
  0
ENDTAB
  0
TABLE
  2
STYLE
 70
     1
  0
STYLE
  2
STANDARD
 70
     0
 40
0.0
 41
0.8
 50
0.0
 71
     0
 42
0.2
  3
txt
  4

  0
ENDTAB
  0
TABLE
  2
VIEW
 70
     0
  0
ENDTAB
  0
TABLE
  2
UCS
 70
     0
  0
ENDTAB
  0
TABLE
  2
APPID
 70
    10
  0
APPID
  2
ACAD
 70
     0
  0
APPID
  2
ACAD_MLEADERVER
 70
     0
  0
APPID
  2
ACAD_EXEMPT_FROM_CAD_STANDARDS
 70
     0
  0
APPID
  2
ACAD_DSTYLE_DIMJAG
 70
     0
  0
APPID
  2
ACAD_DSTYLE_DIMTALN
 70
     0
  0
APPID
  2
ACAD_NAV_VCDISPLAY
 70
     0
  0
APPID
  2
ACAECLAYERSTANDARD
 70
     0
  0
APPID
  2
ACCMTRANSPARENCY
 70
     0
  0
APPID
  2
DCO15
 70
     0
  0
APPID
  2
ACDBATTR
 70
     0
  0
ENDTAB
  0
TABLE
  2
DIMSTYLE
 70
     1
  0
DIMSTYLE
  2
STANDARD
 70
     0
  3

  4

  5

  6

  7

 40
1.0
 41
0.1875
 42
0.0625
 43
0.38
 44
0.125
 45
0.0
 46
0.0
 47
0.01
 48
0.01
140
0.15625
141
0.09
142
0.0
143
25.3999999999999986
144
1.0
145
0.0
146
1.0
147
0.09
 71
     1
 72
     0
 73
     1
 74
     1
 75
     0
 76
     0
 77
     0
 78
     4
170
     0
171
     2
172
     0
173
     0
174
     0
175
     0
176
     0
177
     0
178
     0
  0
ENDTAB
  0
ENDSEC
  0
SECTION
  2
BLOCKS
  0
BLOCK
  8
0
  2
$MODEL_SPACE
 70
     0
 10
0.0
 20
0.0
 30
0.0
  3
$MODEL_SPACE
  1

  0
ENDBLK
  5
21
  8
0
  0
BLOCK
 67
     1
  8
0
  2
$PAPER_SPACE
 70
     0
 10
0.0
 20
0.0
 30
0.0
  3
$PAPER_SPACE
  1

  0
ENDBLK
  5
1D
 67
     1
  8
0
  0
BLOCK
  8
0
  2
_FILLED
 70
     0
 10
0.0
 20
0.0
 30
0.0
  3
_FILLED
  1

  0
SOLID
  5
87E2
  8
0
  6
BYBLOCK
 62
     0
 10
0.0
 20
0.0
 30
0.0
 11
-1.0
 21
0.1666666667
 31
0.0
 12
-1.0
 22
-0.1666666667
 32
0.0
 13
-1.0
 23
-0.1666666667
 33
0.0
  0
ENDBLK
  5
87E3
  8
0
  6
BYBLOCK
 62
     0
  0
ENDSEC
  0
SECTION
  2
ENTITIES
  0
ATTDEF
  5
B1E1
  8
DEFPOINTS
 10
413.8695174326268216
 20
67.5172874317647711
 30
0.0
 40
0.001
  1
K-14428A-4
  3

  2
MODELNUMBER
 70
     0
1001
ACDBATTR
1070
     0
1070
     1
  0
ATTDEF
  5
B1E2
  8
DEFPOINTS
 10
413.8695174326268216
 20
67.5156207650981059
 30
0.0
 40
0.001
  1
PURIST
  3

  2
TRADENAME
 70
     0
1001
ACDBATTR
1070
     0
1070
     1
  0
ATTDEF
  5
B1E3
  8
DEFPOINTS
 10
413.8695174326268216
 20
67.5139540984314408
 30
0.0
 40
0.001
  1
BATHROOM SINK FAUCET
  3

  2
PRODUCT
 70
     0
1001
ACDBATTR
1070
     0
1070
     1
  0
LINE
  5
D94F
  8
0
 10
405.7593358704369848
 20
75.2687276578634226
 30
0.0
 11
406.9793306317371275
 21
75.2687276578634226
 31
0.0
  0
LINE
  5
D950
  8
0
 10
405.7493306317371093
 20
75.2787276578634277
 30
0.0
 11
406.9893306317371184
 21
75.2787276578634277
 31
0.0
  0
LINE
  5
D951
  8
0
 10
405.7593358704369848
 20
75.2687276578634226
 30
0.0
 11
405.7493306317371093
 21
75.2787276578634277
 31
0.0
  0
LINE
  5
D952
  8
0
 10
405.7493306317371093
 20
75.2787276578634277
 30
0.0
 11
405.7493306317371093
 21
75.83872765786343
 31
0.0
  0
LINE
  5
D953
  8
0
 10
405.7443306317371139
 20
75.83872765786343
 30
0.0
 11
406.9943306317370002
 21
75.83872765786343
 31
0.0
  0
LINE
  5
D954
  8
0
 10
406.9893306317371184
 20
75.83872765786343
 30
0.0
 11
406.9893306317371184
 21
75.2787276578634277
 31
0.0
  0
LINE
  5
D955
  8
0
 10
406.9893306317371184
 20
75.2787276578634277
 30
0.0
 11
406.9793306317371275
 21
75.2687276578634226
 31
0.0
  0
LINE
  5
D956
  8
0
 10
405.7443306317371139
 20
75.83872765786343
 30
0.0
 11
405.7443306317371139
 21
76.2587276578634317
 31
0.0
  0
ARC
  5
D957
  8
0
 10
408.3693306317370002
 20
76.2587276578634174
 30
0.0
 40
2.6250000000000102
 50
90.0
 51
180.0
  0
LINE
  5
D958
  8
0
 10
408.3693306317370002
 20
78.8837276578634317
 30
0.0
 11
411.8693306317370002
 21
78.8837276578634317
 31
0.0
  0
ARC
  5
D959
  8
0
 10
411.8693306317370002
 20
76.2587276578634317
 30
0.0
 40
2.624999999999992
 50
0.0
 51
90.0
  0
LINE
  5
D95A
  8
0
 10
414.4943306317371139
 20
76.2587276578634317
 30
0.0
 11
414.4943306317371139
 21
72.3837276578634317
 31
0.0
  0
ARC
  5
D95B
  8
0
 10
414.6243306317371093
 20
72.3837276578634317
 30
0.0
 40
0.129999999999999
 50
180.0
 51
270.0000000000032969
  0
LINE
  5
D95C
  8
0
 10
414.7318306317371253
 20
72.253727657863422
 30
0.0
 11
413.9820958746091151
 21
72.253727657863422
 31
0.0
  0
LINE
  5
D95D
  8
0
 10
413.756565388864999
 20
72.253727657863422
 30
0.0
 11
413.0068306317371025
 21
72.253727657863422
 31
0.0
  0
LINE
  5
D95E
  8
0
 10
406.9943306317370002
 20
75.83872765786343
 30
0.0
 11
406.9943306317370002
 21
76.2587276578634317
 31
0.0
  0
ARC
  5
D95F
  8
0
 10
408.3693306317370002
 20
76.2587276578634317
 30
0.0
 40
1.3750000000000011
 50
90.0
 51
180.0
  0
LINE
  5
D960
  8
0
 10
408.3693306317370002
 20
77.6337276578634317
 30
0.0
 11
411.8693306317370002
 21
77.6337276578634317
 31
0.0
  0
ARC
  5
D961
  8
0
 10
411.8693306317370002
 20
76.2587276578634317
 30
0.0
 40
1.374999999999994
 50
0.0
 51
90.0
  0
LINE
  5
D962
  8
0
 10
413.2443306317370002
 20
76.2587276578634317
 30
0.0
 11
413.2443306317370002
 21
72.3837276578634317
 31
0.0
  0
ARC
  5
D963
  8
0
 10
413.1143306317371184
 20
72.3837276578634317
 30
0.0
 40
0.1300000000000026
 50
270.0000000000064801
 51
0.0000000000008142
  0
LINE
  5
D964
  8
0
 10
413.0068306317371025
 20
72.253727657863422
 30
0.0
 11
413.0068306317371025
 21
68.1837276578634146
 31
0.0
  0
ARC
  5
D965
  8
0
 10
412.6068306317371253
 20
68.1837276578634146
 30
0.0
 40
0.3999999999999986
 50
270.0
 51
0.0
  0
LINE
  5
D966
  8
0
 10
412.5893306317370843
 20
67.7837276578634231
 30
0.0
 11
415.1493306317369729
 21
67.7837276578634231
 31
0.0
  0
LINE
  5
D967
  8
0
 10
415.1493306317369729
 20
67.7837276578634231
 30
0.0
 11
415.1493306317369729
 21
67.5137276578634129
 31
0.0
  0
LINE
  5
D968
  8
0
 10
415.1493306317369729
 20
67.5137276578634129
 30
0.0
 11
412.5893306317370843
 21
67.5137276578634129
 31
0.0
  0
LINE
  5
D969
  8
0
 10
412.5893306317370843
 20
67.5137276578634129
 30
0.0
 11
412.5893306317370843
 21
67.7837276578634231
 31
0.0
  0
CIRCLE
  5
D96A
  8
0
 10
413.8693306317371139
 20
71.9757276578634304
 30
0.0
 40
0.3000000000000003
  0
LINE
  5
D96B
  8
0
 10
413.6095230106016061
 20
71.8257276578635953
 30
0.0
 11
413.609330631737123
 21
71.8257276578635953
 31
0.0
  0
LINE
  5
D96C
  8
0
 10
414.129138252872508
 20
71.8257276578635953
 30
0.0
 11
414.1293306317369911
 21
71.8257276578635953
 31
0.0
  0
LINE
  5
D96D
  8
0
 10
413.609330631737123
 20
71.8257276578634247
 30
0.0
 11
413.609330631737123
 21
70.8557276578634259
 31
0.0
  0
ARC
  5
D96E
  8
0
 10
413.3293306317369797
 20
70.8557276578634259
 30
0.0
 40
0.2799999999999976
 50
270.0000044331001163
 51
0.0
  0
LINE
  5
D96F
  8
0
 10
414.1293306317369911
 20
71.8257276578634247
 30
0.0
 11
414.1293306317369911
 21
70.8557276578634259
 31
0.0
  0
ARC
  5
D970
  8
0
 10
414.4093306317370775
 20
70.8557276578634259
 30
0.0
 40
0.2799999999999976
 50
180.0000000000007958
 51
269.9999955668998837
  0
LINE
  5
D971
  8
0
 10
413.0693306317371025
 20
70.5757276578634247
 30
0.0
 11
414.6693306317371253
 21
70.5757276578634247
 31
0.0
  0
LINE
  5
D972
  8
0
 10
413.0693306317371025
 20
70.4857276578634213
 30
0.0
 11
414.6693306317371253
 21
70.4857276578634213
 31
0.0
  0
LINE
  5
D973
  8
0
 10
413.072093121237117
 20
70.4720662405634215
 30
0.0
 11
414.6665681422371108
 21
70.4720662405634215
 31
0.0
  0
LINE
  5
D974
  8
0
 10
413.0693306317371025
 20
70.4307276578634287
 30
0.0
 11
414.6693306317371253
 21
70.4307276578634287
 31
0.0
  0
LINE
  5
D975
  8
0
 10
413.0693306317371025
 20
70.5757276578634247
 30
0.0
 11
413.0693306317371025
 21
70.4857276578634213
 31
0.0
  0
LINE
  5
D976
  8
0
 10
413.072093121237117
 20
70.4720662405634215
 30
0.0
 11
413.072093121237117
 21
70.4307276578634287
 31
0.0
  0
LINE
  5
D977
  8
0
 10
413.1443306317369775
 20
70.4857276578634213
 30
0.0
 11
413.1445690926370276
 21
70.4720662405634215
 31
0.0
  0
LINE
  5
D978
  8
0
 10
414.5943306317370798
 20
70.4857276578634213
 30
0.0
 11
414.5940922433691185
 21
70.4720704016491624
 31
0.0
  0
LINE
  5
D979
  8
0
 10
413.0693306317371025
 20
70.4307276578634287
 30
0.0
 11
413.0693306317371025
 21
68.2037276578634248
 31
0.0
  0
ARC
  5
D97A
  8
0
 10
412.6493306317370866
 20
68.2037276578634248
 30
0.0
 40
0.4199999999999982
 50
270.0
 51
0.0
  0
LINE
  5
D97B
  8
0
 10
414.6693306317371253
 20
70.5757276578634247
 30
0.0
 11
414.6693306317371253
 21
70.4857276578634213
 31
0.0
  0
LINE
  5
D97C
  8
0
 10
414.6665681422371108
 20
70.4720662405634215
 30
0.0
 11
414.6665747262371156
 21
70.4307276578634287
 31
0.0
  0
LINE
  5
D97D
  8
0
 10
414.6693306317371253
 20
70.4307276578634287
 30
0.0
 11
414.6693306317371253
 21
68.2037276578634248
 31
0.0
  0
ARC
  5
D97E
  8
0
 10
415.0893306317370275
 20
68.2037276578634248
 30
0.0
 40
0.4199999999999946
 50
179.9999999999992042
 51
270.0
  0
ARC
  5
D97F
  8
0
 10
415.1318306317371025
 20
68.1837276578634146
 30
0.0
 40
0.3999999999999915
 50
179.9999999999992042
 51
270.0
  0
LINE
  5
D980
  8
0
 10
414.7318306317371253
 20
68.1837276578634146
 30
0.0
 11
414.7318306317371253
 21
68.4037276578634277
 31
0.0
  0
LINE
  5
D981
  8
0
 10
414.7318306317371253
 20
68.8037276578634334
 30
0.0
 11
414.7318306317371253
 21
72.253727657863422
 31
0.0
  0
ARC
  5
D982
  8
0
 10
415.661476168499803
 20
68.5882668391620314
 30
0.0
 40
0.9542872672410174
 50
166.9511374307579956
 51
170.3765899307315976
  0
ARC
  5
D983
  8
0
 10
415.5819379889744027
 20
68.6017531451814193
 30
0.0
 40
0.8736138363466803
 50
170.3765899307315976
 51
179.8521255762809972
  0
ARC
  5
D984
  8
0
 10
415.5282231831466788
 20
68.60189177779381
 30
0.0
 40
0.8198988516207165
 50
179.8521255762809972
 51
188.2604562920926128
  0
ARC
  5
D985
  8
0
 10
415.9950912385730817
 20
68.6696714195968241
 30
0.0
 40
1.2916613565113091
 50
188.2604562920926128
 51
189.3574560283653057
  0
ARC
  5
D986
  8
0
 10
415.6583492798783936
 20
68.6185698160290514
 30
0.0
 40
0.9511014447885969
 50
189.6183268544224916
 51
193.0550860909742141
  0
ARC
  5
D987
  8
0
 10
414.7206177852369819
 20
68.7737276578634322
 30
0.0
 40
0.009999999999985
 50
25.8424128736749807
 51
50.707010074629828
  0
ARC
  5
D988
  8
0
 10
414.3696192095229094
 20
68.6037276578231996
 30
0.0
 40
0.4000000002141743
 50
0.0000000057614349
 51
25.8424128652475886
  0
ARC
  5
D989
  8
0
 10
414.3696192098735196
 20
68.6037276578231996
 30
0.0
 40
0.3999999998635246
 50
334.157587123230428
 51
0.0000000057614349
  0
ARC
  5
D98A
  8
0
 10
414.7206177852352198
 20
68.4337276578649636
 30
0.0
 40
0.0100000000024229
 50
309.2828793311315962
 51
334.1575871232369082
  0
LINE
  5
D98B
  8
0
 10
414.7296179418369775
 20
68.7780862334755767
 30
0.0
 11
414.7296179418369775
 21
68.4293690822512701
 31
0.0
  0
CIRCLE
  5
D98D
  8
0
 10
413.8693306317371139
 20
71.9757276578634304
 30
0.0
 40
0.2617474346999984
  0
ENDSEC
  0
EOF
