  0
SECTION
  2
HEADER
  9
$ACADVER
  1
AC1009
  9
$INSBASE
 10
396.1529966792215873
 20
67.5083016328554066
 30
0.0
  9
$EXTMIN
 10
389.5047110134601098
 20
67.5082390355384803
 30
-0.0000000349181948
  9
$EXTMAX
 10
402.8112874355462054
 20
78.8823805987928779
 30
0.0000000814935746
  9
$LIMMIN
 10
0.0
 20
0.0
  9
$LIMMAX
 10
11.6929133858000007
 20
8.2677165353999982
  9
$ORTHOMODE
 70
     0
  9
$REGENMODE
 70
     1
  9
$FILLMODE
 70
     1
  9
$QTEXTMODE
 70
     0
  9
$MIRRTEXT
 70
     0
  9
$DRAGMODE
 70
     2
  9
$LTSCALE
 40
0.6431102362
  9
$OSMODE
 70
  4095
  9
$ATTMODE
 70
     1
  9
$TEXTSIZE
 40
0.2
  9
$TRACEWID
 40
0.05
  9
$TEXTSTYLE
  7
STANDARD
  9
$CLAYER
  8
0
  9
$CELTYPE
  6
BYLAYER
  9
$CECOLOR
 62
   256
  9
$DIMSCALE
 40
1.0
  9
$DIMASZ
 40
0.1875
  9
$DIMEXO
 40
0.0625
  9
$DIMDLI
 40
0.4443307087
  9
$DIMRND
 40
0.0
  9
$DIMDLE
 40
0.0
  9
$DIMEXE
 40
0.125
  9
$DIMTP
 40
0.01
  9
$DIMTM
 40
0.01
  9
$DIMTXT
 40
1.0
  9
$DIMCEN
 40
0.1052362205
  9
$DIMTSZ
 40
0.0
  9
$DIMTOL
 70
     1
  9
$DIMLIM
 70
     0
  9
$DIMTIH
 70
     0
  9
$DIMTOH
 70
     1
  9
$DIMSE1
 70
     0
  9
$DIMSE2
 70
     0
  9
$DIMTAD
 70
     0
  9
$DIMZIN
 70
     0
  9
$DIMBLK
  1

  9
$DIMASO
 70
     1
  9
$DIMSHO
 70
     1
  9
$DIMPOST
  1
\X
  9
$DIMAPOST
  1

  9
$DIMALT
 70
     1
  9
$DIMALTD
 70
     2
  9
$DIMALTF
 40
25.3999999999999986
  9
$DIMLFAC
 40
1.0
  9
$DIMTOFL
 70
     0
  9
$DIMTVP
 40
0.0
  9
$DIMTIX
 70
     0
  9
$DIMSOXD
 70
     0
  9
$DIMSAH
 70
     0
  9
$DIMBLK1
  1

  9
$DIMBLK2
  1

  9
$DIMSTYLE
  2
STANDARD
  9
$DIMCLRD
 70
     0
  9
$DIMCLRE
 70
     0
  9
$DIMCLRT
 70
     0
  9
$DIMTFAC
 40
1.0
  9
$DIMGAP
 40
0.09
  9
$LUNITS
 70
     2
  9
$LUPREC
 70
     4
  9
$SKETCHINC
 40
0.1
  9
$FILLETRAD
 40
0.0
  9
$AUNITS
 70
     0
  9
$AUPREC
 70
     0
  9
$MENU
  1
.
  9
$ELEVATION
 40
0.0
  9
$PELEVATION
 40
0.0
  9
$THICKNESS
 40
0.0
  9
$LIMCHECK
 70
     0
  9
$BLIPMODE
 70
     0
  9
$CHAMFERA
 40
0.0
  9
$CHAMFERB
 40
0.0
  9
$SKPOLY
 70
     0
  9
$TDCREATE
 40
2458172.5207638889551163
  9
$TDUPDATE
 40
2459053.7886226861737669
  9
$TDINDWG
 40
0.268423125
  9
$TDUSRTIMER
 40
0.268423125
  9
$USRTIMER
 70
     1
  9
$ANGBASE
 50
0.0
  9
$ANGDIR
 70
     0
  9
$PDMODE
 70
     0
  9
$PDSIZE
 40
0.3125
  9
$PLINEWID
 40
0.0
  9
$COORDS
 70
     1
  9
$SPLFRAME
 70
     0
  9
$SPLINETYPE
 70
     6
  9
$SPLINESEGS
 70
     8
  9
$ATTDIA
 70
     1
  9
$ATTREQ
 70
     1
  9
$HANDLING
 70
     1
  9
$HANDSEED
  5
DE40
  9
$SURFTAB1
 70
     6
  9
$SURFTAB2
 70
     6
  9
$SURFTYPE
 70
     6
  9
$SURFU
 70
     6
  9
$SURFV
 70
     6
  9
$UCSNAME
  2

  9
$UCSORG
 10
0.0
 20
0.0
 30
0.0
  9
$UCSXDIR
 10
1.0
 20
0.0
 30
0.0
  9
$UCSYDIR
 10
0.0
 20
1.0
 30
0.0
  9
$PUCSNAME
  2

  9
$PUCSORG
 10
0.0
 20
0.0
 30
0.0
  9
$PUCSXDIR
 10
1.0
 20
0.0
 30
0.0
  9
$PUCSYDIR
 10
0.0
 20
1.0
 30
0.0
  9
$USERI1
 70
     0
  9
$USERI2
 70
     0
  9
$USERI3
 70
     0
  9
$USERI4
 70
     0
  9
$USERI5
 70
     0
  9
$USERR1
 40
0.0
  9
$USERR2
 40
0.0
  9
$USERR3
 40
0.0
  9
$USERR4
 40
0.0
  9
$USERR5
 40
0.0
  9
$WORLDVIEW
 70
     1
  9
$SHADEDGE
 70
     3
  9
$SHADEDIF
 70
    70
  9
$TILEMODE
 70
     1
  9
$MAXACTVP
 70
    64
  9
$PLIMCHECK
 70
     0
  9
$PEXTMIN
 10
1.0000000000000000E+20
 20
1.0000000000000000E+20
 30
1.0000000000000000E+20
  9
$PEXTMAX
 10
-1.0000000000000000E+20
 20
-1.0000000000000000E+20
 30
-1.0000000000000000E+20
  9
$PLIMMIN
 10
0.0
 20
0.0
  9
$PLIMMAX
 10
12.0
 20
9.0
  9
$UNITMODE
 70
     0
  9
$VISRETAIN
 70
     1
  9
$PLINEGEN
 70
     0
  9
$PSLTSCALE
 70
     1
  0
ENDSEC
  0
SECTION
  2
TABLES
  0
TABLE
  2
VPORT
 70
     1
  0
VPORT
  2
*ACTIVE
 70
     0
 10
0.0
 20
0.0
 11
1.0
 21
1.0
 12
-33.4712898835505328
 22
3.4927683049469911
 13
0.0
 23
0.0
 14
1.0
 24
1.0
 15
0.0
 25
0.0
 16
0.0
 26
0.0
 36
14.6338572656650907
 17
429.6292891080536833
 27
69.7025415122186871
 37
0.0
 40
11.4687946137114398
 41
2.6486111111111108
 42
50.0
 43
0.0
 44
0.0
 50
0.0
 51
0.0
 71
     0
 72
   100
 73
     1
 74
     1
 75
     0
 76
     0
 77
     0
 78
     0
  0
ENDTAB
  0
TABLE
  2
LTYPE
 70
     2
  0
LTYPE
  2
CONTINUOUS
 70
     0
  3
Solid line
 72
    65
 73
     0
 40
0.0
  0
LTYPE
  2
PHANTOM2
 70
     0
  3
___ _ _ ___ _ _ ___ _ _ ___ _ _
 72
    65
 73
     6
 40
1.25
 49
0.625
 49
-0.125
 49
0.125
 49
-0.125
 49
0.125
 49
-0.125
  0
ENDTAB
  0
TABLE
  2
LAYER
 70
     2
  0
LAYER
  2
0
 70
     0
 62
   255
  6
CONTINUOUS
  0
LAYER
  2
DEFPOINTS
 70
     0
 62
     7
  6
CONTINUOUS
  0
ENDTAB
  0
TABLE
  2
STYLE
 70
     1
  0
STYLE
  2
STANDARD
 70
     0
 40
0.0
 41
0.8
 50
0.0
 71
     0
 42
0.2
  3
txt
  4

  0
ENDTAB
  0
TABLE
  2
VIEW
 70
     0
  0
ENDTAB
  0
TABLE
  2
UCS
 70
     0
  0
ENDTAB
  0
TABLE
  2
APPID
 70
    10
  0
APPID
  2
ACAD
 70
     0
  0
APPID
  2
ACAD_MLEADERVER
 70
     0
  0
APPID
  2
ACAD_EXEMPT_FROM_CAD_STANDARDS
 70
     0
  0
APPID
  2
ACAD_DSTYLE_DIMJAG
 70
     0
  0
APPID
  2
ACAD_DSTYLE_DIMTALN
 70
     0
  0
APPID
  2
ACAD_NAV_VCDISPLAY
 70
     0
  0
APPID
  2
ACAECLAYERSTANDARD
 70
     0
  0
APPID
  2
ACCMTRANSPARENCY
 70
     0
  0
APPID
  2
DCO15
 70
     0
  0
APPID
  2
ACDBATTR
 70
     0
  0
ENDTAB
  0
TABLE
  2
DIMSTYLE
 70
     1
  0
DIMSTYLE
  2
STANDARD
 70
     0
  3

  4

  5

  6

  7

 40
1.0
 41
0.1875
 42
0.0625
 43
0.38
 44
0.125
 45
0.0
 46
0.0
 47
0.01
 48
0.01
140
0.15625
141
0.09
142
0.0
143
25.3999999999999986
144
1.0
145
0.0
146
1.0
147
0.09
 71
     1
 72
     0
 73
     1
 74
     1
 75
     0
 76
     0
 77
     0
 78
     4
170
     0
171
     2
172
     0
173
     0
174
     0
175
     0
176
     0
177
     0
178
     0
  0
ENDTAB
  0
ENDSEC
  0
SECTION
  2
BLOCKS
  0
BLOCK
  8
0
  2
$MODEL_SPACE
 70
     0
 10
0.0
 20
0.0
 30
0.0
  3
$MODEL_SPACE
  1

  0
ENDBLK
  5
21
  8
0
  0
BLOCK
 67
     1
  8
0
  2
$PAPER_SPACE
 70
     0
 10
0.0
 20
0.0
 30
0.0
  3
$PAPER_SPACE
  1

  0
ENDBLK
  5
1D
 67
     1
  8
0
  0
BLOCK
  8
0
  2
_FILLED
 70
     0
 10
0.0
 20
0.0
 30
0.0
  3
_FILLED
  1

  0
SOLID
  5
87E2
  8
0
  6
BYBLOCK
 62
     0
 10
0.0
 20
0.0
 30
0.0
 11
-1.0
 21
0.1666666667
 31
0.0
 12
-1.0
 22
-0.1666666667
 32
0.0
 13
-1.0
 23
-0.1666666667
 33
0.0
  0
ENDBLK
  5
87E3
  8
0
  6
BYBLOCK
 62
     0
  0
ENDSEC
  0
SECTION
  2
ENTITIES
  0
ATTDEF
  5
D4EE
  8
DEFPOINTS
 10
396.153336735231278
 20
67.5118887576216338
 30
0.0
 40
0.001
  1
K-14428W-4
  3

  2
MODELNUMBER
 70
     0
1001
ACDBATTR
1070
     0
1070
     1
  0
ATTDEF
  5
D4EF
  8
DEFPOINTS
 10
396.153336735231278
 20
67.5102220909549686
 30
0.0
 40
0.001
  1
PURIST
  3

  2
TRADENAME
 70
     0
1001
ACDBATTR
1070
     0
1070
     1
  0
ATTDEF
  5
D4F0
  8
DEFPOINTS
 10
396.153336735231278
 20
67.5085554242883035
 30
0.0
 40
0.001
  1
BATHROOM SINK FAUCET
  3

  2
PRODUCT
 70
     0
1001
ACDBATTR
1070
     0
1070
     1
  0
LINE
  5
DA80
  8
0
 10
397.432995992171584
 20
67.5083016328554066
 30
0.0
 11
394.8729973662715906
 21
67.5083016328554066
 31
0.0
  0
LINE
  5
DA81
  8
0
 10
394.8729973662715906
 20
67.5083016328554066
 30
0.0
 11
394.8729973662715906
 21
67.7783016328554027
 31
0.0
  0
LINE
  5
DA82
  8
0
 10
394.8729973662715906
 20
67.7783016328554027
 30
0.0
 11
397.432995992171584
 21
67.7783016328554027
 31
0.0
  0
ARC
  5
DA83
  8
0
 10
396.1529959921716113
 20
78.2533016328554112
 30
0.0
 40
0.6249999999999947
 50
90.0
 51
125.597786610449802
  0
ARC
  5
DA84
  8
0
 10
396.1529959921716113
 20
78.2533016328554112
 30
0.0
 40
0.6250000000000039
 50
125.597786610449802
 51
180.0
  0
LINE
  5
DA85
  8
0
 10
395.5279959921714976
 20
78.2533016328554112
 30
0.0
 11
395.5279959921714976
 21
72.3783016328030726
 31
0.0
  0
ARC
  5
DA86
  8
0
 10
395.3979959922239118
 20
72.3783016328030726
 30
0.0
 40
0.129999999947668
 50
269.9999999769412966
 51
0.0
  0
LINE
  5
DA87
  8
0
 10
397.0154959921716227
 20
72.2483016328554015
 30
0.0
 11
395.2904959921715999
 21
72.2483016328554015
 31
0.0
  0
LINE
  5
DA88
  8
0
 10
395.2904959921715999
 20
72.2483016328554015
 30
0.0
 11
395.2904959921715999
 21
68.1783016328554083
 31
0.0
  0
ARC
  5
DA89
  8
0
 10
394.8904959921716227
 20
68.1783016328554083
 30
0.0
 40
0.3999999999999999
 50
270.0
 51
0.0
  0
ARC
  5
DA8A
  8
0
 10
396.1529959921716113
 20
78.2533016328554112
 30
0.0
 40
0.6249999999999947
 50
54.4022133895501909
 51
90.0
  0
ARC
  5
DA8B
  8
0
 10
396.1529959921714976
 20
78.2533016328554112
 30
0.0
 40
0.6250000000000039
 50
0.0
 51
54.4022133895501909
  0
LINE
  5
DA8C
  8
0
 10
396.7779959921716113
 20
78.2533016328554112
 30
0.0
 11
396.7779959921716113
 21
72.3783016328030726
 31
0.0
  0
ARC
  5
DA8D
  8
0
 10
396.9079959921193108
 20
72.3783016328030726
 30
0.0
 40
0.129999999947668
 50
180.0
 51
270.0000000230555202
  0
LINE
  5
DA8E
  8
0
 10
397.0154959921716227
 20
72.2483016328554015
 30
0.0
 11
397.0154959921716227
 21
68.1783016328554083
 31
0.0
  0
ARC
  5
DA8F
  8
0
 10
397.4154959921715999
 20
68.1783016328554083
 30
0.0
 40
0.3999999999999999
 50
180.0
 51
270.0
  0
LINE
  5
DA90
  8
0
 10
398.8690596907716213
 20
67.5083016328554066
 30
0.0
 11
401.429058984271478
 21
67.5083016328554066
 31
0.0
  0
LINE
  5
DA91
  8
0
 10
401.429058984271478
 20
67.5083016328554066
 30
0.0
 11
401.429058984271478
 21
67.7783016328554027
 31
0.0
  0
LINE
  5
DA92
  8
0
 10
401.429058984271478
 20
67.7783016328554027
 30
0.0
 11
398.8690589842715895
 21
67.7783016328554027
 31
0.0
  0
LINE
  5
DA93
  8
0
 10
398.8690589842715895
 20
67.7783016328554027
 30
0.0
 11
398.8690589842715895
 21
67.5083016328554066
 31
0.0
  0
LINE
  5
DA94
  8
0
 10
402.7770589842716049
 20
72.2703016328554071
 30
0.0
 11
398.8070589842715776
 21
72.2703016328554071
 31
0.0
  0
ARC
  5
DA95
  8
0
 10
398.8070589842715776
 20
72.260301632855402
 30
0.0
 40
0.0099999999999998
 50
90.0
 51
180.0
  0
LINE
  5
DA96
  8
0
 10
398.7970589842715867
 20
72.260301632855402
 30
0.0
 11
398.7970589842715867
 21
71.6803104419554131
 31
0.0
  0
ARC
  5
DA97
  8
0
 10
398.8070677972515909
 20
71.6803104419554131
 30
0.0
 40
0.0100088129800122
 50
179.9999999999992042
 51
269.9495497991716775
  0
LINE
  5
DA98
  8
0
 10
398.8070589842715776
 20
71.6703016328554128
 30
0.0
 11
399.8615591398715878
 21
71.6703016328554128
 31
0.0
  0
ARC
  5
DA99
  8
0
 10
402.777058980139202
 20
72.2603016228790551
 30
0.0
 40
0.0100000099763582
 50
359.9380568740788817
 51
89.9999763234469441
  0
LINE
  5
DA9A
  8
0
 10
402.7870589842715958
 20
72.2602908117554108
 30
0.0
 11
402.7870589842715958
 21
71.6803016328554037
 31
0.0
  0
ARC
  5
DA9B
  8
0
 10
402.7770589842716049
 20
71.6803016328554037
 30
0.0
 40
0.01
 50
270.0
 51
0.0
  0
LINE
  5
DA9C
  8
0
 10
402.7770589842716049
 20
71.6703016328554128
 30
0.0
 11
400.4365612140715029
 21
71.6703016328554128
 31
0.0
  0
ARC
  5
DA9D
  8
0
 10
400.4365612140715029
 20
71.6802986170868337
 30
0.0
 40
0.00999698423142
 50
225.2286238464386088
 51
270.0
  0
LINE
  5
DA9E
  8
0
 10
400.4295205416714794
 20
71.6732015313554029
 30
0.0
 11
400.2973357286053897
 21
71.8033021006324788
 31
0.0
  0
ARC
  5
DA9F
  8
0
 10
400.2490651464642042
 20
71.7361042061860417
 30
0.0
 40
0.0827381781180283
 50
54.3089997596317673
 51
79.7067828182398443
  0
ARC
  5
DAA0
  8
0
 10
400.2328621906555099
 20
71.6468850624006137
 30
0.0
 40
0.1734166838111762
 50
79.7067828182398443
 51
89.9344889562550662
  0
LINE
  5
DAA1
  8
0
 10
400.2330604723715055
 20
71.8203016328557737
 30
0.0
 11
400.0650576620715242
 21
71.8203016328554043
 31
0.0
  0
ARC
  5
DAA2
  8
0
 10
400.064258862536974
 20
71.660273614578017
 30
0.0
 40
0.1600300119180246
 50
89.7140034452724393
 51
102.2981059955017997
  0
ARC
  5
DAA3
  8
0
 10
400.046562477923203
 20
71.741467152938867
 30
0.0
 40
0.0769303568622085
 50
102.3009134803754989
 51
127.1578777607575006
  0
LINE
  5
DAA4
  8
0
 10
400.0000955141869099
 20
71.8027786615492118
 30
0.0
 11
399.8685965853716198
 21
71.6732006950554137
 31
0.0
  0
ARC
  5
DAA5
  8
0
 10
399.8614462318961955
 20
71.680586320223199
 30
0.0
 40
0.0102798353071334
 50
284.7456565176299819
 51
314.0727216648078866
  0
ARC
  5
DAA6
  8
0
 10
399.8613992988138079
 20
71.68076463946025
 30
0.0
 40
0.0104642274558996
 50
270.8752247884078201
 51
284.7456565176299819
  0
LINE
  5
DAA7
  8
0
 10
400.4090589842716099
 20
71.6933403664972531
 30
0.0
 11
400.4090589842716099
 21
70.8503016328554054
 31
0.0
  0
ARC
  5
DAA8
  8
0
 10
400.6890589842715826
 20
70.8503016328554054
 30
0.0
 40
0.2799999999999999
 50
180.0
 51
269.9999955668998837
  0
LINE
  5
DAA9
  8
0
 10
399.3490594261716069
 20
70.5703016328554043
 30
0.0
 11
400.9490585423715743
 21
70.5703016328554043
 31
0.0
  0
LINE
  5
DAAA
  8
0
 10
400.9490585423715743
 20
70.5703016328554043
 30
0.0
 11
400.9490585423715743
 21
70.4803016328554008
 31
0.0
  0
LINE
  5
DAAB
  8
0
 10
400.9490585423715743
 20
70.4803016328554008
 30
0.0
 11
399.3490589842716076
 21
70.4803016328554008
 31
0.0
  0
LINE
  5
DAAC
  8
0
 10
399.3490589842716076
 20
70.4803016328554008
 30
0.0
 11
399.3490589842716076
 21
70.5703016328554043
 31
0.0
  0
LINE
  5
DAAD
  8
0
 10
400.8740589842715281
 20
70.4803016328554008
 30
0.0
 11
400.8738205233715917
 21
70.466640215555401
 31
0.0
  0
LINE
  5
DAAE
  8
0
 10
399.4240589842715963
 20
70.4803016328554008
 30
0.0
 11
399.4242974451715895
 21
70.466640215555401
 31
0.0
  0
LINE
  5
DAAF
  8
0
 10
399.3518148897716173
 20
70.466640215555401
 30
0.0
 11
400.946303078771507
 21
70.466640215555401
 31
0.0
  0
LINE
  5
DAB0
  8
0
 10
400.946303078771507
 20
70.466640215555401
 30
0.0
 11
400.946303078771507
 21
70.425301632855394
 31
0.0
  0
LINE
  5
DAB1
  8
0
 10
400.9490589842715167
 20
70.425301632855394
 30
0.0
 11
399.3490589842716076
 21
70.425301632855394
 31
0.0
  0
LINE
  5
DAB2
  8
0
 10
399.3518148897716173
 20
70.466640215555401
 30
0.0
 11
399.3518148897716173
 21
70.425301632855394
 31
0.0
  0
LINE
  5
DAB3
  8
0
 10
399.3490589842716076
 20
70.425301632855394
 30
0.0
 11
399.3490589842716076
 21
68.1983016328554044
 31
0.0
  0
ARC
  5
DAB4
  8
0
 10
398.9290589842715917
 20
68.1983016328554044
 30
0.0
 40
0.4200000000000001
 50
270.0
 51
0.0
  0
LINE
  5
DAB5
  8
0
 10
400.9490455920715135
 20
70.425301632855394
 30
0.0
 11
400.9490589842715167
 21
68.1983016328554044
 31
0.0
  0
ARC
  5
DAB6
  8
0
 10
401.3690589842714758
 20
68.1983016328554044
 30
0.0
 40
0.42
 50
180.0000000003028902
 51
270.0
  0
LINE
  5
DAB7
  8
0
 10
399.8890589842716281
 20
71.6933641751912063
 30
0.0
 11
399.8890589842716281
 21
70.8503016328554054
 31
0.0
  0
ARC
  5
DAB8
  8
0
 10
399.6090589842715985
 20
70.8503016328554054
 30
0.0
 40
0.2800000000000006
 50
270.0000044331001163
 51
0.0
  0
LINE
  5
DAB9
  8
0
 10
396.7629959921716249
 20
75.2633016328554021
 30
0.0
 11
395.5429959921715977
 21
75.2633016328554021
 31
0.0
  0
LINE
  5
DABA
  8
0
 10
396.7729959921716159
 20
75.273301632855393
 30
0.0
 11
395.5329959921716068
 21
75.273301632855393
 31
0.0
  0
LINE
  5
DABB
  8
0
 10
395.5429959921715977
 20
75.2633016328554021
 30
0.0
 11
395.5329959921716068
 21
75.273301632855393
 31
0.0
  0
LINE
  5
DABC
  8
0
 10
395.5329959921716068
 20
75.273301632855393
 30
0.0
 11
395.5329959921716068
 21
75.8333016328554095
 31
0.0
  0
LINE
  5
DABD
  8
0
 10
395.5280207895715989
 20
75.8333016328554095
 30
0.0
 11
396.7779959921716113
 21
75.8333016328554095
 31
0.0
  0
LINE
  5
DABE
  8
0
 10
396.7729959921716159
 20
75.8333016328554095
 30
0.0
 11
396.7729959921716159
 21
75.273301632855393
 31
0.0
  0
LINE
  5
DABF
  8
0
 10
396.7729959921716159
 20
75.273301632855393
 30
0.0
 11
396.7629959921716249
 21
75.2633016328554021
 31
0.0
  0
LINE
  5
DAC0
  8
0
 10
397.432995992171584
 20
67.7783016328554027
 30
0.0
 11
397.432995992171584
 21
67.5083016328554066
 31
0.0
  0
LINE
  5
DAC1
  8
0
 10
393.4369322935716013
 20
67.5083016328554066
 30
0.0
 11
390.876933000071574
 21
67.5083016328554066
 31
0.0
  0
LINE
  5
DAC2
  8
0
 10
390.876933000071574
 20
67.5083016328554066
 30
0.0
 11
390.876933000071574
 21
67.7783016328554027
 31
0.0
  0
LINE
  5
DAC3
  8
0
 10
390.876933000071574
 20
67.7783016328554027
 30
0.0
 11
393.4369330000715763
 21
67.7783016328554027
 31
0.0
  0
LINE
  5
DAC4
  8
0
 10
393.4369330000715763
 20
67.7783016328554027
 30
0.0
 11
393.4369330000715763
 21
67.5083016328554066
 31
0.0
  0
LINE
  5
DAC5
  8
0
 10
389.5289330000716177
 20
72.2703016328554071
 30
0.0
 11
393.4989330000715881
 21
72.2703016328554071
 31
0.0
  0
ARC
  5
DAC6
  8
0
 10
393.4989330000715881
 20
72.260301632855402
 30
0.0
 40
0.0099999999999998
 50
0.0
 51
90.0
  0
LINE
  5
DAC7
  8
0
 10
393.508933000071579
 20
72.260301632855402
 30
0.0
 11
393.508933000071579
 21
71.6803104419554131
 31
0.0
  0
ARC
  5
DAC8
  8
0
 10
393.4989241870915748
 20
71.6803104419554131
 30
0.0
 40
0.0100088129800122
 50
270.0504502008283225
 51
0.0000000000008142
  0
LINE
  5
DAC9
  8
0
 10
393.4989330000715881
 20
71.6703016328554128
 30
0.0
 11
392.4444328444715779
 21
71.6703016328554128
 31
0.0
  0
ARC
  5
DACA
  8
0
 10
389.5289330042039069
 20
72.2603016228790551
 30
0.0
 40
0.0100000099763582
 50
90.0000236765530559
 51
180.0619431259210899
  0
LINE
  5
DACB
  8
0
 10
389.5189330000716268
 20
72.2602908117554108
 30
0.0
 11
389.5189330000716268
 21
71.6803016328554037
 31
0.0
  0
ARC
  5
DACC
  8
0
 10
389.5289330000716177
 20
71.6803016328554037
 30
0.0
 40
0.01
 50
180.0
 51
270.0
  0
LINE
  5
DACD
  8
0
 10
389.5289330000716177
 20
71.6703016328554128
 30
0.0
 11
391.869430770271606
 21
71.6703016328554128
 31
0.0
  0
ARC
  5
DACE
  8
0
 10
391.869430770271606
 20
71.6802986170868337
 30
0.0
 40
0.00999698423142
 50
270.0
 51
314.7713761535612775
  0
LINE
  5
DACF
  8
0
 10
391.8764714426715727
 20
71.6732015313554029
 30
0.0
 11
392.0086562557377192
 21
71.8033021006324788
 31
0.0
  0
ARC
  5
DAD0
  8
0
 10
392.0569268378790184
 20
71.7361042061860417
 30
0.0
 40
0.0827381781180283
 50
100.2932171817600988
 51
125.6910002403681972
  0
ARC
  5
DAD1
  8
0
 10
392.073129793687599
 20
71.6468850624006137
 30
0.0
 40
0.1734166838111762
 50
90.0655110437449338
 51
100.2932171817600988
  0
LINE
  5
DAD2
  8
0
 10
392.0729315119716034
 20
71.8203016328557737
 30
0.0
 11
392.2409343222715847
 21
71.8203016328554043
 31
0.0
  0
ARC
  5
DAD3
  8
0
 10
392.2417331218060781
 20
71.660273614578017
 30
0.0
 40
0.1600300119180246
 50
77.7018940044981434
 51
90.2859965547275465
  0
ARC
  5
DAD4
  8
0
 10
392.2594295064199059
 20
71.741467152938867
 30
0.0
 40
0.0769303568622085
 50
52.8421222392424497
 51
77.6990865196244442
  0
LINE
  5
DAD5
  8
0
 10
392.305896470156199
 20
71.8027786615492118
 30
0.0
 11
392.4373953989716028
 21
71.6732006950554137
 31
0.0
  0
ARC
  5
DAD6
  8
0
 10
392.4445457524470271
 20
71.680586320223199
 30
0.0
 40
0.0102798353071334
 50
225.9272783351921134
 51
255.2543434823699897
  0
ARC
  5
DAD7
  8
0
 10
392.4445926855294147
 20
71.68076463946025
 30
0.0
 40
0.0104642274558996
 50
255.2543434823699897
 51
269.1247752115921799
  0
LINE
  5
DAD8
  8
0
 10
391.8969330000716127
 20
71.6933403664972531
 30
0.0
 11
391.8969330000716127
 21
70.8503016328554054
 31
0.0
  0
ARC
  5
DAD9
  8
0
 10
391.6169330000715831
 20
70.8503016328554054
 30
0.0
 40
0.2799999999999999
 50
270.0000044331001163
 51
0.0
  0
LINE
  5
DADA
  8
0
 10
392.9569325581716157
 20
70.5703016328554043
 30
0.0
 11
391.3569334419715915
 21
70.5703016328554043
 31
0.0
  0
LINE
  5
DADB
  8
0
 10
391.3569334419715915
 20
70.5703016328554043
 30
0.0
 11
391.3569334419715915
 21
70.4803016328554008
 31
0.0
  0
LINE
  5
DADC
  8
0
 10
391.3569334419715915
 20
70.4803016328554008
 30
0.0
 11
392.956933000071615
 21
70.4803016328554008
 31
0.0
  0
LINE
  5
DADD
  8
0
 10
392.956933000071615
 20
70.4803016328554008
 30
0.0
 11
392.956933000071615
 21
70.5703016328554043
 31
0.0
  0
LINE
  5
DADE
  8
0
 10
391.4319330000715809
 20
70.4803016328554008
 30
0.0
 11
391.4321714609715741
 21
70.466640215555401
 31
0.0
  0
LINE
  5
DADF
  8
0
 10
392.8819330000716263
 20
70.4803016328554008
 30
0.0
 11
392.8816945391715763
 21
70.466640215555401
 31
0.0
  0
LINE
  5
DAE0
  8
0
 10
392.9541770945716053
 20
70.466640215555401
 30
0.0
 11
391.3596889055716019
 21
70.466640215555401
 31
0.0
  0
LINE
  5
DAE1
  8
0
 10
391.3596889055716019
 20
70.466640215555401
 30
0.0
 11
391.3596889055716019
 21
70.425301632855394
 31
0.0
  0
LINE
  5
DAE2
  8
0
 10
391.3569330000715922
 20
70.425301632855394
 30
0.0
 11
392.956933000071615
 21
70.425301632855394
 31
0.0
  0
LINE
  5
DAE3
  8
0
 10
392.9541770945716053
 20
70.466640215555401
 30
0.0
 11
392.9541770945716053
 21
70.425301632855394
 31
0.0
  0
LINE
  5
DAE4
  8
0
 10
392.956933000071615
 20
70.425301632855394
 30
0.0
 11
392.956933000071615
 21
68.1983016328554044
 31
0.0
  0
ARC
  5
DAE5
  8
0
 10
393.376933000071574
 20
68.1983016328554044
 30
0.0
 40
0.4200000000000001
 50
180.0
 51
270.0
  0
LINE
  5
DAE6
  8
0
 10
391.3569463922715954
 20
70.425301632855394
 30
0.0
 11
391.3569330000715922
 21
68.1983016328554044
 31
0.0
  0
ARC
  5
DAE7
  8
0
 10
390.9369330000715763
 20
68.1983016328554044
 30
0.0
 40
0.42
 50
270.0
 51
359.9999999996970814
  0
LINE
  5
DAE8
  8
0
 10
392.4169330000715945
 20
71.6933641751912063
 30
0.0
 11
392.4169330000715945
 21
70.8503016328554054
 31
0.0
  0
ARC
  5
DAE9
  8
0
 10
392.6969330000716241
 20
70.8503016328554054
 30
0.0
 40
0.2800000000000006
 50
180.0
 51
269.9999955668998837
  0
ENDSEC
  0
EOF
