  0
SECTION
  2
HEADER
  9
$ACADVER
  1
AC1009
  9
$INSBASE
 10
4439.4037532006232141
 20
242.9820428161831103
 30
0.0
  9
$EXTMIN
 10
4438.2837532006233232
 20
242.9768916857260024
 30
0.0
  9
$EXTMAX
 10
4440.5237532006231049
 20
250.7709575927092942
 30
0.0
  9
$LIMMIN
 10
0.0
 20
0.0
  9
$LIMMAX
 10
11.6929133858000007
 20
8.2677165353999982
  9
$ORTHOMODE
 70
     1
  9
$REGENMODE
 70
     1
  9
$FILLMODE
 70
     1
  9
$QTEXTMODE
 70
     0
  9
$MIRRTEXT
 70
     0
  9
$DRAGMODE
 70
     2
  9
$LTSCALE
 40
0.6431102362
  9
$OSMODE
 70
  4095
  9
$ATTMODE
 70
     1
  9
$TEXTSIZE
 40
0.2
  9
$TRACEWID
 40
0.05
  9
$TEXTSTYLE
  7
STANDARD
  9
$CLAYER
  8
0
  9
$CELTYPE
  6
BYLAYER
  9
$CECOLOR
 62
   256
  9
$DIMSCALE
 40
1.0
  9
$DIMASZ
 40
0.1875
  9
$DIMEXO
 40
0.0625
  9
$DIMDLI
 40
0.4443307087
  9
$DIMRND
 40
0.0
  9
$DIMDLE
 40
0.0
  9
$DIMEXE
 40
0.125
  9
$DIMTP
 40
0.01
  9
$DIMTM
 40
0.01
  9
$DIMTXT
 40
2.0
  9
$DIMCEN
 40
0.1052362205
  9
$DIMTSZ
 40
0.0
  9
$DIMTOL
 70
     1
  9
$DIMLIM
 70
     0
  9
$DIMTIH
 70
     1
  9
$DIMTOH
 70
     1
  9
$DIMSE1
 70
     0
  9
$DIMSE2
 70
     0
  9
$DIMTAD
 70
     0
  9
$DIMZIN
 70
     0
  9
$DIMBLK
  1

  9
$DIMASO
 70
     1
  9
$DIMSHO
 70
     1
  9
$DIMPOST
  1
\X
  9
$DIMAPOST
  1

  9
$DIMALT
 70
     1
  9
$DIMALTD
 70
     2
  9
$DIMALTF
 40
25.3999999999999986
  9
$DIMLFAC
 40
1.0
  9
$DIMTOFL
 70
     0
  9
$DIMTVP
 40
0.0
  9
$DIMTIX
 70
     0
  9
$DIMSOXD
 70
     0
  9
$DIMSAH
 70
     0
  9
$DIMBLK1
  1

  9
$DIMBLK2
  1

  9
$DIMSTYLE
  2
STANDARD
  9
$DIMCLRD
 70
     0
  9
$DIMCLRE
 70
     0
  9
$DIMCLRT
 70
     0
  9
$DIMTFAC
 40
1.0
  9
$DIMGAP
 40
0.09
  9
$LUNITS
 70
     2
  9
$LUPREC
 70
     4
  9
$SKETCHINC
 40
0.1
  9
$FILLETRAD
 40
0.0
  9
$AUNITS
 70
     0
  9
$AUPREC
 70
     0
  9
$MENU
  1
.
  9
$ELEVATION
 40
0.0
  9
$PELEVATION
 40
0.0
  9
$THICKNESS
 40
0.0
  9
$LIMCHECK
 70
     0
  9
$BLIPMODE
 70
     0
  9
$CHAMFERA
 40
0.0
  9
$CHAMFERB
 40
0.0
  9
$SKPOLY
 70
     0
  9
$TDCREATE
 40
2458060.468368056230247
  9
$TDUPDATE
 40
2459032.7671527778729796
  9
$TDINDWG
 40
0.3083403935
  9
$TDUSRTIMER
 40
0.3083403935
  9
$USRTIMER
 70
     1
  9
$ANGBASE
 50
0.0
  9
$ANGDIR
 70
     0
  9
$PDMODE
 70
     0
  9
$PDSIZE
 40
0.3125
  9
$PLINEWID
 40
0.0
  9
$COORDS
 70
     1
  9
$SPLFRAME
 70
     0
  9
$SPLINETYPE
 70
     6
  9
$SPLINESEGS
 70
     8
  9
$ATTDIA
 70
     1
  9
$ATTREQ
 70
     1
  9
$HANDLING
 70
     1
  9
$HANDSEED
  5
7DE2
  9
$SURFTAB1
 70
     6
  9
$SURFTAB2
 70
     6
  9
$SURFTYPE
 70
     6
  9
$SURFU
 70
     6
  9
$SURFV
 70
     6
  9
$UCSNAME
  2

  9
$UCSORG
 10
0.0
 20
0.0
 30
0.0
  9
$UCSXDIR
 10
1.0
 20
0.0
 30
0.0
  9
$UCSYDIR
 10
0.0
 20
1.0
 30
0.0
  9
$PUCSNAME
  2

  9
$PUCSORG
 10
0.0
 20
0.0
 30
0.0
  9
$PUCSXDIR
 10
1.0
 20
0.0
 30
0.0
  9
$PUCSYDIR
 10
0.0
 20
1.0
 30
0.0
  9
$USERI1
 70
     0
  9
$USERI2
 70
     0
  9
$USERI3
 70
     0
  9
$USERI4
 70
     0
  9
$USERI5
 70
     0
  9
$USERR1
 40
0.0
  9
$USERR2
 40
0.0
  9
$USERR3
 40
0.0
  9
$USERR4
 40
0.0
  9
$USERR5
 40
0.0
  9
$WORLDVIEW
 70
     1
  9
$SHADEDGE
 70
     3
  9
$SHADEDIF
 70
    70
  9
$TILEMODE
 70
     1
  9
$MAXACTVP
 70
    64
  9
$PLIMCHECK
 70
     0
  9
$PEXTMIN
 10
1.0000000000000000E+20
 20
1.0000000000000000E+20
 30
1.0000000000000000E+20
  9
$PEXTMAX
 10
-1.0000000000000000E+20
 20
-1.0000000000000000E+20
 30
-1.0000000000000000E+20
  9
$PLIMMIN
 10
0.0
 20
0.0
  9
$PLIMMAX
 10
12.0
 20
9.0
  9
$UNITMODE
 70
     0
  9
$VISRETAIN
 70
     1
  9
$PLINEGEN
 70
     0
  9
$PSLTSCALE
 70
     1
  0
ENDSEC
  0
SECTION
  2
TABLES
  0
TABLE
  2
VPORT
 70
     1
  0
VPORT
  2
*ACTIVE
 70
     0
 10
0.0
 20
0.0
 11
1.0
 21
1.0
 12
0.0
 22
0.0
 13
0.0
 23
0.0
 14
1.0
 24
1.0
 15
0.0
 25
0.0
 16
0.0
 26
0.0
 36
23.2328628023498389
 17
4439.40380859375
 27
246.8739210015544074
 37
0.0
 40
8.1097259388142007
 41
2.1481900452488678
 42
50.0
 43
0.0
 44
0.0
 50
0.0
 51
0.0
 71
     0
 72
   100
 73
     1
 74
     1
 75
     0
 76
     0
 77
     0
 78
     0
  0
ENDTAB
  0
TABLE
  2
LTYPE
 70
     2
  0
LTYPE
  2
CONTINUOUS
 70
     0
  3
Solid line
 72
    65
 73
     0
 40
0.0
  0
LTYPE
  2
PHANTOM2
 70
     0
  3
___ _ _ ___ _ _ ___ _ _ ___ _ _
 72
    65
 73
     6
 40
1.25
 49
0.625
 49
-0.125
 49
0.125
 49
-0.125
 49
0.125
 49
-0.125
  0
ENDTAB
  0
TABLE
  2
LAYER
 70
     2
  0
LAYER
  2
0
 70
     0
 62
   255
  6
CONTINUOUS
  0
LAYER
  2
DEFPOINTS
 70
     0
 62
     7
  6
CONTINUOUS
  0
ENDTAB
  0
TABLE
  2
STYLE
 70
     1
  0
STYLE
  2
STANDARD
 70
     0
 40
0.0
 41
0.8
 50
0.0
 71
     0
 42
0.2
  3
txt
  4

  0
ENDTAB
  0
TABLE
  2
VIEW
 70
     0
  0
ENDTAB
  0
TABLE
  2
UCS
 70
     0
  0
ENDTAB
  0
TABLE
  2
APPID
 70
     9
  0
APPID
  2
ACAD
 70
     0
  0
APPID
  2
ACAD_MLEADERVER
 70
     0
  0
APPID
  2
ACAD_EXEMPT_FROM_CAD_STANDARDS
 70
     0
  0
APPID
  2
ACAD_NAV_VCDISPLAY
 70
     0
  0
APPID
  2
ACAECLAYERSTANDARD
 70
     0
  0
APPID
  2
ACCMTRANSPARENCY
 70
     0
  0
APPID
  2
ACAD_DSTYLE_DIMJAG
 70
     0
  0
APPID
  2
ACAD_DSTYLE_DIMTALN
 70
     0
  0
APPID
  2
ACDBATTR
 70
     0
  0
ENDTAB
  0
TABLE
  2
DIMSTYLE
 70
     1
  0
DIMSTYLE
  2
STANDARD
 70
     0
  3

  4

  5

  6

  7

 40
1.0
 41
0.1875
 42
0.0625
 43
0.38
 44
0.125
 45
0.0
 46
0.0
 47
0.01
 48
0.01
140
0.15625
141
0.09
142
0.0
143
25.3999999999999986
144
1.0
145
0.0
146
1.0
147
0.09
 71
     1
 72
     0
 73
     1
 74
     1
 75
     0
 76
     0
 77
     0
 78
     4
170
     0
171
     2
172
     0
173
     0
174
     0
175
     0
176
     0
177
     0
178
     0
  0
ENDTAB
  0
ENDSEC
  0
SECTION
  2
BLOCKS
  0
BLOCK
  8
0
  2
$MODEL_SPACE
 70
     0
 10
0.0
 20
0.0
 30
0.0
  3
$MODEL_SPACE
  1

  0
ENDBLK
  5
21
  8
0
  0
BLOCK
 67
     1
  8
0
  2
$PAPER_SPACE
 70
     0
 10
0.0
 20
0.0
 30
0.0
  3
$PAPER_SPACE
  1

  0
ENDBLK
  5
1D
 67
     1
  8
0
  0
ENDSEC
  0
SECTION
  2
ENTITIES
  0
ATTDEF
  5
3930
  8
DEFPOINTS
 10
4439.3986629494020235
 20
242.9802250190593895
 30
0.0
 40
0.001
  1
K-14434W-4A
  3

  2
MODELNUMBER
 70
     0
1001
ACDBATTR
1070
     0
1070
     1
  0
ATTDEF
  5
3931
  8
DEFPOINTS
 10
4439.3986629494020235
 20
242.978558352392696
 30
0.0
 40
0.001
  1
PURIST
  3

  2
TRADENAME
 70
     0
1001
ACDBATTR
1070
     0
1070
     1
  0
ATTDEF
  5
3932
  8
DEFPOINTS
 10
4439.3986629494020235
 20
242.9768916857260024
 30
0.0
 40
0.001
  1
BIDET FAUCET
  3

  2
PRODUCT
 70
     0
1001
ACDBATTR
1070
     0
1070
     1
  0
ARC
  5
787C
  8
0
 10
4439.4037560206234048
 20
250.5509575927256094
 30
0.0
 40
0.220000000001817
 50
90.000734428138415
 51
269.9992655718615993
  0
ARC
  5
787D
  8
0
 10
4447.0178702353941844
 20
250.550510057383093
 30
0.0
 40
7.3941198548239457
 50
179.9886295212203038
 51
180.0113704787796109
  0
ARC
  5
787E
  8
0
 10
4439.4037558750733297
 20
250.5509576010256012
 30
0.0
 40
0.1788854381999978
 50
90.0008566087021507
 51
269.9991433912978209
  0
LINE
  5
787F
  8
0
 10
4438.3137623501233975
 20
242.9820428161831103
 30
0.0
 11
4440.4937440511230307
 21
242.9820428161831103
 31
0.0
  0
LINE
  5
7880
  8
0
 10
4438.3137532006230686
 20
243.1520428161830978
 30
0.0
 11
4440.4937532006233596
 21
243.1520428161830978
 31
0.0
  0
LINE
  5
7881
  8
0
 10
4438.4937532006233596
 20
243.3620428161831057
 30
0.0
 11
4440.3137532006230686
 21
243.3620428161831057
 31
0.0
  0
LINE
  5
7882
  8
0
 10
4438.2837532006233232
 20
243.1220428161830966
 30
0.0
 11
4438.2837532006233232
 21
243.0120428161831114
 31
0.0
  0
LINE
  5
7883
  8
0
 10
4439.0855649701234142
 20
245.6684670731831091
 30
0.0
 11
4439.1063582612232494
 21
245.6684670731831091
 31
0.0
  0
LINE
  5
7884
  8
0
 10
4439.0726187868231136
 20
245.7608167958831018
 30
0.0
 11
4439.0937532006219044
 21
245.7608167958831018
 31
0.0
  0
LINE
  5
7885
  8
0
 10
4439.0855649701234142
 20
245.8236939689830933
 30
0.0
 11
4439.1063582612232494
 21
245.8236939689830933
 31
0.0
  0
LINE
  5
7886
  8
0
 10
4438.4937532006233596
 20
248.4370428161830944
 30
0.0
 11
4438.4937532006233596
 21
243.3320428161831046
 31
0.0
  0
LINE
  5
7887
  8
0
 10
4438.5203545239219238
 20
249.2816216700830978
 30
0.0
 11
4438.4937532006233596
 21
248.5285534889831069
 31
0.0
  0
LINE
  5
7888
  8
0
 10
4439.1168883018217457
 20
245.8907708033831057
 30
0.0
 11
4439.1315913789230763
 21
245.8777290146830978
 31
0.0
  0
LINE
  5
7889
  8
0
 10
4439.255335065622603
 20
245.9874910053831059
 30
0.0
 11
4439.2406319885230914
 21
246.0005327939830977
 31
0.0
  0
LINE
  5
788A
  8
0
 10
4438.6887531977827166
 20
248.5055065216830883
 30
0.0
 11
4438.6887532006230686
 21
248.4870428161831057
 31
0.0
  0
LINE
  5
788B
  8
0
 10
4439.1315913789230763
 20
245.8777290146830978
 30
0.0
 11
4439.1314743308530524
 21
245.925468865473988
 31
0.0
  0
LINE
  5
788C
  8
0
 10
4438.9662532006232141
 20
245.9129281105830955
 30
0.0
 11
4438.9662532006232141
 21
246.1290264615830949
 31
0.0
  0
LINE
  5
788D
  8
0
 10
4438.9977537611230218
 20
246.2929472191671891
 30
0.0
 11
4438.997753200623265
 21
246.3206521360831118
 31
0.0
  0
LINE
  5
788E
  8
0
 10
4438.9987532006216497
 20
246.5870428161831001
 30
0.0
 11
4438.9987532006216497
 21
246.3459033479225866
 31
0.0
  0
LINE
  5
788F
  8
0
 10
4439.0027689486232703
 20
245.8804929973831008
 30
0.0
 11
4439.0026635199219527
 21
245.7579350110831058
 31
0.0
  0
LINE
  5
7890
  8
0
 10
4439.0726187868231136
 20
245.7608167958831018
 30
0.0
 11
4439.0726187868231136
 21
245.7146419344830974
 31
0.0
  0
LINE
  5
7891
  8
0
 10
4439.0937532006219044
 20
245.8236939689830933
 30
0.0
 11
4439.0937532006219044
 21
245.746080521083087
 31
0.0
  0
LINE
  5
7892
  8
0
 10
4439.1829084222417805
 20
249.8658562465755892
 30
0.0
 11
4439.178979742521733
 21
249.6407700592831134
 31
0.0
  0
LINE
  5
7893
  8
0
 10
4439.1146120767270986
 20
245.9042603200053918
 30
0.0
 11
4439.1168883018217457
 21
245.8907708033831057
 31
0.0
  0
LINE
  5
7894
  8
0
 10
4439.2406319885230914
 20
246.0005327939830977
 30
0.0
 11
4439.2395505127233264
 21
246.0069406910830878
 31
0.0
  0
LINE
  5
7895
  8
0
 10
4439.1837560206213311
 20
249.9055075465830953
 30
0.0
 11
4439.1837560206213311
 21
250.5509575927256094
 31
0.0
  0
LINE
  5
7896
  8
0
 10
4439.3162532006217589
 20
246.0338358102648044
 30
0.0
 11
4439.3162532006217589
 21
246.0098730540831014
 31
0.0
  0
LINE
  5
7897
  8
0
 10
4439.3162532006217589
 20
245.4638441136831091
 30
0.0
 11
4439.3162532006217589
 21
245.482287988083101
 31
0.0
  0
LINE
  5
7898
  8
0
 10
4439.1315913789230763
 20
245.6144320274831045
 30
0.0
 11
4439.1168883018217457
 21
245.6013902388831127
 31
0.0
  0
LINE
  5
7899
  8
0
 10
4439.2406319885230914
 20
245.4916282481831047
 30
0.0
 11
4439.255335065622603
 21
245.5046700368831125
 31
0.0
  0
LINE
  5
789A
  8
0
 10
4440.3137532006230686
 20
248.4370428161830944
 30
0.0
 11
4438.4937532006233596
 21
248.4370428161830944
 31
0.0
  0
ARC
  5
789B
  8
0
 10
4438.2991101523057296
 20
243.3466858645003867
 30
0.0
 40
0.1951930713992256
 50
274.3022725812875251
 51
355.6977274187116791
  0
ARC
  5
789C
  8
0
 10
4438.3137532006230686
 20
243.1220428161830966
 30
0.0
 40
0.03
 50
90.0
 51
180.0
  0
ARC
  5
789D
  8
0
 10
4438.3159267950477442
 20
243.0142170721236141
 30
0.0
 40
0.0322469776438476
 50
183.8661072003305037
 51
266.1513643931054958
  0
ARC
  5
789E
  8
0
 10
4439.3355918687220765
 20
245.8391789702830863
 30
0.0
 40
0.2744002044000848
 50
189.0740173502468053
 51
196.5932953712978986
  0
ARC
  5
789F
  8
0
 10
4439.3174518138230269
 20
246.2929474405831058
 30
0.0
 40
0.3196980527
 50
180.0000396817995068
 51
181.9378563588003885
  0
ARC
  5
78A0
  8
0
 10
4438.829363397429006
 20
249.6467626971507912
 30
0.0
 40
0.3496677000599957
 50
285.9608527730613901
 51
359.0180114775490097
  0
ARC
  5
78A1
  8
0
 10
4438.6177134257686703
 20
248.4930216014248003
 30
0.0
 40
0.0712909214713014
 50
308.2593230301213794
 51
355.1892613795732245
  0
ARC
  5
78A2
  8
0
 10
4438.5536828380500083
 20
249.2770991613253955
 30
0.0
 40
0.0336337569710444
 50
95.5586672846987142
 51
172.2724088968753904
  0
ARC
  5
78A3
  8
0
 10
4439.2037868673260164
 20
249.9055187999281031
 30
0.0
 40
0.0200308498675396
 50
180.032188931293291
 51
267.4884530458933796
  0
ARC
  5
78A4
  8
0
 10
4439.2029053766236757
 20
249.8655071912251913
 30
0.0
 40
0.0200000006046397
 50
89.9893306673342295
 51
178.9999793385543967
  0
ARC
  5
78A5
  8
0
 10
4439.4037532006232141
 20
246.5870428161831001
 30
0.0
 40
0.4050000000000001
 50
90.0
 51
180.0
  0
LINE
  5
78A6
  8
0
 10
4439.2349332148069152
 20
245.5153048750565006
 30
0.0
 11
4439.2406319885230914
 21
245.4916282481831047
 31
0.0
  0
LINE
  5
78A7
  8
0
 10
4439.0726187868231136
 20
245.7146419344830974
 30
0.0
 11
4439.0855649701234142
 21
245.6684670731831091
 31
0.0
  0
LINE
  5
78A8
  8
0
 10
4439.0855649701234142
 20
245.8236939689830933
 30
0.0
 11
4439.0799024134230422
 21
245.8438762311830885
 31
0.0
  0
ARC
  5
78A9
  8
0
 10
4438.5184231979819742
 20
248.5298217574533055
 30
0.0
 40
0.0247025762753138
 50
182.9429478118007069
 51
259.8402718928771264
  0
ARC
  5
78AA
  8
0
 10
4439.3179595571036771
 20
246.3206167117714074
 30
0.0
 40
0.3202063584412318
 50
175.4706469962891049
 51
179.9936613889670127
  0
ARC
  5
78AB
  8
0
 10
4439.3400742123121745
 20
246.3150726363961951
 30
0.0
 40
0.3427106152337395
 50
133.9646970816772011
 51
174.8386160882274964
  0
ARC
  5
78AC
  8
0
 10
4439.4287880166748437
 20
246.1757600949489984
 30
0.0
 40
0.5056385725814043
 50
92.8379480161416666
 51
130.2386363301706922
  0
ARC
  5
78AD
  8
0
 10
4439.3654263546650327
 20
246.1240713794728094
 30
0.0
 40
0.4000416984887315
 50
143.6286227844823031
 51
156.7264126351880975
  0
ARC
  5
78AE
  8
0
 10
4439.395327315914983
 20
246.0971834169453132
 30
0.0
 40
0.4400801116865785
 50
100.2738935148931034
 51
143.1184961834916862
  0
ARC
  5
78AF
  8
0
 10
4439.4438761237761355
 20
245.6405307961323956
 30
0.0
 40
0.8987009682964918
 50
92.5588472896440777
 51
98.1264508297589231
  0
ARC
  5
78B0
  8
0
 10
4439.3534450468287105
 20
246.1287373575933088
 30
0.0
 40
0.3871919541389539
 50
156.6601514465687046
 51
179.9572190490586934
  0
ARC
  5
78B1
  8
0
 10
4439.4768893508253313
 20
245.9511113533984883
 30
0.0
 40
0.5120617520627229
 50
184.2763810594674965
 51
202.1635714321444084
  0
ARC
  5
78B2
  8
0
 10
4439.4266349723729945
 20
245.9946978892245966
 30
0.0
 40
0.6042954477378292
 50
255.3133199919984975
 51
267.8299647254427782
  0
ARC
  5
78B3
  8
0
 10
4439.3891695477523172
 20
245.7992540371224095
 30
0.0
 40
0.4059569233392915
 50
224.4763606882341946
 51
253.4344175261468877
  0
ARC
  5
78B4
  8
0
 10
4439.3362102593127929
 20
245.7499366217685122
 30
0.0
 40
0.3336213490621171
 50
183.8242308220904988
 51
224.8050949942197008
  0
ARC
  5
78B5
  8
0
 10
4439.5973790185917096
 20
245.7559408085315908
 30
0.0
 40
0.5947188421443639
 50
179.8078762673785889
 51
182.7231728075273054
  0
ARC
  5
78B6
  8
0
 10
4439.748853599562608
 20
245.854122910081287
 30
0.0
 40
0.7465505260017788
 50
167.8226483417400061
 51
177.975744416094301
  0
ARC
  5
78B7
  8
0
 10
4439.3643222588161734
 20
245.890481473999813
 30
0.0
 40
0.3658513836742401
 50
117.6613122673458065
 51
160.6670626241109119
  0
ARC
  5
78B8
  8
0
 10
4439.4130072413281596
 20
245.784785094554195
 30
0.0
 40
0.4821058507485179
 50
91.0998622815792629
 51
116.9543725952311064
  0
ARC
  5
78B9
  8
0
 10
4439.3205713097895568
 20
245.9115702995077015
 30
0.0
 40
0.3543207108465569
 50
149.9252240566258934
 51
179.7804332853675078
  0
ARC
  5
78BA
  8
0
 10
4439.3692216536073829
 20
245.8805438040641036
 30
0.0
 40
0.4119770644426747
 50
116.1220780568496025
 51
149.581799988891504
  0
ARC
  5
78BB
  8
0
 10
4439.4189144232013859
 20
245.7498694535244965
 30
0.0
 40
0.5513343962855182
 50
91.5757833928147846
 51
114.7796019010777968
  0
ARC
  5
78BC
  8
0
 10
4439.3356485234353386
 20
245.7421789492065898
 30
0.0
 40
0.3333575648609892
 50
145.2564336636934001
 51
177.2909200199214865
  0
ARC
  5
78BD
  8
0
 10
4439.3789649839000049
 20
245.7087781282527885
 30
0.0
 40
0.3879962659367289
 50
112.9657173180456056
 51
144.8489212604233956
  0
ARC
  5
78BE
  8
0
 10
4439.421325555016665
 20
245.5694446728547007
 30
0.0
 40
0.533035615169171
 50
91.8891874605718755
 51
111.3142165261862999
  0
ARC
  5
78BF
  8
0
 10
4439.4081927728911978
 20
245.839014754373494
 30
0.0
 40
0.4080530602332721
 50
248.2800787686230137
 51
269.3766159422826263
  0
ARC
  5
78C0
  8
0
 10
4439.3735336031186307
 20
245.7572642710302944
 30
0.0
 40
0.3192861511103926
 50
198.2431984612701967
 51
248.6291323390325942
  0
ARC
  5
78C1
  8
0
 10
4439.3312976669058116
 20
245.7374018357778027
 30
0.0
 40
0.273013498477162
 50
157.0456986536923978
 51
197.0590450733770069
  0
ARC
  5
78C2
  8
0
 10
4439.3755627069913317
 20
245.7140941985246059
 30
0.0
 40
0.3228906706506267
 50
114.9124541617646003
 51
156.3006113119500071
  0
ARC
  5
78C3
  8
0
 10
4439.402994880550068
 20
245.6636331419099122
 30
0.0
 40
0.3802290555620166
 50
89.8857305408840119
 51
115.4585265179316025
  0
ARC
  5
78C4
  8
0
 10
4439.4036095947512877
 20
245.6742042677173004
 30
0.0
 40
0.3468496413943543
 50
89.9762778748510215
 51
104.5874073271114071
  0
ARC
  5
78C5
  8
0
 10
4439.3999180871496719
 20
245.6838000584629924
 30
0.0
 40
0.3545302342060101
 50
103.6498700735672998
 51
116.6979972460808028
  0
ARC
  5
78C6
  8
0
 10
4439.3814360756232418
 20
245.7206928087803135
 30
0.0
 40
0.2950978523025332
 50
115.2975565881013011
 51
147.8491895584778888
  0
ARC
  5
78C7
  8
0
 10
4439.3493718571098725
 20
245.7413543018789994
 30
0.0
 40
0.2763582718153448
 50
147.2712634849333142
 51
162.6657610989051079
  0
ARC
  5
78C8
  8
0
 10
4439.3390176264856564
 20
245.7460805210835133
 30
0.0
 40
0.2452635878803695
 50
161.551681639466409
 51
198.4483183607123067
  0
ARC
  5
78C9
  8
0
 10
4439.3485326000500208
 20
245.7504148268552058
 30
0.0
 40
0.2754403905046705
 50
197.3084323062365115
 51
212.7545431754234926
  0
ARC
  5
78CA
  8
0
 10
4439.3814353628404206
 20
245.7714674300495119
 30
0.0
 40
0.295096821329973
 50
212.1507520310445898
 51
244.7025018738814026
  0
ARC
  5
78CB
  8
0
 10
4439.3999178690282861
 20
245.8083603900292076
 30
0.0
 40
0.354529605825399
 50
243.3019911401856916
 51
256.3501415401141799
  0
ARC
  5
78CC
  8
0
 10
4439.4035886440988179
 20
245.8177928167768869
 30
0.0
 40
0.3466856930477558
 50
255.4091189982885055
 51
270.0271957997676964
  0
ARC
  5
78CD
  8
0
 10
4439.4122726730520299
 20
245.6106691314971897
 30
0.0
 40
0.3794350248951845
 50
91.2865729450193157
 51
102.4917540806970067
  0
ARC
  5
78CE
  8
0
 10
4439.4007942630705656
 20
245.693453661901799
 30
0.0
 40
0.2962032456168849
 50
103.7877827720754027
 51
115.6714307080445963
  0
ARC
  5
78CF
  8
0
 10
4439.3930802880458941
 20
245.7094117225747141
 30
0.0
 40
0.2784785886995205
 50
115.6633313887568022
 51
127.2746885773047012
  0
ARC
  5
78D0
  8
0
 10
4439.3696997630604528
 20
245.7365500251368928
 30
0.0
 40
0.2427331064089627
 50
126.7627282953617964
 51
162.007350695752109
  0
ARC
  5
78D1
  8
0
 10
4439.347428034888253
 20
245.7458765785378034
 30
0.0
 40
0.218678688210976
 50
162.5289716881318896
 51
178.4357302887740104
  0
ARC
  5
78D2
  8
0
 10
4439.3528101515694289
 20
245.7470266637951113
 30
0.0
 40
0.2240311558268063
 50
178.7673311552582902
 51
216.6047932777362917
  0
ARC
  5
78D3
  8
0
 10
4439.3905547899876183
 20
245.7764447639669925
 30
0.0
 40
0.2718753693346201
 50
216.8385224976680092
 51
252.5430173301483023
  0
ARC
  5
78D4
  8
0
 10
4439.4217849116521393
 20
245.924529832935292
 30
0.0
 40
0.4227620116742102
 50
254.5264826008476859
 51
267.5554699405362271
  0
ARC
  5
78D5
  8
0
 10
4439.4123435211977267
 20
245.8648292604075891
 30
0.0
 40
0.3512380666881009
 50
249.3795288036318993
 51
268.5985625098841183
  0
ARC
  5
78D6
  8
0
 10
4439.390822628776732
 20
245.7898450495083011
 30
0.0
 40
0.2735504318371072
 50
224.151774117375993
 51
248.0670872555297137
  0
ARC
  5
78D7
  8
0
 10
4439.3580047241857756
 20
245.760149639229212
 30
0.0
 40
0.2293242617611556
 50
182.0750538972799859
 51
224.5398666133116024
  0
LINE
  5
78D8
  8
0
 10
4440.5237532006231049
 20
243.1220428161830966
 30
0.0
 11
4440.5237532006231049
 21
243.0120428161831114
 31
0.0
  0
LINE
  5
78D9
  8
0
 10
4439.7219414311221044
 20
245.6684670731831091
 30
0.0
 11
4439.7011481400231787
 21
245.6684670731831091
 31
0.0
  0
LINE
  5
78DA
  8
0
 10
4439.7348876144233145
 20
245.7608167958831018
 30
0.0
 11
4439.7137532006227048
 21
245.7608167958831018
 31
0.0
  0
LINE
  5
78DB
  8
0
 10
4439.7219414311221044
 20
245.8236939689830933
 30
0.0
 11
4439.7011481400231787
 21
245.8236939689830933
 31
0.0
  0
LINE
  5
78DC
  8
0
 10
4440.3137532006230686
 20
248.4370428161830944
 30
0.0
 11
4440.3137532006230686
 21
243.3320428161831046
 31
0.0
  0
LINE
  5
78DD
  8
0
 10
4440.2871518773217758
 20
249.2816216700830978
 30
0.0
 11
4440.3137532006230686
 21
248.5285534889831069
 31
0.0
  0
LINE
  5
78DE
  8
0
 10
4439.690618099421954
 20
245.8907708033831057
 30
0.0
 11
4439.6759150223233519
 21
245.8777290146830978
 31
0.0
  0
LINE
  5
78DF
  8
0
 10
4439.5521713356220062
 20
245.9874910053831059
 30
0.0
 11
4439.5668744127233367
 21
246.0005327939830977
 31
0.0
  0
LINE
  5
78E0
  8
0
 10
4440.1187532088133594
 20
248.5055065216830883
 30
0.0
 11
4440.1187532006233596
 21
248.4870428161831057
 31
0.0
  0
LINE
  5
78E1
  8
0
 10
4439.6759150223233519
 20
245.8777290146830978
 30
0.0
 11
4439.6760320703915568
 21
245.925468865473988
 31
0.0
  0
LINE
  5
78E2
  8
0
 10
4439.8412532006232141
 20
245.9129281105830955
 30
0.0
 11
4439.8412532006232141
 21
246.1290264615830949
 31
0.0
  0
LINE
  5
78E3
  8
0
 10
4439.8097526401215873
 20
246.2929472191671891
 30
0.0
 11
4439.8097532006231631
 21
246.3206521360831118
 31
0.0
  0
LINE
  5
78E4
  8
0
 10
4439.8087532006220499
 20
246.5870428161831001
 30
0.0
 11
4439.8087532006220499
 21
246.3459033479225866
 31
0.0
  0
LINE
  5
78E5
  8
0
 10
4439.8047374526231579
 20
245.8804929973831008
 30
0.0
 11
4439.804842881321747
 21
245.7579350110831058
 31
0.0
  0
LINE
  5
78E6
  8
0
 10
4439.7348876144233145
 20
245.7608167958831018
 30
0.0
 11
4439.7348876144233145
 21
245.7146419344830974
 31
0.0
  0
LINE
  5
78E7
  8
0
 10
4439.7137532006227048
 20
245.8236939689830933
 30
0.0
 11
4439.7137532006227048
 21
245.746080521083087
 31
0.0
  0
LINE
  5
78E8
  8
0
 10
4439.6245979790037381
 20
249.8658562465755892
 30
0.0
 11
4439.6285266587219667
 21
249.6407700592831134
 31
0.0
  0
LINE
  5
78E9
  8
0
 10
4439.69289432451842
 20
245.9042603200053918
 30
0.0
 11
4439.690618099421954
 21
245.8907708033831057
 31
0.0
  0
LINE
  5
78EA
  8
0
 10
4439.5668744127233367
 20
246.0005327939830977
 30
0.0
 11
4439.5679558885231017
 21
246.0069406910830878
 31
0.0
  0
LINE
  5
78EB
  8
0
 10
4439.6237503805714368
 20
249.9055075465830953
 30
0.0
 11
4439.6237503941138129
 21
250.5509575928766139
 31
0.0
  0
LINE
  5
78EC
  8
0
 10
4439.4912532006228503
 20
246.0338358102648044
 30
0.0
 11
4439.4912532006228503
 21
246.0098730540831014
 31
0.0
  0
LINE
  5
78ED
  8
0
 10
4439.4912532006228503
 20
245.4638441136831091
 30
0.0
 11
4439.4912532006228503
 21
245.482287988083101
 31
0.0
  0
LINE
  5
78EE
  8
0
 10
4439.6759150223233519
 20
245.6144320274831045
 30
0.0
 11
4439.690618099421954
 21
245.6013902388831127
 31
0.0
  0
LINE
  5
78EF
  8
0
 10
4439.5668744127233367
 20
245.4916282481831047
 30
0.0
 11
4439.5521713356220062
 21
245.5046700368831125
 31
0.0
  0
ARC
  5
78F0
  8
0
 10
4440.5083962489397891
 20
243.3466858645003867
 30
0.0
 40
0.1951930713992256
 50
184.3022725812882072
 51
265.6977274187124749
  0
ARC
  5
78F1
  8
0
 10
4440.4937532006233596
 20
243.1220428161830966
 30
0.0
 40
0.03
 50
0.0
 51
90.0
  0
ARC
  5
78F2
  8
0
 10
4440.4915796061968649
 20
243.0142170721236141
 30
0.0
 40
0.0322469776438476
 50
273.8486356068945042
 51
356.1338927996695247
  0
ARC
  5
78F3
  8
0
 10
4439.4719145325216232
 20
245.8391789702830863
 30
0.0
 40
0.2744002044000848
 50
343.406704628702073
 51
350.9259826497532231
  0
ARC
  5
78F4
  8
0
 10
4439.4900545874234012
 20
246.2929474405831058
 30
0.0
 40
0.3196980527
 50
358.0621436411996115
 51
359.9999603182005217
  0
ARC
  5
78F5
  8
0
 10
4439.9781430038156032
 20
249.6467626971507912
 30
0.0
 40
0.3496677000599957
 50
180.9819885224509903
 51
254.0391472269386099
  0
ARC
  5
78F6
  8
0
 10
4440.1897929754759389
 20
248.4930216014248003
 30
0.0
 40
0.0712909214713014
 50
184.8107386204250986
 51
231.7406769698785922
  0
ARC
  5
78F7
  8
0
 10
4440.2538235631964199
 20
249.2770991613253955
 30
0.0
 40
0.0336337569710444
 50
7.7275911031246221
 51
84.4413327153013
  0
ARC
  5
78F8
  8
0
 10
4439.6037195339622485
 20
249.9055187998309862
 30
0.0
 40
0.0200308497686604
 50
272.5115468406057175
 51
359.9678113461333169
  0
ARC
  5
78F9
  8
0
 10
4439.6046010246227524
 20
249.8655071912251913
 30
0.0
 40
0.0200000006046397
 50
1.0000206614455729
 51
90.0106693326657563
  0
ARC
  5
78FA
  8
0
 10
4439.4037532006232141
 20
246.5870428161831001
 30
0.0
 40
0.4050000000000001
 50
0.0
 51
90.0
  0
LINE
  5
78FB
  8
0
 10
4439.5725731864376939
 20
245.5153048750565006
 30
0.0
 11
4439.5668744127233367
 21
245.4916282481831047
 31
0.0
  0
LINE
  5
78FC
  8
0
 10
4439.7348876144233145
 20
245.7146419344830974
 30
0.0
 11
4439.7219414311221044
 21
245.6684670731831091
 31
0.0
  0
LINE
  5
78FD
  8
0
 10
4439.7219414311221044
 20
245.8236939689830933
 30
0.0
 11
4439.727603987823386
 21
245.8438762311830885
 31
0.0
  0
ARC
  5
78FE
  8
0
 10
4440.2890832032626349
 20
248.5298217574533055
 30
0.0
 40
0.0247025762753138
 50
280.1597281071228736
 51
357.0570521881991795
  0
ARC
  5
78FF
  8
0
 10
4439.4895468441409321
 20
246.3206167117714074
 30
0.0
 40
0.3202063584412318
 50
0.0063386110329742
 51
4.5293530037109146
  0
ARC
  5
7900
  8
0
 10
4439.4674321889333442
 20
246.3150726363961951
 30
0.0
 40
0.3427106152337395
 50
5.16138391177246
 51
46.0353029183228202
  0
ARC
  5
7901
  8
0
 10
4439.378718384570675
 20
246.1757600949489984
 30
0.0
 40
0.5056385725814043
 50
49.7613636698293078
 51
87.1620519838583192
  0
ARC
  5
7902
  8
0
 10
4439.4420800465795764
 20
246.1240713794728094
 30
0.0
 40
0.4000416984887315
 50
23.2735873648118883
 51
36.3713772155176969
  0
ARC
  5
7903
  8
0
 10
4439.4121790853314451
 20
246.0971834169453132
 30
0.0
 40
0.4400801116865785
 50
36.8815038165069566
 51
79.7261064851069392
  0
ARC
  5
7904
  8
0
 10
4439.3636302774702926
 20
245.6405307961323956
 30
0.0
 40
0.8987009682964918
 50
81.8735491702410911
 51
87.4411527103559223
  0
ARC
  5
7905
  8
0
 10
4439.4540613544168082
 20
246.1287373575933088
 30
0.0
 40
0.3871919541389539
 50
0.0427809509412801
 51
23.3398485534312989
  0
ARC
  5
7906
  8
0
 10
4439.3306170504201873
 20
245.9511113533984883
 30
0.0
 40
0.5120617520627229
 50
337.8364285678554779
 51
355.7236189405325035
  0
ARC
  5
7907
  8
0
 10
4439.3808714288734336
 20
245.9946978892245966
 30
0.0
 40
0.6042954477378292
 50
272.1700352745572218
 51
284.6866800080014741
  0
ARC
  5
7908
  8
0
 10
4439.4183368534932015
 20
245.7992540371224095
 30
0.0
 40
0.4059569233392915
 50
286.5655824738531123
 51
315.5236393117656917
  0
ARC
  5
7909
  8
0
 10
4439.4712961419327257
 20
245.7499366217685122
 30
0.0
 40
0.3336213490621171
 50
315.1949050057801855
 51
356.1757691779095012
  0
ARC
  5
790A
  8
0
 10
4439.2101273826528995
 20
245.7559408085315908
 30
0.0
 40
0.5947188421443639
 50
357.2768271924728083
 51
0.1921237326214067
  0
ARC
  5
790B
  8
0
 10
4439.0586528016820012
 20
245.854122910081287
 30
0.0
 40
0.7465505260017788
 50
2.024255583905711
 51
12.1773516582600401
  0
ARC
  5
790C
  8
0
 10
4439.4431841424293452
 20
245.890481473999813
 30
0.0
 40
0.3658513836742401
 50
19.3329373758891201
 51
62.338687732654158
  0
ARC
  5
790D
  8
0
 10
4439.3944991599182686
 20
245.784785094554195
 30
0.0
 40
0.4821058507485179
 50
63.045627404768851
 51
88.9001377184207371
  0
ARC
  5
790E
  8
0
 10
4439.4869350914559618
 20
245.9115702995077015
 30
0.0
 40
0.3543207108465569
 50
0.2195667146325381
 51
30.0747759433740782
  0
ARC
  5
790F
  8
0
 10
4439.4382847476372262
 20
245.8805438040641036
 30
0.0
 40
0.4119770644426747
 50
30.4182000111085209
 51
63.877921943150362
  0
ARC
  5
7910
  8
0
 10
4439.3885919780450422
 20
245.7498694535244965
 30
0.0
 40
0.5513343962855182
 50
65.2203980989221463
 51
88.4242166071852296
  0
ARC
  5
7911
  8
0
 10
4439.4718578778101801
 20
245.7421789492065898
 30
0.0
 40
0.3333575648609892
 50
2.7090799800785139
 51
34.7435663363065714
  0
ARC
  5
7912
  8
0
 10
4439.4285414173446043
 20
245.7087781282527885
 30
0.0
 40
0.3879962659367289
 50
35.1510787395766116
 51
67.0342826819543944
  0
ARC
  5
7913
  8
0
 10
4439.3861808462288536
 20
245.5694446728547007
 30
0.0
 40
0.533035615169171
 50
68.6857834738136717
 51
88.1108125394281387
  0
ARC
  5
7914
  8
0
 10
4439.3993136283543208
 20
245.839014754373494
 30
0.0
 40
0.4080530602332721
 50
270.6233840577173737
 51
291.7199212313769863
  0
ARC
  5
7915
  8
0
 10
4439.4339727981259784
 20
245.7572642710302944
 30
0.0
 40
0.3192861511103926
 50
291.3708676609672921
 51
341.7568015387296896
  0
ARC
  5
7916
  8
0
 10
4439.476208734339707
 20
245.7374018357778027
 30
0.0
 40
0.273013498477162
 50
342.9409549266230215
 51
22.9543013463076306
  0
ARC
  5
7917
  8
0
 10
4439.4319436942550965
 20
245.7140941985246059
 30
0.0
 40
0.3228906706506267
 50
23.6993886880500391
 51
65.0875458382353855
  0
ARC
  5
7918
  8
0
 10
4439.4045115206963601
 20
245.6636331419099122
 30
0.0
 40
0.3802290555620166
 50
64.5414734820683407
 51
90.1142694591159881
  0
ARC
  5
7919
  8
0
 10
4439.4038968064951405
 20
245.6742042677173004
 30
0.0
 40
0.3468496413943543
 50
75.4125926728885503
 51
90.0237221251489643
  0
ARC
  5
791A
  8
0
 10
4439.4075883140949372
 20
245.6838000584629924
 30
0.0
 40
0.3545302342060101
 50
63.3020027539192327
 51
76.350129926432686
  0
ARC
  5
791B
  8
0
 10
4439.4260703256222769
 20
245.7206928087803135
 30
0.0
 40
0.2950978523025332
 50
32.1508104415220686
 51
64.7024434118987131
  0
ARC
  5
791C
  8
0
 10
4439.4581345441347366
 20
245.7413543018789994
 30
0.0
 40
0.2763582718153448
 50
17.3342389010948601
 51
32.7287365150667
  0
ARC
  5
791D
  8
0
 10
4439.4684887747589528
 20
245.7460805210835133
 30
0.0
 40
0.2452635878803695
 50
341.5516816392877786
 51
18.4483183605335697
  0
ARC
  5
791E
  8
0
 10
4439.4589738011964073
 20
245.7504148268552058
 30
0.0
 40
0.2754403905046705
 50
327.245456824576479
 51
342.6915676937633748
  0
ARC
  5
791F
  8
0
 10
4439.4260710384050981
 20
245.7714674300495119
 30
0.0
 40
0.295096821329973
 50
295.2974981261186258
 51
327.8492479689554102
  0
ARC
  5
7920
  8
0
 10
4439.4075885322181421
 20
245.8083603900292076
 30
0.0
 40
0.354529605825399
 50
283.6498584598857065
 51
296.6980088598143084
  0
ARC
  5
7921
  8
0
 10
4439.4039177571476102
 20
245.8177928167768869
 30
0.0
 40
0.3466856930477558
 50
269.9728042002324173
 51
284.5908810017115229
  0
ARC
  5
7922
  8
0
 10
4439.3952337281943983
 20
245.6106691314971897
 30
0.0
 40
0.3794350248951845
 50
77.5082459193029365
 51
88.7134270549806558
  0
ARC
  5
7923
  8
0
 10
4439.406712138174953
 20
245.693453661901799
 30
0.0
 40
0.2962032456168849
 50
64.3285692919553611
 51
76.2122172279245405
  0
ARC
  5
7924
  8
0
 10
4439.4144261131996245
 20
245.7094117225747141
 30
0.0
 40
0.2784785886995205
 50
52.7253114226952775
 51
64.3366686112431694
  0
ARC
  5
7925
  8
0
 10
4439.4378066381859753
 20
245.7365500251368928
 30
0.0
 40
0.2427331064089627
 50
17.9926493042479194
 51
53.237271704638232
  0
ARC
  5
7926
  8
0
 10
4439.4600783663590846
 20
245.7458765785378034
 30
0.0
 40
0.218678688210976
 50
1.5642697112259489
 51
17.4710283118680287
  0
ARC
  5
7927
  8
0
 10
4439.4546962496769993
 20
245.7470266637951113
 30
0.0
 40
0.2240311558268063
 50
323.3952067222637083
 51
1.232668844741708
  0
ARC
  5
7928
  8
0
 10
4439.4169516112569909
 20
245.7764447639669925
 30
0.0
 40
0.2718753693346201
 50
287.4569826698516977
 51
323.1614775023319908
  0
ARC
  5
7929
  8
0
 10
4439.3857214895933794
 20
245.924529832935292
 30
0.0
 40
0.4227620116742102
 50
272.4445300594637729
 51
285.4735173991020929
  0
ARC
  5
792A
  8
0
 10
4439.395162880047792
 20
245.8648292604075891
 30
0.0
 40
0.3512380666881009
 50
271.4014374901159954
 51
290.6204711963681007
  0
ARC
  5
792B
  8
0
 10
4439.4166837724687866
 20
245.7898450495083011
 30
0.0
 40
0.2735504318371072
 50
291.9329127444701726
 51
315.8482258826239786
  0
ARC
  5
792C
  8
0
 10
4439.4495016770588336
 20
245.760149639229212
 30
0.0
 40
0.2293242617611556
 50
315.4601333866883124
 51
357.9249461027200141
  0
LINE
  5
792D
  8
0
 10
4438.5140658382233596
 20
248.5055065216830883
 30
0.0
 11
4440.2934405630230685
 21
248.5055065216830883
 31
0.0
  0
LINE
  5
792E
  8
0
 10
4438.550424906689841
 20
249.3105747567830974
 30
0.0
 11
4440.2570814945547681
 21
249.3105747567830974
 31
0.0
  0
LINE
  5
792F
  8
0
 10
4439.202909100918987
 20
249.8855071914831001
 30
0.0
 11
4439.6045973003228937
 21
249.8855071914831001
 31
0.0
  0
ARC
  5
7930
  8
0
 10
4439.4037517769611441
 20
245.8661175591687993
 30
0.0
 40
0.0134706669107709
 50
42.3297156481674932
 51
137.661174357680693
  0
ARC
  5
7931
  8
0
 10
4439.4038005979437003
 20
245.8707272032814899
 30
0.0
 40
0.013314332462932
 50
211.4583282306847138
 51
321.3736889723077184
  0
ARC
  5
7932
  8
0
 10
4439.4061845522173826
 20
245.868503022400489
 30
0.0
 40
0.0100665785822687
 50
322.7936229079281816
 51
41.6164796396749921
  0
ARC
  5
7933
  8
0
 10
4439.4013425182783976
 20
245.8685106176762929
 30
0.0
 40
0.0100791067738375
 50
138.4924088230613961
 51
208.0001383273215936
  0
ARC
  5
7934
  8
0
 10
4439.4037532225565883
 20
245.8843012463339051
 30
0.0
 40
0.0134975813507575
 50
222.4549725909070048
 51
317.5359174241443156
  0
ARC
  5
7935
  8
0
 10
4439.3729646447100095
 20
245.8626391929591932
 30
0.0
 40
0.0134706669107709
 50
42.3297156481674932
 51
137.661174357680693
  0
ARC
  5
7936
  8
0
 10
4439.3730134656943846
 20
245.8672488370719975
 30
0.0
 40
0.013314332462932
 50
211.4583282306847138
 51
321.3736889723077184
  0
ARC
  5
7937
  8
0
 10
4439.375397419968067
 20
245.8650246561909967
 30
0.0
 40
0.0100665785822687
 50
322.7936229079281816
 51
41.6164796396749921
  0
ARC
  5
7938
  8
0
 10
4439.3705553860281725
 20
245.8650322514668005
 30
0.0
 40
0.0100791067738375
 50
138.4924088230613961
 51
208.0001383273215936
  0
ARC
  5
7939
  8
0
 10
4439.3729660903063632
 20
245.880822880124299
 30
0.0
 40
0.0134975813507575
 50
222.4549725909058111
 51
317.5359174241443156
  0
ARC
  5
793A
  8
0
 10
4439.3437040086473644
 20
245.8524047499317078
 30
0.0
 40
0.0134706669107709
 50
42.3297156481674932
 51
137.661174357680693
  0
ARC
  5
793B
  8
0
 10
4439.3437528296308301
 20
245.8570143940445121
 30
0.0
 40
0.013314332462932
 50
211.4583282306847138
 51
321.3736889723077184
  0
ARC
  5
793C
  8
0
 10
4439.3461367839036029
 20
245.8547902131633975
 30
0.0
 40
0.0100665785822687
 50
322.7936229079281816
 51
41.6164796396749921
  0
ARC
  5
793D
  8
0
 10
4439.3412947499646179
 20
245.8547978084392867
 30
0.0
 40
0.0100791067738375
 50
138.4924088230613961
 51
208.0001383273215936
  0
ARC
  5
793E
  8
0
 10
4439.3437054542437181
 20
245.8705884370968135
 30
0.0
 40
0.0134975813507575
 50
222.4549725909058111
 51
317.5359174241443156
  0
ARC
  5
793F
  8
0
 10
4439.318643289803731
 20
245.8360760675670917
 30
0.0
 40
0.0134706669107709
 50
42.3297156481674932
 51
137.661174357680693
  0
ARC
  5
7940
  8
0
 10
4439.3186921107881062
 20
245.8406857116798108
 30
0.0
 40
0.013314332462932
 50
211.4583282306847138
 51
321.3736889723077184
  0
ARC
  5
7941
  8
0
 10
4439.321076065060879
 20
245.8384615307988099
 30
0.0
 40
0.0100665785822687
 50
322.7936229079281816
 51
41.6164796396749921
  0
ARC
  5
7942
  8
0
 10
4439.3162340311218941
 20
245.8384691260746138
 30
0.0
 40
0.0100791067738375
 50
138.4924088230613961
 51
208.0001383273215936
  0
ARC
  5
7943
  8
0
 10
4439.3186447354009943
 20
245.8542597547321122
 30
0.0
 40
0.0134975813507575
 50
222.4549725909058111
 51
317.5359174241443156
  0
ARC
  5
7944
  8
0
 10
4439.2979854092400274
 20
245.814653021628601
 30
0.0
 40
0.0134706669107709
 50
42.3297156481674932
 51
137.661174357680693
  0
ARC
  5
7945
  8
0
 10
4439.2980342302225836
 20
245.8192626657414053
 30
0.0
 40
0.013314332462932
 50
211.4583282306847138
 51
321.3736889723077184
  0
ARC
  5
7946
  8
0
 10
4439.3004181844971754
 20
245.8170384848604044
 30
0.0
 40
0.0100665785822687
 50
322.7936229079281816
 51
41.6164796396749921
  0
ARC
  5
7947
  8
0
 10
4439.2955761505572809
 20
245.8170460801362083
 30
0.0
 40
0.0100791067738375
 50
138.4924088230613961
 51
208.0001383273215936
  0
ARC
  5
7948
  8
0
 10
4439.2979868548363811
 20
245.8328367087937067
 30
0.0
 40
0.0134975813507575
 50
222.4549725909058111
 51
317.5359174241443156
  0
ARC
  5
7949
  8
0
 10
4439.4037022211468866
 20
245.8306372104003117
 30
0.0
 40
0.0134706669107709
 50
42.3297156481674932
 51
137.661174357680693
  0
ARC
  5
794A
  8
0
 10
4439.4037510421312618
 20
245.8352468545130023
 30
0.0
 40
0.013314332462932
 50
211.4583282306847138
 51
321.3736889723077184
  0
ARC
  5
794B
  8
0
 10
4439.4061349964031251
 20
245.8330226736320014
 30
0.0
 40
0.0100665785822687
 50
322.7936229079281816
 51
41.6164796396749921
  0
ARC
  5
794C
  8
0
 10
4439.4012929624641401
 20
245.8330302689078053
 30
0.0
 40
0.0100791067738375
 50
138.4924088230613961
 51
208.0001383273215936
  0
ARC
  5
794D
  8
0
 10
4439.4037036667432403
 20
245.8488208975653038
 30
0.0
 40
0.0134975813507575
 50
222.4549725909058111
 51
317.5359174241443156
  0
ARC
  5
794E
  8
0
 10
4439.4037024452327387
 20
245.7951567769673886
 30
0.0
 40
0.0134706669107709
 50
42.3297156481674932
 51
137.661174357680693
  0
ARC
  5
794F
  8
0
 10
4439.4037512662162044
 20
245.7997664210801929
 30
0.0
 40
0.013314332462932
 50
211.4583282306847138
 51
321.3736889723077184
  0
ARC
  5
7950
  8
0
 10
4439.4061352204889772
 20
245.7975422401991068
 30
0.0
 40
0.0100665785822687
 50
322.7936229079281816
 51
41.6164796396749921
  0
ARC
  5
7951
  8
0
 10
4439.4012931865499922
 20
245.7975498354749107
 30
0.0
 40
0.0100791067738375
 50
138.4924088230613961
 51
208.0001383273215936
  0
ARC
  5
7952
  8
0
 10
4439.4037038908290924
 20
245.8133404641324944
 30
0.0
 40
0.0134975813507575
 50
222.4549725909058111
 51
317.5359174241443156
  0
ARC
  5
7953
  8
0
 10
4439.4037043796388389
 20
245.7552412893332985
 30
0.0
 40
0.0134706669107709
 50
42.3297156481674932
 51
137.661174357680693
  0
ARC
  5
7954
  8
0
 10
4439.4037532006232141
 20
245.7598509334459891
 30
0.0
 40
0.013314332462932
 50
211.4583282306847138
 51
321.3736889723077184
  0
ARC
  5
7955
  8
0
 10
4439.4061371548959869
 20
245.7576267525649882
 30
0.0
 40
0.0100665785822687
 50
322.7936229079281816
 51
41.6164796396749921
  0
ARC
  5
7956
  8
0
 10
4439.4012951209570019
 20
245.7576343478407921
 30
0.0
 40
0.0100791067738375
 50
138.4924088230613961
 51
208.0001383273215936
  0
ARC
  5
7957
  8
0
 10
4439.4037058252351926
 20
245.7734249764982906
 30
0.0
 40
0.0134975813507575
 50
222.4549725909058111
 51
317.5359174241443156
  0
ARC
  5
7958
  8
0
 10
4439.3697017998902083
 20
245.8249752817380056
 30
0.0
 40
0.0134706669107709
 50
42.3297156481674932
 51
137.661174357680693
  0
ARC
  5
7959
  8
0
 10
4439.3697506208736741
 20
245.8295849258508099
 30
0.0
 40
0.013314332462932
 50
211.4583282306847138
 51
321.3736889723077184
  0
ARC
  5
795A
  8
0
 10
4439.3721345751473564
 20
245.8273607449696954
 30
0.0
 40
0.0100665785822687
 50
322.7936229079281816
 51
41.6164796396749921
  0
ARC
  5
795B
  8
0
 10
4439.3672925412065524
 20
245.8273683402456129
 30
0.0
 40
0.0100791067738375
 50
138.4924088230613961
 51
208.0001383273215936
  0
ARC
  5
795C
  8
0
 10
4439.3697032454856526
 20
245.8431589689031114
 30
0.0
 40
0.0134975813507575
 50
222.4549725909058111
 51
317.5359174241443156
  0
ARC
  5
795D
  8
0
 10
4439.3435170447673954
 20
245.808554785063194
 30
0.0
 40
0.0134706669107709
 50
42.3297156481674932
 51
137.661174357680693
  0
ARC
  5
795E
  8
0
 10
4439.3435658657499516
 20
245.813164429175913
 30
0.0
 40
0.013314332462932
 50
211.4583282306847138
 51
321.3736889723077184
  0
ARC
  5
795F
  8
0
 10
4439.345949820021815
 20
245.8109402482947985
 30
0.0
 40
0.0100665785822687
 50
322.7936229079281816
 51
41.6164796396749921
  0
ARC
  5
7960
  8
0
 10
4439.34110778608283
 20
245.8109478435706876
 30
0.0
 40
0.0100791067738375
 50
138.4924088230613961
 51
208.0001383273215936
  0
ARC
  5
7961
  8
0
 10
4439.3435184903628397
 20
245.8267384722281861
 30
0.0
 40
0.0134975813507575
 50
222.4549725909058111
 51
317.5359174241443156
  0
ARC
  5
7962
  8
0
 10
4439.3250610547602264
 20
245.7840947601287951
 30
0.0
 40
0.0134706669107709
 50
42.3297156481674932
 51
137.661174357680693
  0
ARC
  5
7963
  8
0
 10
4439.3251098757436921
 20
245.7887044042415994
 30
0.0
 40
0.013314332462932
 50
211.4583282306847138
 51
321.3736889723077184
  0
ARC
  5
7964
  8
0
 10
4439.3274938300173744
 20
245.7864802233605133
 30
0.0
 40
0.0100665785822687
 50
322.7936229079281816
 51
41.6164796396749921
  0
ARC
  5
7965
  8
0
 10
4439.3226517960783895
 20
245.7864878186364024
 30
0.0
 40
0.0100791067738375
 50
138.4924088230613961
 51
208.0001383273215936
  0
ARC
  5
7966
  8
0
 10
4439.3250625003565801
 20
245.8022784472939009
 30
0.0
 40
0.0134975813507575
 50
222.4549725909058111
 51
317.5359174241443156
  0
ARC
  5
7967
  8
0
 10
4439.3187043654315858
 20
245.7552414192682022
 30
0.0
 40
0.0134706669107709
 50
42.3297156481674932
 51
137.661174357680693
  0
ARC
  5
7968
  8
0
 10
4439.3187531864150515
 20
245.7598510633810065
 30
0.0
 40
0.013314332462932
 50
211.4583282306847138
 51
321.3736889723077184
  0
ARC
  5
7969
  8
0
 10
4439.3211371406878243
 20
245.7576268825000056
 30
0.0
 40
0.0100665785822687
 50
322.7936229079281816
 51
41.6164796396749921
  0
ARC
  5
796A
  8
0
 10
4439.3162951067488393
 20
245.7576344777758095
 30
0.0
 40
0.0100791067738375
 50
138.4924088230613961
 51
208.0001383273215936
  0
ARC
  5
796B
  8
0
 10
4439.318705811028849
 20
245.773425106433308
 30
0.0
 40
0.0134975813507575
 50
222.4549725909058111
 51
317.5359174241443156
  0
ARC
  5
796C
  8
0
 10
4439.3252553280462962
 20
245.7263889996251862
 30
0.0
 40
0.0134706669107709
 50
42.3297156481674932
 51
137.661174357680693
  0
ARC
  5
796D
  8
0
 10
4439.3253041490279429
 20
245.7309986437379052
 30
0.0
 40
0.013314332462932
 50
211.4583282306847138
 51
321.3736889723077184
  0
ARC
  5
796E
  8
0
 10
4439.3276881033007157
 20
245.7287744628569044
 30
0.0
 40
0.0100665785822687
 50
322.7936229079281816
 51
41.6164796396749921
  0
ARC
  5
796F
  8
0
 10
4439.3228460693617308
 20
245.7287820581327082
 30
0.0
 40
0.0100791067738375
 50
138.4924088230613961
 51
208.0001383273215936
  0
ARC
  5
7970
  8
0
 10
4439.3252567736408309
 20
245.7445726867902067
 30
0.0
 40
0.0134975813507575
 50
222.4549725909058111
 51
317.5359174241443156
  0
ARC
  5
7971
  8
0
 10
4439.3437679250828296
 20
245.7019295636762024
 30
0.0
 40
0.0134706669107709
 50
42.3297156481674932
 51
137.661174357680693
  0
ARC
  5
7972
  8
0
 10
4439.3438167460672048
 20
245.7065392077890067
 30
0.0
 40
0.013314332462932
 50
211.4583282306847138
 51
321.3736889723077184
  0
ARC
  5
7973
  8
0
 10
4439.3462007003399776
 20
245.7043150269078922
 30
0.0
 40
0.0100665785822687
 50
322.7936229079281816
 51
41.6164796396749921
  0
ARC
  5
7974
  8
0
 10
4439.3413586664009927
 20
245.7043226221838097
 30
0.0
 40
0.0100791067738375
 50
138.4924088230613961
 51
208.0001383273215936
  0
ARC
  5
7975
  8
0
 10
4439.3437693706791833
 20
245.7201132508413082
 30
0.0
 40
0.0134975813507575
 50
222.4549725909058111
 51
317.5359174241443156
  0
ARC
  5
7976
  8
0
 10
4439.3716131550791033
 20
245.7270196315814985
 30
0.0
 40
0.0134706669107709
 50
42.3297156481674932
 51
137.661174357680693
  0
ARC
  5
7977
  8
0
 10
4439.371661976062569
 20
245.7316292756943028
 30
0.0
 40
0.013314332462932
 50
211.4583282306847138
 51
321.3736889723077184
  0
ARC
  5
7978
  8
0
 10
4439.3740459303362513
 20
245.7294050948131883
 30
0.0
 40
0.0100665785822687
 50
322.7936229079281816
 51
41.6164796396749921
  0
ARC
  5
7979
  8
0
 10
4439.3692038963972664
 20
245.7294126900889921
 30
0.0
 40
0.0100791067738375
 50
138.4924088230613961
 51
208.0001383273215936
  0
ARC
  5
797A
  8
0
 10
4439.3716146006745475
 20
245.7452033187466043
 30
0.0
 40
0.0134975813507575
 50
222.4549725909058111
 51
317.5359174241443156
  0
ARC
  5
797B
  8
0
 10
4439.3701706359270247
 20
245.6856232790642878
 30
0.0
 40
0.0134706669107709
 50
42.3297156481674932
 51
137.661174357680693
  0
ARC
  5
797C
  8
0
 10
4439.3702194569095809
 20
245.6902329231770921
 30
0.0
 40
0.013314332462932
 50
211.4583282306847138
 51
321.3736889723077184
  0
ARC
  5
797D
  8
0
 10
4439.3726034111832632
 20
245.6880087422960059
 30
0.0
 40
0.0100665785822687
 50
322.7936229079281816
 51
41.6164796396749921
  0
ARC
  5
797E
  8
0
 10
4439.3677613772442783
 20
245.6880163375718951
 30
0.0
 40
0.0100791067738375
 50
138.4924088230613961
 51
208.0001383273215936
  0
ARC
  5
797F
  8
0
 10
4439.3701720815233784
 20
245.7038069662293083
 30
0.0
 40
0.0134975813507575
 50
222.4549725909058111
 51
317.5359174241443156
  0
ARC
  5
7980
  8
0
 10
4439.4037029332466773
 20
245.6798453686081984
 30
0.0
 40
0.0134706669107709
 50
42.3297156481674932
 51
137.661174357680693
  0
ARC
  5
7981
  8
0
 10
4439.403751754230143
 20
245.6844550127210027
 30
0.0
 40
0.013314332462932
 50
211.4583282306847138
 51
321.3736889723077184
  0
ARC
  5
7982
  8
0
 10
4439.4061357085029158
 20
245.6822308318398882
 30
0.0
 40
0.0100665785822687
 50
322.7936229079281816
 51
41.6164796396749921
  0
ARC
  5
7983
  8
0
 10
4439.4012936745639308
 20
245.6822384271158057
 30
0.0
 40
0.0100791067738375
 50
138.4924088230613961
 51
208.0001383273215936
  0
ARC
  5
7984
  8
0
 10
4439.4037043788421215
 20
245.6980290557733042
 30
0.0
 40
0.0134975813507575
 50
222.4549725909058111
 51
317.5359174241443156
  0
ARC
  5
7985
  8
0
 10
4439.3587043654333684
 20
245.7552414192682022
 30
0.0
 40
0.0134706669107709
 50
42.3297156481674932
 51
137.661174357680693
  0
ARC
  5
7986
  8
0
 10
4439.3587531864159246
 20
245.7598510633810065
 30
0.0
 40
0.013314332462932
 50
211.4583282306847138
 51
321.3736889723077184
  0
ARC
  5
7987
  8
0
 10
4439.3611371406877879
 20
245.7576268825000056
 30
0.0
 40
0.0100665785822687
 50
322.7936229079281816
 51
41.6164796396749921
  0
ARC
  5
7988
  8
0
 10
4439.3562951067497124
 20
245.7576344777758095
 30
0.0
 40
0.0100791067738375
 50
138.4924088230613961
 51
208.0001383273215936
  0
ARC
  5
7989
  8
0
 10
4439.3587058110288126
 20
245.773425106433308
 30
0.0
 40
0.0134975813507575
 50
222.4549725909058111
 51
317.5359174241443156
  0
ARC
  5
798A
  8
0
 10
4439.3717721770799471
 20
245.7834665326595882
 30
0.0
 40
0.0134706669107709
 50
42.3297156481674932
 51
137.661174357680693
  0
ARC
  5
798B
  8
0
 10
4439.3718209980634128
 20
245.7880761767723925
 30
0.0
 40
0.013314332462932
 50
211.4583282306847138
 51
321.3736889723077184
  0
ARC
  5
798C
  8
0
 10
4439.3742049523352762
 20
245.7858519958913064
 30
0.0
 40
0.0100665785822687
 50
322.7936229079281816
 51
41.6164796396749921
  0
ARC
  5
798D
  8
0
 10
4439.3693629183972007
 20
245.7858595911671955
 30
0.0
 40
0.0100791067738375
 50
138.4924088230613961
 51
208.0001383273215936
  0
ARC
  5
798E
  8
0
 10
4439.3717736226763009
 20
245.801650219824694
 30
0.0
 40
0.0134975813507575
 50
222.4549725909058111
 51
317.5359174241443156
  0
ARC
  5
798F
  8
0
 10
4439.2846635891382903
 20
245.789505182109508
 30
0.0
 40
0.0134706669107709
 50
42.3297156481674932
 51
137.661174357680693
  0
ARC
  5
7990
  8
0
 10
4439.2847124101208465
 20
245.7941148262221986
 30
0.0
 40
0.013314332462932
 50
211.4583282306847138
 51
321.3736889723077184
  0
ARC
  5
7991
  8
0
 10
4439.2870963643936193
 20
245.7918906453411978
 30
0.0
 40
0.0100665785822687
 50
322.7936229079281816
 51
41.6164796396749921
  0
ARC
  5
7992
  8
0
 10
4439.2822543304546343
 20
245.7918982406170016
 30
0.0
 40
0.0100791067738375
 50
138.4924088230613961
 51
208.0001383273215936
  0
ARC
  5
7993
  8
0
 10
4439.2846650347337345
 20
245.8076888692745001
 30
0.0
 40
0.0134975813507575
 50
222.4549725909058111
 51
317.5359174241443156
  0
ARC
  5
7994
  8
0
 10
4439.2794893683212649
 20
245.7622137454416986
 30
0.0
 40
0.0134706669107709
 50
42.3297156481674932
 51
137.661174357680693
  0
ARC
  5
7995
  8
0
 10
4439.2795381893038211
 20
245.7668233895545029
 30
0.0
 40
0.013314332462932
 50
211.4583282306847138
 51
321.3736889723077184
  0
ARC
  5
7996
  8
0
 10
4439.2819221435784129
 20
245.7645992086733884
 30
0.0
 40
0.0100665785822687
 50
322.7936229079281816
 51
41.6164796396749921
  0
ARC
  5
7997
  8
0
 10
4439.277080109637609
 20
245.7646068039493059
 30
0.0
 40
0.0100791067738375
 50
138.4924088230613961
 51
208.0001383273215936
  0
ARC
  5
7998
  8
0
 10
4439.2794908139176187
 20
245.7803974326068044
 30
0.0
 40
0.0134975813507575
 50
222.4549725909058111
 51
317.5359174241443156
  0
ARC
  5
7999
  8
0
 10
4439.280817270731859
 20
245.7344658019516999
 30
0.0
 40
0.0134706669107709
 50
42.3297156481674932
 51
137.661174357680693
  0
ARC
  5
799A
  8
0
 10
4439.2808660917162342
 20
245.7390754460645041
 30
0.0
 40
0.013314332462932
 50
211.4583282306847138
 51
321.3736889723077184
  0
ARC
  5
799B
  8
0
 10
4439.2832500459880976
 20
245.7368512651833896
 30
0.0
 40
0.0100665785822687
 50
322.7936229079281816
 51
41.6164796396749921
  0
ARC
  5
799C
  8
0
 10
4439.2784080120491126
 20
245.7368588604593072
 30
0.0
 40
0.0100791067738375
 50
138.4924088230613961
 51
208.0001383273215936
  0
ARC
  5
799D
  8
0
 10
4439.2808187163282128
 20
245.7526494891168056
 30
0.0
 40
0.0134975813507575
 50
222.4549725909058111
 51
317.5359174241443156
  0
ARC
  5
799E
  8
0
 10
4439.2905048513966904
 20
245.7080329392136946
 30
0.0
 40
0.0134706669107709
 50
42.3297156481674932
 51
137.661174357680693
  0
ARC
  5
799F
  8
0
 10
4439.2905536723810656
 20
245.7126425833264989
 30
0.0
 40
0.013314332462932
 50
211.4583282306847138
 51
321.3736889723077184
  0
ARC
  5
79A0
  8
0
 10
4439.2929376266529289
 20
245.7104184024454128
 30
0.0
 40
0.0100665785822687
 50
322.7936229079281816
 51
41.6164796396749921
  0
ARC
  5
79A1
  8
0
 10
4439.2880955927139439
 20
245.7104259977213019
 30
0.0
 40
0.0100791067738375
 50
138.4924088230613961
 51
208.0001383273215936
  0
ARC
  5
79A2
  8
0
 10
4439.2905062969939536
 20
245.7262166263788004
 30
0.0
 40
0.0134975813507575
 50
222.4549725909058111
 51
317.5359174241443156
  0
ARC
  5
79A3
  8
0
 10
4439.3072912431071018
 20
245.6845665465876891
 30
0.0
 40
0.0134706669107709
 50
42.3297156481674932
 51
137.661174357680693
  0
ARC
  5
79A4
  8
0
 10
4439.3073400640905675
 20
245.6891761907004081
 30
0.0
 40
0.013314332462932
 50
211.4583282306847138
 51
321.3736889723077184
  0
ARC
  5
79A5
  8
0
 10
4439.3097240183642498
 20
245.6869520098194073
 30
0.0
 40
0.0100665785822687
 50
322.7936229079281816
 51
41.6164796396749921
  0
ARC
  5
79A6
  8
0
 10
4439.3048819844243553
 20
245.6869596050952111
 30
0.0
 40
0.0100791067738375
 50
138.4924088230613961
 51
208.0001383273215936
  0
ARC
  5
79A7
  8
0
 10
4439.307292688702546
 20
245.7027502337527949
 30
0.0
 40
0.0134975813507575
 50
222.4549725909058111
 51
317.5359174241443156
  0
ARC
  5
79A8
  8
0
 10
4439.3300437209090887
 20
245.665541846032113
 30
0.0
 40
0.0134706669107709
 50
42.3297156481674932
 51
137.661174357680693
  0
ARC
  5
79A9
  8
0
 10
4439.3300925418925544
 20
245.6701514901448888
 30
0.0
 40
0.013314332462932
 50
211.4583282306847138
 51
321.3736889723077184
  0
ARC
  5
79AA
  8
0
 10
4439.3324764961653273
 20
245.6679273092638027
 30
0.0
 40
0.0100665785822687
 50
322.7936229079281816
 51
41.6164796396749921
  0
ARC
  5
79AB
  8
0
 10
4439.3276344622263423
 20
245.6679349045396066
 30
0.0
 40
0.0100791067738375
 50
138.4924088230613961
 51
208.0001383273215936
  0
ARC
  5
79AC
  8
0
 10
4439.3300451665054425
 20
245.6837255331971051
 30
0.0
 40
0.0134975813507575
 50
222.4549725909058111
 51
317.5359174241443156
  0
ARC
  5
79AD
  8
0
 10
4439.3574248499908208
 20
245.6521557490821124
 30
0.0
 40
0.0134706669107709
 50
42.3297156481674932
 51
137.661174357680693
  0
ARC
  5
79AE
  8
0
 10
4439.357473670975196
 20
245.6567653931948882
 30
0.0
 40
0.013314332462932
 50
211.4583282306847138
 51
321.3736889723077184
  0
ARC
  5
79AF
  8
0
 10
4439.3598576252470593
 20
245.6545412123138021
 30
0.0
 40
0.0100665785822687
 50
322.7936229079281816
 51
41.6164796396749921
  0
ARC
  5
79B0
  8
0
 10
4439.3550155913089839
 20
245.6545488075896913
 30
0.0
 40
0.0100791067738375
 50
138.4924088230613961
 51
208.0001383273215936
  0
ARC
  5
79B1
  8
0
 10
4439.3574262955871745
 20
245.6703394362471897
 30
0.0
 40
0.0134975813507575
 50
222.4549725909058111
 51
317.5359174241443156
  0
ARC
  5
79B2
  8
0
 10
4439.3875839810061734
 20
245.6452467336904135
 30
0.0
 40
0.0134706669107709
 50
42.3297156481674932
 51
137.661174357680693
  0
ARC
  5
79B3
  8
0
 10
4439.3876328019905486
 20
245.6498563778031894
 30
0.0
 40
0.013314332462932
 50
211.4583282306847138
 51
321.3736889723077184
  0
ARC
  5
79B4
  8
0
 10
4439.3900167562633214
 20
245.6476321969221033
 30
0.0
 40
0.0100665785822687
 50
322.7936229079281816
 51
41.6164796396749921
  0
ARC
  5
79B5
  8
0
 10
4439.3851747223243365
 20
245.6476397921979924
 30
0.0
 40
0.0100791067738375
 50
138.4924088230613961
 51
208.0001383273215936
  0
ARC
  5
79B6
  8
0
 10
4439.3875854266034366
 20
245.6634304208554056
 30
0.0
 40
0.0134975813507575
 50
222.4549725909058111
 51
317.5359174241443156
  0
ARC
  5
79B7
  8
0
 10
4439.4037043796388389
 20
245.6044494477332876
 30
0.0
 40
0.0134706669107709
 50
42.3297156481674932
 51
137.661174357680693
  0
ARC
  5
79B8
  8
0
 10
4439.4037532006232141
 20
245.6090590918460066
 30
0.0
 40
0.013314332462932
 50
211.4583282306847138
 51
321.3736889723077184
  0
ARC
  5
79B9
  8
0
 10
4439.4061371548959869
 20
245.6068349109648921
 30
0.0
 40
0.0100665785822687
 50
322.7936229079281816
 51
41.6164796396749921
  0
ARC
  5
79BA
  8
0
 10
4439.4012951209570019
 20
245.6068425062408096
 30
0.0
 40
0.0100791067738375
 50
138.4924088230613961
 51
208.0001383273215936
  0
ARC
  5
79BB
  8
0
 10
4439.4037058252351926
 20
245.6226331348983081
 30
0.0
 40
0.0134975813507575
 50
222.4549725909058111
 51
317.5359174241443156
  0
ARC
  5
79BC
  8
0
 10
4439.3764000365463289
 20
245.6063241264482997
 30
0.0
 40
0.0134706669107709
 50
42.3297156481674932
 51
137.661174357680693
  0
ARC
  5
79BD
  8
0
 10
4439.3764488575297946
 20
245.6109337705611892
 30
0.0
 40
0.013314332462932
 50
211.4583282306847138
 51
321.3736889723077184
  0
ARC
  5
79BE
  8
0
 10
4439.3788328118043864
 20
245.6087095896799894
 30
0.0
 40
0.0100665785822687
 50
322.7936229079281816
 51
41.6164796396749921
  0
ARC
  5
79BF
  8
0
 10
4439.3739907778635825
 20
245.608717184955907
 30
0.0
 40
0.0100791067738375
 50
138.4924088230613961
 51
208.0001383273215936
  0
ARC
  5
79C0
  8
0
 10
4439.3764014821417732
 20
245.6245078136134055
 30
0.0
 40
0.0134975813507575
 50
222.4549725909058111
 51
317.5359174241443156
  0
ARC
  5
79C1
  8
0
 10
4439.351143993302685
 20
245.611830446446703
 30
0.0
 40
0.0134706669107709
 50
42.3297156481674932
 51
137.661174357680693
  0
ARC
  5
79C2
  8
0
 10
4439.3511928142870602
 20
245.6164400905595073
 30
0.0
 40
0.013314332462932
 50
211.4583282306847138
 51
321.3736889723077184
  0
ARC
  5
79C3
  8
0
 10
4439.3535767685589235
 20
245.6142159096783928
 30
0.0
 40
0.0100665785822687
 50
322.7936229079281816
 51
41.6164796396749921
  0
ARC
  5
79C4
  8
0
 10
4439.348734734620848
 20
245.6142235049543103
 30
0.0
 40
0.0100791067738375
 50
138.4924088230613961
 51
208.0001383273215936
  0
ARC
  5
79C5
  8
0
 10
4439.3511454388999482
 20
245.6300141336118088
 30
0.0
 40
0.0134975813507575
 50
222.4549725909058111
 51
317.5359174241443156
  0
ARC
  5
79C6
  8
0
 10
4439.3261155608033732
 20
245.620892282198696
 30
0.0
 40
0.0134706669107709
 50
42.3297156481674932
 51
137.661174357680693
  0
ARC
  5
79C7
  8
0
 10
4439.3261643817868389
 20
245.6255019263115003
 30
0.0
 40
0.013314332462932
 50
211.4583282306847138
 51
321.3736889723077184
  0
ARC
  5
79C8
  8
0
 10
4439.3285483360596118
 20
245.6232777454304141
 30
0.0
 40
0.0100665785822687
 50
322.7936229079281816
 51
41.6164796396749921
  0
ARC
  5
79C9
  8
0
 10
4439.3237063021206268
 20
245.6232853407063033
 30
0.0
 40
0.0100791067738375
 50
138.4924088230613961
 51
208.0001383273215936
  0
ARC
  5
79CA
  8
0
 10
4439.326117006399727
 20
245.6390759693638017
 30
0.0
 40
0.0134975813507575
 50
222.4549725909058111
 51
317.5359174241443156
  0
ARC
  5
79CB
  8
0
 10
4439.303574739297801
 20
245.6332497959378998
 30
0.0
 40
0.0134706669107709
 50
42.3297156481674932
 51
137.661174357680693
  0
ARC
  5
79CC
  8
0
 10
4439.3036235602821762
 20
245.6378594400507041
 30
0.0
 40
0.013314332462932
 50
211.4583282306847138
 51
321.3736889723077184
  0
ARC
  5
79CD
  8
0
 10
4439.306007514554949
 20
245.6356352591695895
 30
0.0
 40
0.0100665785822687
 50
322.7936229079281816
 51
41.6164796396749921
  0
ARC
  5
79CE
  8
0
 10
4439.301165480615964
 20
245.6356428544455071
 30
0.0
 40
0.0100791067738375
 50
138.4924088230613961
 51
208.0001383273215936
  0
ARC
  5
79CF
  8
0
 10
4439.3035761848950642
 20
245.6514334831028918
 30
0.0
 40
0.0134975813507575
 50
222.4549725909058111
 51
317.5359174241443156
  0
ARC
  5
79D0
  8
0
 10
4439.2833335099458054
 20
245.6486165371617858
 30
0.0
 40
0.0134706669107709
 50
42.3297156481674932
 51
137.661174357680693
  0
ARC
  5
79D1
  8
0
 10
4439.2833823309301806
 20
245.6532261812745901
 30
0.0
 40
0.013314332462932
 50
211.4583282306847138
 51
321.3736889723077184
  0
ARC
  5
79D2
  8
0
 10
4439.2857662852029534
 20
245.651002000393504
 30
0.0
 40
0.0100665785822687
 50
322.7936229079281816
 51
41.6164796396749921
  0
ARC
  5
79D3
  8
0
 10
4439.2809242512639685
 20
245.6510095956693078
 30
0.0
 40
0.0100791067738375
 50
138.4924088230613961
 51
208.0001383273215936
  0
ARC
  5
79D4
  8
0
 10
4439.2833349555421592
 20
245.6668002243268063
 30
0.0
 40
0.0134975813507575
 50
222.4549725909058111
 51
317.5359174241443156
  0
ARC
  5
79D5
  8
0
 10
4439.2664146887291281
 20
245.6666102482525105
 30
0.0
 40
0.0134706669107709
 50
42.3297156481674932
 51
137.661174357680693
  0
ARC
  5
79D6
  8
0
 10
4439.2664635097125938
 20
245.6712198923652863
 30
0.0
 40
0.013314332462932
 50
211.4583282306847138
 51
321.3736889723077184
  0
ARC
  5
79D7
  8
0
 10
4439.2688474639862761
 20
245.6689957114842002
 30
0.0
 40
0.0100665785822687
 50
322.7936229079281816
 51
41.6164796396749921
  0
ARC
  5
79D8
  8
0
 10
4439.2640054300472912
 20
245.6690033067600893
 30
0.0
 40
0.0100791067738375
 50
138.4924088230613961
 51
208.0001383273215936
  0
ARC
  5
79D9
  8
0
 10
4439.2664161343263913
 20
245.6847939354175878
 30
0.0
 40
0.0134975813507575
 50
222.4549725909058111
 51
317.5359174241443156
  0
ARC
  5
79DA
  8
0
 10
4439.2520157094977549
 20
245.6867850534636091
 30
0.0
 40
0.0134706669107709
 50
42.3297156481674932
 51
137.661174357680693
  0
ARC
  5
79DB
  8
0
 10
4439.2520645304812206
 20
245.6913946975764134
 30
0.0
 40
0.013314332462932
 50
211.4583282306847138
 51
321.3736889723077184
  0
ARC
  5
79DC
  8
0
 10
4439.2544484847539934
 20
245.6891705166952988
 30
0.0
 40
0.0100665785822687
 50
322.7936229079281816
 51
41.6164796396749921
  0
ARC
  5
79DD
  8
0
 10
4439.2496064508150084
 20
245.6891781119711879
 30
0.0
 40
0.0100791067738375
 50
138.4924088230613961
 51
208.0001383273215936
  0
ARC
  5
79DE
  8
0
 10
4439.2520171550931991
 20
245.7049687406286012
 30
0.0
 40
0.0134975813507575
 50
222.4549725909058111
 51
317.5359174241443156
  0
ARC
  5
79DF
  8
0
 10
4439.2422530258027109
 20
245.7086462263877138
 30
0.0
 40
0.0134706669107709
 50
42.3297156481674932
 51
137.661174357680693
  0
ARC
  5
79E0
  8
0
 10
4439.2423018467852671
 20
245.7132558705004897
 30
0.0
 40
0.013314332462932
 50
211.4583282306847138
 51
321.3736889723077184
  0
ARC
  5
79E1
  8
0
 10
4439.2446858010589494
 20
245.7110316896194036
 30
0.0
 40
0.0100665785822687
 50
322.7936229079281816
 51
41.6164796396749921
  0
ARC
  5
79E2
  8
0
 10
4439.239843767119055
 20
245.7110392848952927
 30
0.0
 40
0.0100791067738375
 50
138.4924088230613961
 51
208.0001383273215936
  0
ARC
  5
79E3
  8
0
 10
4439.2422544713990646
 20
245.7268299135527059
 30
0.0
 40
0.0134975813507575
 50
222.4549725909058111
 51
317.5359174241443156
  0
ARC
  5
79E4
  8
0
 10
4439.2350871162398107
 20
245.7316704215317031
 30
0.0
 40
0.0134706669107709
 50
42.3297156481674932
 51
137.661174357680693
  0
ARC
  5
79E5
  8
0
 10
4439.2351359372232764
 20
245.7362800656445074
 30
0.0
 40
0.013314332462932
 50
211.4583282306847138
 51
321.3736889723077184
  0
ARC
  5
79E6
  8
0
 10
4439.2375198914960492
 20
245.7340558847635066
 30
0.0
 40
0.0100665785822687
 50
322.7936229079281816
 51
41.6164796396749921
  0
ARC
  5
79E7
  8
0
 10
4439.2326778575570643
 20
245.7340634800393104
 30
0.0
 40
0.0100791067738375
 50
138.4924088230613961
 51
208.0001383273215936
  0
ARC
  5
79E8
  8
0
 10
4439.2350885618361644
 20
245.7498541086968089
 30
0.0
 40
0.0134975813507575
 50
222.4549725909058111
 51
317.5359174241443156
  0
ARC
  5
79E9
  8
0
 10
4439.2344236634080517
 20
245.7552597934092944
 30
0.0
 40
0.0134706669107709
 50
42.3297156481674932
 51
137.661174357680693
  0
ARC
  5
79EA
  8
0
 10
4439.2344724843906079
 20
245.7598694375220987
 30
0.0
 40
0.013314332462932
 50
211.4583282306847138
 51
321.3736889723077184
  0
ARC
  5
79EB
  8
0
 10
4439.2368564386642902
 20
245.7576452566410126
 30
0.0
 40
0.0100665785822687
 50
322.7936229079281816
 51
41.6164796396749921
  0
ARC
  5
79EC
  8
0
 10
4439.2320144047253052
 20
245.7576528519169017
 30
0.0
 40
0.0100791067738375
 50
138.4924088230613961
 51
208.0001383273215936
  0
ARC
  5
79ED
  8
0
 10
4439.2344251090025864
 20
245.7734434805744002
 30
0.0
 40
0.0134975813507575
 50
222.4549725909058111
 51
317.5359174241443156
  0
ARC
  5
79EE
  8
0
 10
4439.2349262545430975
 20
245.7788575935693984
 30
0.0
 40
0.0134706669107709
 50
42.3297156481674932
 51
137.661174357680693
  0
ARC
  5
79EF
  8
0
 10
4439.2349750755256537
 20
245.7834672376822027
 30
0.0
 40
0.013314332462932
 50
211.4583282306847138
 51
321.3736889723077184
  0
ARC
  5
79F0
  8
0
 10
4439.237359029799336
 20
245.7812430568012019
 30
0.0
 40
0.0100665785822687
 50
322.7936229079281816
 51
41.6164796396749921
  0
ARC
  5
79F1
  8
0
 10
4439.232516995860351
 20
245.7812506520770057
 30
0.0
 40
0.0100791067738375
 50
138.4924088230613961
 51
208.0001383273215936
  0
ARC
  5
79F2
  8
0
 10
4439.2349277001394512
 20
245.7970412807345042
 30
0.0
 40
0.0134975813507575
 50
222.4549725909058111
 51
317.5359174241443156
  0
ARC
  5
79F3
  8
0
 10
4439.2417900644340989
 20
245.8018408168715041
 30
0.0
 40
0.0134706669107709
 50
42.3297156481674932
 51
137.661174357680693
  0
ARC
  5
79F4
  8
0
 10
4439.2418388854175646
 20
245.8064504609843084
 30
0.0
 40
0.013314332462932
 50
211.4583282306847138
 51
321.3736889723077184
  0
ARC
  5
79F5
  8
0
 10
4439.2442228396903374
 20
245.8042262801031939
 30
0.0
 40
0.0100665785822687
 50
322.7936229079281816
 51
41.6164796396749921
  0
ARC
  5
79F6
  8
0
 10
4439.2393808057513525
 20
245.8042338753791114
 30
0.0
 40
0.0100791067738375
 50
138.4924088230613961
 51
208.0001383273215936
  0
ARC
  5
79F7
  8
0
 10
4439.2417915100286336
 20
245.8200245040364962
 30
0.0
 40
0.0134975813507575
 50
222.4549725909058111
 51
317.5359174241443156
  0
ARC
  5
79F8
  8
0
 10
4439.2519999863561679
 20
245.8237014386405974
 30
0.0
 40
0.0134706669107709
 50
42.3297156481674932
 51
137.661174357680693
  0
ARC
  5
79F9
  8
0
 10
4439.2520488073387241
 20
245.8283110827534017
 30
0.0
 40
0.013314332462932
 50
211.4583282306847138
 51
321.3736889723077184
  0
ARC
  5
79FA
  8
0
 10
4439.2544327616142255
 20
245.8260869018722872
 30
0.0
 40
0.0100665785822687
 50
322.7936229079281816
 51
41.6164796396749921
  0
ARC
  5
79FB
  8
0
 10
4439.249590727674331
 20
245.8260944971482047
 30
0.0
 40
0.0100791067738375
 50
138.4924088230613961
 51
208.0001383273215936
  0
ARC
  5
79FC
  8
0
 10
4439.2520014319516122
 20
245.8418851258055895
 30
0.0
 40
0.0134975813507575
 50
222.4549725909058111
 51
317.5359174241443156
  0
ARC
  5
79FD
  8
0
 10
4439.2657307223244061
 20
245.8438815045905983
 30
0.0
 40
0.0134706669107709
 50
42.3297156481674932
 51
137.661174357680693
  0
ARC
  5
79FE
  8
0
 10
4439.2657795433069623
 20
245.8484911487032889
 30
0.0
 40
0.013314332462932
 50
211.4583282306847138
 51
321.3736889723077184
  0
ARC
  5
79FF
  8
0
 10
4439.2681634975806446
 20
245.8462669678222881
 30
0.0
 40
0.0100665785822687
 50
322.7936229079281816
 51
41.6164796396749921
  0
ARC
  5
7A00
  8
0
 10
4439.2633214636407502
 20
245.8462745630980919
 30
0.0
 40
0.0100791067738375
 50
138.4924088230613961
 51
208.0001383273215936
  0
ARC
  5
7A01
  8
0
 10
4439.2657321679198503
 20
245.8620651917555904
 30
0.0
 40
0.0134975813507575
 50
222.4549725909058111
 51
317.5359174241443156
  0
ARC
  5
7A02
  8
0
 10
4439.2833173648095908
 20
245.8618686419951018
 30
0.0
 40
0.0134706669107709
 50
42.3297156481674932
 51
137.661174357680693
  0
ARC
  5
7A03
  8
0
 10
4439.2833661857948755
 20
245.8664782861077924
 30
0.0
 40
0.013314332462932
 50
211.4583282306847138
 51
321.3736889723077184
  0
ARC
  5
7A04
  8
0
 10
4439.2857501400676483
 20
245.8642541052267916
 30
0.0
 40
0.0100665785822687
 50
322.7936229079281816
 51
41.6164796396749921
  0
ARC
  5
7A05
  8
0
 10
4439.2809081061286633
 20
245.8642617005025954
 30
0.0
 40
0.0100791067738375
 50
138.4924088230613961
 51
208.0001383273215936
  0
ARC
  5
7A06
  8
0
 10
4439.283318810406854
 20
245.8800523291602076
 30
0.0
 40
0.0134975813507575
 50
222.4549725909058111
 51
317.5359174241443156
  0
ARC
  5
7A07
  8
0
 10
4439.3035530633687813
 20
245.8772365456904936
 30
0.0
 40
0.0134706669107709
 50
42.3297156481674932
 51
137.661174357680693
  0
ARC
  5
7A08
  8
0
 10
4439.303601884352247
 20
245.8818461898032979
 30
0.0
 40
0.013314332462932
 50
211.4583282306847138
 51
321.3736889723077184
  0
ARC
  5
7A09
  8
0
 10
4439.3059858386250198
 20
245.8796220089222118
 30
0.0
 40
0.0100665785822687
 50
322.7936229079281816
 51
41.6164796396749921
  0
ARC
  5
7A0A
  8
0
 10
4439.3011438046860349
 20
245.8796296041981009
 30
0.0
 40
0.0100791067738375
 50
138.4924088230613961
 51
208.0001383273215936
  0
ARC
  5
7A0B
  8
0
 10
4439.3035545089642255
 20
245.8954202328555994
 30
0.0
 40
0.0134975813507575
 50
222.4549725909058111
 51
317.5359174241443156
  0
ARC
  5
7A0C
  8
0
 10
4439.3263171396101825
 20
245.8895998533382112
 30
0.0
 40
0.0134706669107709
 50
42.3297156481674932
 51
137.661174357680693
  0
ARC
  5
7A0D
  8
0
 10
4439.3263659605927387
 20
245.8942094974509871
 30
0.0
 40
0.013314332462932
 50
211.4583282306847138
 51
321.3736889723077184
  0
ARC
  5
7A0E
  8
0
 10
4439.3287499148673305
 20
245.891985316569901
 30
0.0
 40
0.0100665785822687
 50
322.7936229079281816
 51
41.6164796396749921
  0
ARC
  5
7A0F
  8
0
 10
4439.3239078809283455
 20
245.8919929118457901
 30
0.0
 40
0.0100791067738375
 50
138.4924088230613961
 51
208.0001383273215936
  0
ARC
  5
7A10
  8
0
 10
4439.3263185852056267
 20
245.9077835405032033
 30
0.0
 40
0.0134975813507575
 50
222.4549725909058111
 51
317.5359174241443156
  0
ARC
  5
7A11
  8
0
 10
4439.3512596919836142
 20
245.8986538514081133
 30
0.0
 40
0.0134706669107709
 50
42.3297156481674932
 51
137.661174357680693
  0
ARC
  5
7A12
  8
0
 10
4439.3513085129679894
 20
245.9032634955208891
 30
0.0
 40
0.013314332462932
 50
211.4583282306847138
 51
321.3736889723077184
  0
ARC
  5
7A13
  8
0
 10
4439.3536924672407622
 20
245.901039314639803
 30
0.0
 40
0.0100665785822687
 50
322.7936229079281816
 51
41.6164796396749921
  0
ARC
  5
7A14
  8
0
 10
4439.3488504333017772
 20
245.9010469099156921
 30
0.0
 40
0.0100791067738375
 50
138.4924088230613961
 51
208.0001383273215936
  0
ARC
  5
7A15
  8
0
 10
4439.3512611375799679
 20
245.9168375385731906
 30
0.0
 40
0.0134975813507575
 50
222.4549725909058111
 51
317.5359174241443156
  0
ARC
  5
7A16
  8
0
 10
4439.3776033979665954
 20
245.9041855680567039
 30
0.0
 40
0.0134706669107709
 50
42.3297156481674932
 51
137.661174357680693
  0
ARC
  5
7A17
  8
0
 10
4439.3776522189500611
 20
245.9087952121695082
 30
0.0
 40
0.013314332462932
 50
211.4583282306847138
 51
321.3736889723077184
  0
ARC
  5
7A18
  8
0
 10
4439.3800361732237434
 20
245.9065710312883937
 30
0.0
 40
0.0100665785822687
 50
322.7936229079281816
 51
41.6164796396749921
  0
ARC
  5
7A19
  8
0
 10
4439.3751941392847584
 20
245.9065786265643112
 30
0.0
 40
0.0100791067738375
 50
138.4924088230613961
 51
208.0001383273215936
  0
ARC
  5
7A1A
  8
0
 10
4439.3776048435629491
 20
245.922369255221696
 30
0.0
 40
0.0134975813507575
 50
222.4549725909058111
 51
317.5359174241443156
  0
ARC
  5
7A1B
  8
0
 10
4439.4037015162921307
 20
245.9060331313270922
 30
0.0
 40
0.0134706669107709
 50
42.3297156481674932
 51
137.661174357680693
  0
ARC
  5
7A1C
  8
0
 10
4439.4037503372755964
 20
245.9106427754398965
 30
0.0
 40
0.013314332462932
 50
211.4583282306847138
 51
321.3736889723077184
  0
ARC
  5
7A1D
  8
0
 10
4439.4061342915492787
 20
245.9084185945588104
 30
0.0
 40
0.0100665785822687
 50
322.7936229079281816
 51
41.6164796396749921
  0
ARC
  5
7A1E
  8
0
 10
4439.4012922576102937
 20
245.9084261898346995
 30
0.0
 40
0.0100791067738375
 50
138.4924088230613961
 51
208.0001383273215936
  0
ARC
  5
7A1F
  8
0
 10
4439.4037029618893939
 20
245.9242168184921979
 30
0.0
 40
0.0134975813507575
 50
222.4549725909058111
 51
317.5359174241443156
  0
ARC
  5
7A20
  8
0
 10
4439.4037008749246525
 20
245.9401830484565892
 30
0.0
 40
0.0134706669107709
 50
42.3297156481674932
 51
137.661174357680693
  0
ARC
  5
7A21
  8
0
 10
4439.4037496959090277
 20
245.9447926925693935
 30
0.0
 40
0.013314332462932
 50
211.4583282306847138
 51
321.3736889723077184
  0
ARC
  5
7A22
  8
0
 10
4439.4061336501818005
 20
245.9425685116883074
 30
0.0
 40
0.0100665785822687
 50
322.7936229079281816
 51
41.6164796396749921
  0
ARC
  5
7A23
  8
0
 10
4439.4012916162428155
 20
245.9425761069641965
 30
0.0
 40
0.0100791067738375
 50
138.4924088230613961
 51
208.0001383273215936
  0
ARC
  5
7A24
  8
0
 10
4439.4037023205219157
 20
245.9583667356216949
 30
0.0
 40
0.0134975813507575
 50
222.4549725909058111
 51
317.5359174241443156
  0
ARC
  5
7A25
  8
0
 10
4439.374734891938715
 20
245.9383797078249074
 30
0.0
 40
0.0134706669107709
 50
42.3297156481674932
 51
137.661174357680693
  0
ARC
  5
7A26
  8
0
 10
4439.3747837129230902
 20
245.9429893519377117
 30
0.0
 40
0.013314332462932
 50
211.4583282306847138
 51
321.3736889723077184
  0
ARC
  5
7A27
  8
0
 10
4439.377167667195863
 20
245.9407651710565972
 30
0.0
 40
0.0100665785822687
 50
322.7936229079281816
 51
41.6164796396749921
  0
ARC
  5
7A28
  8
0
 10
4439.3723256332559686
 20
245.9407727663324863
 30
0.0
 40
0.0100791067738375
 50
138.4924088230613961
 51
208.0001383273215936
  0
ARC
  5
7A29
  8
0
 10
4439.3747363375350687
 20
245.9565633949900132
 30
0.0
 40
0.0134975813507575
 50
222.4549725909058111
 51
317.5359174241443156
  0
ARC
  5
7A2A
  8
0
 10
4439.346334722514257
 20
245.9330042336976021
 30
0.0
 40
0.0134706669107709
 50
42.3297156481674932
 51
137.661174357680693
  0
ARC
  5
7A2B
  8
0
 10
4439.3463835434959037
 20
245.9376138778104064
 30
0.0
 40
0.013314332462932
 50
211.4583282306847138
 51
321.3736889723077184
  0
ARC
  5
7A2C
  8
0
 10
4439.348767497769586
 20
245.9353896969292919
 30
0.0
 40
0.0100665785822687
 50
322.7936229079281816
 51
41.6164796396749921
  0
ARC
  5
7A2D
  8
0
 10
4439.3439254638296916
 20
245.9353972922052094
 30
0.0
 40
0.0100791067738375
 50
138.4924088230613961
 51
208.0001383273215936
  0
ARC
  5
7A2E
  8
0
 10
4439.3463361681087918
 20
245.9511879208625942
 30
0.0
 40
0.0134975813507575
 50
222.4549725909058111
 51
317.5359174241443156
  0
ARC
  5
7A2F
  8
0
 10
4439.3187232638756541
 20
245.9241572942293033
 30
0.0
 40
0.0134706669107709
 50
42.3297156481674932
 51
137.661174357680693
  0
ARC
  5
7A30
  8
0
 10
4439.3187720848600293
 20
245.9287669383419939
 30
0.0
 40
0.013314332462932
 50
211.4583282306847138
 51
321.3736889723077184
  0
ARC
  5
7A31
  8
0
 10
4439.3211560391328021
 20
245.926542757460993
 30
0.0
 40
0.0100665785822687
 50
322.7936229079281816
 51
41.6164796396749921
  0
ARC
  5
7A32
  8
0
 10
4439.3163140051938171
 20
245.9265503527367969
 30
0.0
 40
0.0100791067738375
 50
138.4924088230613961
 51
208.0001383273215936
  0
ARC
  5
7A33
  8
0
 10
4439.3187247094720078
 20
245.9423409813942953
 30
0.0
 40
0.0134975813507575
 50
222.4549725909058111
 51
317.5359174241443156
  0
ARC
  5
7A34
  8
0
 10
4439.2927839573139863
 20
245.912014512272691
 30
0.0
 40
0.0134706669107709
 50
42.3297156481674932
 51
137.661174357680693
  0
ARC
  5
7A35
  8
0
 10
4439.292832778297452
 20
245.9166241563854953
 30
0.0
 40
0.013314332462932
 50
211.4583282306847138
 51
321.3736889723077184
  0
ARC
  5
7A36
  8
0
 10
4439.2952167325702248
 20
245.9143999755044092
 30
0.0
 40
0.0100665785822687
 50
322.7936229079281816
 51
41.6164796396749921
  0
ARC
  5
7A37
  8
0
 10
4439.2903746986312399
 20
245.9144075707802983
 30
0.0
 40
0.0100791067738375
 50
138.4924088230613961
 51
208.0001383273215936
  0
ARC
  5
7A38
  8
0
 10
4439.2927854029094306
 20
245.9301981994377968
 30
0.0
 40
0.0134975813507575
 50
222.4549725909058111
 51
317.5359174241443156
  0
ARC
  5
7A39
  8
0
 10
4439.2699990188275478
 20
245.8968252129710947
 30
0.0
 40
0.0134706669107709
 50
42.3297156481674932
 51
137.661174357680693
  0
ARC
  5
7A3A
  8
0
 10
4439.2700478398110135
 20
245.901434857083899
 30
0.0
 40
0.013314332462932
 50
211.4583282306847138
 51
321.3736889723077184
  0
ARC
  5
7A3B
  8
0
 10
4439.2724317940837864
 20
245.8992106762026992
 30
0.0
 40
0.0100665785822687
 50
322.7936229079281816
 51
41.6164796396749921
  0
ARC
  5
7A3C
  8
0
 10
4439.2675897601448014
 20
245.8992182714785883
 30
0.0
 40
0.0100791067738375
 50
138.4924088230613961
 51
208.0001383273215936
  0
ARC
  5
7A3D
  8
0
 10
4439.2700004644239016
 20
245.9150089001360868
 30
0.0
 40
0.0134975813507575
 50
222.4549725909058111
 51
317.5359174241443156
  0
ARC
  5
7A3E
  8
0
 10
4439.2483841851917532
 20
245.8788449842209047
 30
0.0
 40
0.0134706669107709
 50
42.3297156481674932
 51
137.661174357680693
  0
ARC
  5
7A3F
  8
0
 10
4439.2484330061752189
 20
245.883454628333709
 30
0.0
 40
0.013314332462932
 50
211.4583282306847138
 51
321.3736889723077184
  0
ARC
  5
7A40
  8
0
 10
4439.2508169604479917
 20
245.8812304474525945
 30
0.0
 40
0.0100665785822687
 50
322.7936229079281816
 51
41.6164796396749921
  0
ARC
  5
7A41
  8
0
 10
4439.2459749265090068
 20
245.881238042728512
 30
0.0
 40
0.0100791067738375
 50
138.4924088230613961
 51
208.0001383273215936
  0
ARC
  5
7A42
  8
0
 10
4439.2483856307862879
 20
245.8970286713860105
 30
0.0
 40
0.0134975813507575
 50
222.4549725909058111
 51
317.5359174241443156
  0
ARC
  5
7A43
  8
0
 10
4439.2304483546831761
 20
245.8584640097537886
 30
0.0
 40
0.0134706669107709
 50
42.3297156481674932
 51
137.661174357680693
  0
ARC
  5
7A44
  8
0
 10
4439.2304971756666419
 20
245.8630736538665076
 30
0.0
 40
0.013314332462932
 50
211.4583282306847138
 51
321.3736889723077184
  0
ARC
  5
7A45
  8
0
 10
4439.2328811299412337
 20
245.8608494729855067
 30
0.0
 40
0.0100665785822687
 50
322.7936229079281816
 51
41.6164796396749921
  0
ARC
  5
7A46
  8
0
 10
4439.2280390960013392
 20
245.8608570682613106
 30
0.0
 40
0.0100791067738375
 50
138.4924088230613961
 51
208.0001383273215936
  0
ARC
  5
7A47
  8
0
 10
4439.2304498002786204
 20
245.8766476969188091
 30
0.0
 40
0.0134975813507575
 50
222.4549725909058111
 51
317.5359174241443156
  0
ARC
  5
7A48
  8
0
 10
4439.215642545666924
 20
245.8360670760775122
 30
0.0
 40
0.0134706669107709
 50
42.3297156481674932
 51
137.661174357680693
  0
ARC
  5
7A49
  8
0
 10
4439.2156913666503897
 20
245.8406767201902028
 30
0.0
 40
0.013314332462932
 50
211.4583282306847138
 51
321.3736889723077184
  0
ARC
  5
7A4A
  8
0
 10
4439.2180753209231625
 20
245.8384525393092019
 30
0.0
 40
0.0100665785822687
 50
322.7936229079281816
 51
41.6164796396749921
  0
ARC
  5
7A4B
  8
0
 10
4439.2132332869841775
 20
245.8384601345850911
 30
0.0
 40
0.0100791067738375
 50
138.4924088230613961
 51
208.0001383273215936
  0
ARC
  5
7A4C
  8
0
 10
4439.2156439912632777
 20
245.8542507632425043
 30
0.0
 40
0.0134975813507575
 50
222.4549725909058111
 51
317.5359174241443156
  0
ARC
  5
7A4D
  8
0
 10
4439.2050533761903353
 20
245.8120857921038862
 30
0.0
 40
0.0134706669107709
 50
42.3297156481674932
 51
137.661174357680693
  0
ARC
  5
7A4E
  8
0
 10
4439.205102197173801
 20
245.8166954362166052
 30
0.0
 40
0.013314332462932
 50
211.4583282306847138
 51
321.3736889723077184
  0
ARC
  5
7A4F
  8
0
 10
4439.2074861514483928
 20
245.8144712553354907
 30
0.0
 40
0.0100665785822687
 50
322.7936229079281816
 51
41.6164796396749921
  0
ARC
  5
7A50
  8
0
 10
4439.2026441175075888
 20
245.8144788506114082
 30
0.0
 40
0.0100791067738375
 50
138.4924088230613961
 51
208.0001383273215936
  0
ARC
  5
7A51
  8
0
 10
4439.205054821786689
 20
245.8302694792689067
 30
0.0
 40
0.0134975813507575
 50
222.4549725909058111
 51
317.5359174241443156
  0
ARC
  5
7A52
  8
0
 10
4439.1979201187559738
 20
245.7869899834815897
 30
0.0
 40
0.0134706669107709
 50
42.3297156481674932
 51
137.661174357680693
  0
ARC
  5
7A53
  8
0
 10
4439.197968939740349
 20
245.791599627594394
 30
0.0
 40
0.013314332462932
 50
211.4583282306847138
 51
321.3736889723077184
  0
ARC
  5
7A54
  8
0
 10
4439.2003528940122123
 20
245.7893754467133078
 30
0.0
 40
0.0100665785822687
 50
322.7936229079281816
 51
41.6164796396749921
  0
ARC
  5
7A55
  8
0
 10
4439.1955108600732274
 20
245.7893830419891117
 30
0.0
 40
0.0100791067738375
 50
138.4924088230613961
 51
208.0001383273215936
  0
ARC
  5
7A56
  8
0
 10
4439.1979215643523276
 20
245.8051736706466102
 30
0.0
 40
0.0134975813507575
 50
222.4549725909058111
 51
317.5359174241443156
  0
ARC
  5
7A57
  8
0
 10
4439.1946304776847683
 20
245.7612691720460134
 30
0.0
 40
0.0134706669107709
 50
42.3297156481674932
 51
137.661174357680693
  0
ARC
  5
7A58
  8
0
 10
4439.1946792986691435
 20
245.765878816158704
 30
0.0
 40
0.013314332462932
 50
211.4583282306847138
 51
321.3736889723077184
  0
ARC
  5
7A59
  8
0
 10
4439.1970632529419163
 20
245.7636546352777032
 30
0.0
 40
0.0100665785822687
 50
322.7936229079281816
 51
41.6164796396749921
  0
ARC
  5
7A5A
  8
0
 10
4439.1922212190029313
 20
245.763662230553507
 30
0.0
 40
0.0100791067738375
 50
138.4924088230613961
 51
208.0001383273215936
  0
ARC
  5
7A5B
  8
0
 10
4439.194631923281122
 20
245.7794528592110055
 30
0.0
 40
0.0134975813507575
 50
222.4549725909058111
 51
317.5359174241443156
  0
ARC
  5
7A5C
  8
0
 10
4439.1964532178199079
 20
245.7354324060100055
 30
0.0
 40
0.0134706669107709
 50
42.3297156481674932
 51
137.661174357680693
  0
ARC
  5
7A5D
  8
0
 10
4439.1965020388033736
 20
245.7400420501226961
 30
0.0
 40
0.013314332462932
 50
211.4583282306847138
 51
321.3736889723077184
  0
ARC
  5
7A5E
  8
0
 10
4439.1988859930761464
 20
245.7378178692416952
 30
0.0
 40
0.0100665785822687
 50
322.7936229079281816
 51
41.6164796396749921
  0
ARC
  5
7A5F
  8
0
 10
4439.1940439591371614
 20
245.7378254645174991
 30
0.0
 40
0.0100791067738375
 50
138.4924088230613961
 51
208.0001383273215936
  0
ARC
  5
7A60
  8
0
 10
4439.1964546634162616
 20
245.7536160931749976
 30
0.0
 40
0.0134975813507575
 50
222.4549725909058111
 51
317.5359174241443156
  0
ARC
  5
7A61
  8
0
 10
4439.2014556717213054
 20
245.7107577404399024
 30
0.0
 40
0.0134706669107709
 50
42.3297156481674932
 51
137.661174357680693
  0
ARC
  5
7A62
  8
0
 10
4439.2015044927056806
 20
245.715367384552593
 30
0.0
 40
0.013314332462932
 50
211.4583282306847138
 51
321.3736889723077184
  0
ARC
  5
7A63
  8
0
 10
4439.2038884469784534
 20
245.7131432036715921
 30
0.0
 40
0.0100665785822687
 50
322.7936229079281816
 51
41.6164796396749921
  0
ARC
  5
7A64
  8
0
 10
4439.199046413038559
 20
245.713150798947396
 30
0.0
 40
0.0100791067738375
 50
138.4924088230613961
 51
208.0001383273215936
  0
ARC
  5
7A65
  8
0
 10
4439.2014571173167496
 20
245.7289414276048944
 30
0.0
 40
0.0134975813507575
 50
222.4549725909058111
 51
317.5359174241443156
  0
ARC
  5
7A66
  8
0
 10
4439.2121420682797179
 20
245.6855208914547006
 30
0.0
 40
0.0134706669107709
 50
42.3297156481674932
 51
137.661174357680693
  0
ARC
  5
7A67
  8
0
 10
4439.2121908892631836
 20
245.6901305355675049
 30
0.0
 40
0.013314332462932
 50
211.4583282306847138
 51
321.3736889723077184
  0
ARC
  5
7A68
  8
0
 10
4439.2145748435359565
 20
245.6879063546863904
 30
0.0
 40
0.0100665785822687
 50
322.7936229079281816
 51
41.6164796396749921
  0
ARC
  5
7A69
  8
0
 10
4439.209732809596062
 20
245.6879139499621942
 30
0.0
 40
0.0100791067738375
 50
138.4924088230613961
 51
208.0001383273215936
  0
ARC
  5
7A6A
  8
0
 10
4439.2121435138760717
 20
245.7037045786196927
 30
0.0
 40
0.0134975813507575
 50
222.4549725909058111
 51
317.5359174241443156
  0
ARC
  5
7A6B
  8
0
 10
4439.2231347635479324
 20
245.6626938432708016
 30
0.0
 40
0.0134706669107709
 50
42.3297156481674932
 51
137.661174357680693
  0
ARC
  5
7A6C
  8
0
 10
4439.2231835845313981
 20
245.6673034873836059
 30
0.0
 40
0.013314332462932
 50
211.4583282306847138
 51
321.3736889723077184
  0
ARC
  5
7A6D
  8
0
 10
4439.2255675388041709
 20
245.6650793065024914
 30
0.0
 40
0.0100665785822687
 50
322.7936229079281816
 51
41.6164796396749921
  0
ARC
  5
7A6E
  8
0
 10
4439.2207255048651859
 20
245.6650869017784089
 30
0.0
 40
0.0100791067738375
 50
138.4924088230613961
 51
208.0001383273215936
  0
ARC
  5
7A6F
  8
0
 10
4439.2231362091442861
 20
245.6808775304357937
 30
0.0
 40
0.0134975813507575
 50
222.4549725909058111
 51
317.5359174241443156
  0
ARC
  5
7A70
  8
0
 10
4439.239185745431314
 20
245.6406643855193863
 30
0.0
 40
0.0134706669107709
 50
42.3297156481674932
 51
137.661174357680693
  0
ARC
  5
7A71
  8
0
 10
4439.2392345664147797
 20
245.6452740296321906
 30
0.0
 40
0.013314332462932
 50
211.4583282306847138
 51
321.3736889723077184
  0
ARC
  5
7A72
  8
0
 10
4439.2416185206875525
 20
245.6430498487511045
 30
0.0
 40
0.0100665785822687
 50
322.7936229079281816
 51
41.6164796396749921
  0
ARC
  5
7A73
  8
0
 10
4439.2367764867485675
 20
245.6430574440269936
 30
0.0
 40
0.0100791067738375
 50
138.4924088230613961
 51
208.0001383273215936
  0
ARC
  5
7A74
  8
0
 10
4439.2391871910267582
 20
245.6588480726844921
 30
0.0
 40
0.0134975813507575
 50
222.4549725909058111
 51
317.5359174241443156
  0
ARC
  5
7A75
  8
0
 10
4439.2585551303836837
 20
245.6214430892192127
 30
0.0
 40
0.0134706669107709
 50
42.3297156481674932
 51
137.661174357680693
  0
ARC
  5
7A76
  8
0
 10
4439.2586039513671494
 20
245.6260527333319885
 30
0.0
 40
0.013314332462932
 50
211.4583282306847138
 51
321.3736889723077184
  0
ARC
  5
7A77
  8
0
 10
4439.2609879056399222
 20
245.6238285524509024
 30
0.0
 40
0.0100665785822687
 50
322.7936229079281816
 51
41.6164796396749921
  0
ARC
  5
7A78
  8
0
 10
4439.2561458717009373
 20
245.6238361477267915
 30
0.0
 40
0.0100791067738375
 50
138.4924088230613961
 51
208.0001383273215936
  0
ARC
  5
7A79
  8
0
 10
4439.2585565759800375
 20
245.6396267763842047
 30
0.0
 40
0.0134975813507575
 50
222.4549725909058111
 51
317.5359174241443156
  0
ARC
  5
7A7A
  8
0
 10
4439.2804873212216989
 20
245.6048227692060095
 30
0.0
 40
0.0134706669107709
 50
42.3297156481674932
 51
137.661174357680693
  0
ARC
  5
7A7B
  8
0
 10
4439.2805361422060741
 20
245.6094324133188138
 30
0.0
 40
0.013314332462932
 50
211.4583282306847138
 51
321.3736889723077184
  0
ARC
  5
7A7C
  8
0
 10
4439.282920096478847
 20
245.6072082324376993
 30
0.0
 40
0.0100665785822687
 50
322.7936229079281816
 51
41.6164796396749921
  0
ARC
  5
7A7D
  8
0
 10
4439.278078062539862
 20
245.6072158277135884
 30
0.0
 40
0.0100791067738375
 50
138.4924088230613961
 51
208.0001383273215936
  0
ARC
  5
7A7E
  8
0
 10
4439.2804887668189622
 20
245.6230064563710016
 30
0.0
 40
0.0134975813507575
 50
222.4549725909058111
 51
317.5359174241443156
  0
ARC
  5
7A7F
  8
0
 10
4439.3053909152731649
 20
245.5911136198338909
 30
0.0
 40
0.0134706669107709
 50
42.3297156481674932
 51
137.661174357680693
  0
ARC
  5
7A80
  8
0
 10
4439.3054397362566306
 20
245.5957232639466952
 30
0.0
 40
0.013314332462932
 50
211.4583282306847138
 51
321.3736889723077184
  0
ARC
  5
7A81
  8
0
 10
4439.3078236905303129
 20
245.5934990830656091
 30
0.0
 40
0.0100665785822687
 50
322.7936229079281816
 51
41.6164796396749921
  0
ARC
  5
7A82
  8
0
 10
4439.3029816565913279
 20
245.5935066783414982
 30
0.0
 40
0.0100791067738375
 50
138.4924088230613961
 51
208.0001383273215936
  0
ARC
  5
7A83
  8
0
 10
4439.3053923608704281
 20
245.6092973069989966
 30
0.0
 40
0.0134975813507575
 50
222.4549725909058111
 51
317.5359174241443156
  0
ARC
  5
7A84
  8
0
 10
4439.3321400988888854
 20
245.5805951051108877
 30
0.0
 40
0.0134706669107709
 50
42.3297156481674932
 51
137.661174357680693
  0
ARC
  5
7A85
  8
0
 10
4439.3321889198723511
 20
245.585204749223692
 30
0.0
 40
0.013314332462932
 50
211.4583282306847138
 51
321.3736889723077184
  0
ARC
  5
7A86
  8
0
 10
4439.3345728741451239
 20
245.5829805683426059
 30
0.0
 40
0.0100665785822687
 50
322.7936229079281816
 51
41.6164796396749921
  0
ARC
  5
7A87
  8
0
 10
4439.3297308402052295
 20
245.582988163618495
 30
0.0
 40
0.0100791067738375
 50
138.4924088230613961
 51
208.0001383273215936
  0
ARC
  5
7A88
  8
0
 10
4439.3321415444843296
 20
245.5987787922759935
 30
0.0
 40
0.0134975813507575
 50
222.4549725909058111
 51
317.5359174241443156
  0
ARC
  5
7A89
  8
0
 10
4439.3604033253186572
 20
245.5734650101132104
 30
0.0
 40
0.0134706669107709
 50
42.3297156481674932
 51
137.661174357680693
  0
ARC
  5
7A8A
  8
0
 10
4439.3604521463021229
 20
245.578074654225901
 30
0.0
 40
0.013314332462932
 50
211.4583282306847138
 51
321.3736889723077184
  0
ARC
  5
7A8B
  8
0
 10
4439.3628361005758052
 20
245.5758504733449001
 30
0.0
 40
0.0100665785822687
 50
322.7936229079281816
 51
41.6164796396749921
  0
ARC
  5
7A8C
  8
0
 10
4439.3579940666359107
 20
245.575858068620704
 30
0.0
 40
0.0100791067738375
 50
138.4924088230613961
 51
208.0001383273215936
  0
ARC
  5
7A8D
  8
0
 10
4439.3604047709150109
 20
245.5916486972782025
 30
0.0
 40
0.0134975813507575
 50
222.4549725909058111
 51
317.5359174241443156
  0
ARC
  5
7A8E
  8
0
 10
4439.3895056619967363
 20
245.5698695335979949
 30
0.0
 40
0.0134706669107709
 50
42.3297156481674932
 51
137.661174357680693
  0
ARC
  5
7A8F
  8
0
 10
4439.3895544829811115
 20
245.5744791777107991
 30
0.0
 40
0.013314332462932
 50
211.4583282306847138
 51
321.3736889723077184
  0
ARC
  5
7A90
  8
0
 10
4439.3919384372547938
 20
245.572254996829713
 30
0.0
 40
0.0100665785822687
 50
322.7936229079281816
 51
41.6164796396749921
  0
ARC
  5
7A91
  8
0
 10
4439.3870964033139899
 20
245.5722625921056022
 30
0.0
 40
0.0100791067738375
 50
138.4924088230613961
 51
208.0001383273215936
  0
ARC
  5
7A92
  8
0
 10
4439.3895071075939995
 20
245.5880532207631006
 30
0.0
 40
0.0134975813507575
 50
222.4549725909058111
 51
317.5359174241443156
  0
ARC
  5
7A93
  8
0
 10
4439.4037028115217254
 20
245.7153258019214093
 30
0.0
 40
0.0134706669107709
 50
42.3297156481674932
 51
137.661174357680693
  0
ARC
  5
7A94
  8
0
 10
4439.4037516325061006
 20
245.7199354460342136
 30
0.0
 40
0.013314332462932
 50
211.4583282306847138
 51
321.3736889723077184
  0
ARC
  5
7A95
  8
0
 10
4439.4061355867788734
 20
245.717711265153099
 30
0.0
 40
0.0100665785822687
 50
322.7936229079281816
 51
41.6164796396749921
  0
ARC
  5
7A96
  8
0
 10
4439.4012935528389789
 20
245.7177188604289881
 30
0.0
 40
0.0100791067738375
 50
138.4924088230613961
 51
208.0001383273215936
  0
ARC
  5
7A97
  8
0
 10
4439.4037042571180791
 20
245.7335094890864013
 30
0.0
 40
0.0134975813507575
 50
222.4549725909058111
 51
317.5359174241443156
  0
ARC
  5
7A98
  8
0
 10
4439.396669627600204
 20
245.5335733171434072
 30
0.0
 40
0.0134706669107709
 50
42.3297156481674932
 51
137.661174357680693
  0
ARC
  5
7A99
  8
0
 10
4439.3967184485836697
 20
245.5381829612562115
 30
0.0
 40
0.013314332462932
 50
211.4583282306847138
 51
321.3736889723077184
  0
ARC
  5
7A9A
  8
0
 10
4439.399102402857352
 20
245.5359587803750969
 30
0.0
 40
0.0100665785822687
 50
322.7936229079281816
 51
41.6164796396749921
  0
ARC
  5
7A9B
  8
0
 10
4439.394260368918367
 20
245.535966375650986
 30
0.0
 40
0.0100791067738375
 50
138.4924088230613961
 51
208.0001383273215936
  0
ARC
  5
7A9C
  8
0
 10
4439.3966710731956482
 20
245.5517570043085129
 30
0.0
 40
0.0134975813507575
 50
222.4549725909058111
 51
317.5359174241443156
  0
ARC
  5
7A9D
  8
0
 10
4439.3646682454045731
 20
245.5361129921178076
 30
0.0
 40
0.0134706669107709
 50
42.3297156481674932
 51
137.661174357680693
  0
ARC
  5
7A9E
  8
0
 10
4439.3647170663880388
 20
245.5407226362306119
 30
0.0
 40
0.013314332462932
 50
211.4583282306847138
 51
321.3736889723077184
  0
ARC
  5
7A9F
  8
0
 10
4439.3671010206608116
 20
245.5384984553494974
 30
0.0
 40
0.0100665785822687
 50
322.7936229079281816
 51
41.6164796396749921
  0
ARC
  5
7AA0
  8
0
 10
4439.3622589867218267
 20
245.5385060506253012
 30
0.0
 40
0.0100791067738375
 50
138.4924088230613961
 51
208.0001383273215936
  0
ARC
  5
7AA1
  8
0
 10
4439.3646696910009268
 20
245.5542966792829134
 30
0.0
 40
0.0134975813507575
 50
222.4549725909058111
 51
317.5359174241443156
  0
ARC
  5
7AA2
  8
0
 10
4439.3353909263723835
 20
245.542061355258511
 30
0.0
 40
0.0134706669107709
 50
42.3297156481674932
 51
137.661174357680693
  0
ARC
  5
7AA3
  8
0
 10
4439.3354397473549398
 20
245.5466709993712868
 30
0.0
 40
0.013314332462932
 50
211.4583282306847138
 51
321.3736889723077184
  0
ARC
  5
7AA4
  8
0
 10
4439.3378237016277126
 20
245.544446818490286
 30
0.0
 40
0.0100665785822687
 50
322.7936229079281816
 51
41.6164796396749921
  0
ARC
  5
7AA5
  8
0
 10
4439.3329816676887276
 20
245.5444544137660898
 30
0.0
 40
0.0100791067738375
 50
138.4924088230613961
 51
208.0001383273215936
  0
ARC
  5
7AA6
  8
0
 10
4439.3353923719678278
 20
245.5602450424235883
 30
0.0
 40
0.0134975813507575
 50
222.4549725909058111
 51
317.5359174241443156
  0
ARC
  5
7AA7
  8
0
 10
4439.3029819020948707
 20
245.5515807903362884
 30
0.0
 40
0.0134706669107709
 50
42.3297156481674932
 51
137.661174357680693
  0
ARC
  5
7AA8
  8
0
 10
4439.3030307230783365
 20
245.5561904344490927
 30
0.0
 40
0.013314332462932
 50
211.4583282306847138
 51
321.3736889723077184
  0
ARC
  5
7AA9
  8
0
 10
4439.3054146773520188
 20
245.5539662535680066
 30
0.0
 40
0.0100665785822687
 50
322.7936229079281816
 51
41.6164796396749921
  0
ARC
  5
7AAA
  8
0
 10
4439.3005726434121243
 20
245.5539738488438957
 30
0.0
 40
0.0100791067738375
 50
138.4924088230613961
 51
208.0001383273215936
  0
ARC
  5
7AAB
  8
0
 10
4439.302983347690315
 20
245.5697644775013941
 30
0.0
 40
0.0134975813507575
 50
222.4549725909058111
 51
317.5359174241443156
  0
ARC
  5
7AAC
  8
0
 10
4439.2777186969497052
 20
245.563934251809286
 30
0.0
 40
0.0134706669107709
 50
42.3297156481674932
 51
137.661174357680693
  0
ARC
  5
7AAD
  8
0
 10
4439.2777675179349899
 20
245.5685438959220903
 30
0.0
 40
0.013314332462932
 50
211.4583282306847138
 51
321.3736889723077184
  0
ARC
  5
7AAE
  8
0
 10
4439.2801514722077627
 20
245.5663197150410042
 30
0.0
 40
0.0100665785822687
 50
322.7936229079281816
 51
41.6164796396749921
  0
ARC
  5
7AAF
  8
0
 10
4439.2753094382687777
 20
245.5663273103168933
 30
0.0
 40
0.0100791067738375
 50
138.4924088230613961
 51
208.0001383273215936
  0
ARC
  5
7AB0
  8
0
 10
4439.2777201425469684
 20
245.5821179389743918
 30
0.0
 40
0.0134975813507575
 50
222.4549725909058111
 51
317.5359174241443156
  0
ARC
  5
7AB1
  8
0
 10
4439.252999321205607
 20
245.5795988112992916
 30
0.0
 40
0.0134706669107709
 50
42.3297156481674932
 51
137.661174357680693
  0
ARC
  5
7AB2
  8
0
 10
4439.2530481421899822
 20
245.5842084554120959
 30
0.0
 40
0.013314332462932
 50
211.4583282306847138
 51
321.3736889723077184
  0
ARC
  5
7AB3
  8
0
 10
4439.255432096462755
 20
245.5819842745310098
 30
0.0
 40
0.0100665785822687
 50
322.7936229079281816
 51
41.6164796396749921
  0
ARC
  5
7AB4
  8
0
 10
4439.25059006252377
 20
245.5819918698068989
 30
0.0
 40
0.0100791067738375
 50
138.4924088230613961
 51
208.0001383273215936
  0
ARC
  5
7AB5
  8
0
 10
4439.2530007668028702
 20
245.5977824984643973
 30
0.0
 40
0.0134975813507575
 50
222.4549725909058111
 51
317.5359174241443156
  0
ARC
  5
7AB6
  8
0
 10
4439.2282430194345579
 20
245.5978377741683971
 30
0.0
 40
0.0134706669107709
 50
42.3297156481674932
 51
137.661174357680693
  0
ARC
  5
7AB7
  8
0
 10
4439.2282918404189331
 20
245.6024474182812014
 30
0.0
 40
0.013314332462932
 50
211.4583282306847138
 51
321.3736889723077184
  0
ARC
  5
7AB8
  8
0
 10
4439.230675794691706
 20
245.6002232374000869
 30
0.0
 40
0.0100665785822687
 50
322.7936229079281816
 51
41.6164796396749921
  0
ARC
  5
7AB9
  8
0
 10
4439.225833760752721
 20
245.6002308326760044
 30
0.0
 40
0.0100791067738375
 50
138.4924088230613961
 51
208.0001383273215936
  0
ARC
  5
7ABA
  8
0
 10
4439.2282444650309117
 20
245.6160214613335029
 30
0.0
 40
0.0134975813507575
 50
222.4549725909058111
 51
317.5359174241443156
  0
ARC
  5
7ABB
  8
0
 10
4439.2070689885631509
 20
245.6186437572845023
 30
0.0
 40
0.0134706669107709
 50
42.3297156481674932
 51
137.661174357680693
  0
ARC
  5
7ABC
  8
0
 10
4439.2071178095466166
 20
245.6232534013973066
 30
0.0
 40
0.013314332462932
 50
211.4583282306847138
 51
321.3736889723077184
  0
ARC
  5
7ABD
  8
0
 10
4439.2095017638202989
 20
245.621029220516192
 30
0.0
 40
0.0100665785822687
 50
322.7936229079281816
 51
41.6164796396749921
  0
ARC
  5
7ABE
  8
0
 10
4439.204659729881314
 20
245.6210368157921096
 30
0.0
 40
0.0100791067738375
 50
138.4924088230613961
 51
208.0001383273215936
  0
ARC
  5
7ABF
  8
0
 10
4439.2070704341604142
 20
245.6368274444494944
 30
0.0
 40
0.0134975813507575
 50
222.4549725909058111
 51
317.5359174241443156
  0
ARC
  5
7AC0
  8
0
 10
4439.1887763922932209
 20
245.6416135047994089
 30
0.0
 40
0.0134706669107709
 50
42.3297156481674932
 51
137.661174357680693
  0
ARC
  5
7AC1
  8
0
 10
4439.1888252132757771
 20
245.6462231489122132
 30
0.0
 40
0.013314332462932
 50
211.4583282306847138
 51
321.3736889723077184
  0
ARC
  5
7AC2
  8
0
 10
4439.1912091675485499
 20
245.6439989680310987
 30
0.0
 40
0.0100665785822687
 50
322.7936229079281816
 51
41.6164796396749921
  0
ARC
  5
7AC3
  8
0
 10
4439.1863671336095649
 20
245.6440065633069025
 30
0.0
 40
0.0100791067738375
 50
138.4924088230613961
 51
208.0001383273215936
  0
ARC
  5
7AC4
  8
0
 10
4439.1887778378886651
 20
245.659797191964401
 30
0.0
 40
0.0134975813507575
 50
222.4549725909058111
 51
317.5359174241443156
  0
ARC
  5
7AC5
  8
0
 10
4439.1740931643180375
 20
245.6663856496992082
 30
0.0
 40
0.0134706669107709
 50
42.3297156481674932
 51
137.661174357680693
  0
ARC
  5
7AC6
  8
0
 10
4439.1741419853005937
 20
245.6709952938120125
 30
0.0
 40
0.013314332462932
 50
211.4583282306847138
 51
321.3736889723077184
  0
ARC
  5
7AC7
  8
0
 10
4439.1765259395751855
 20
245.668771112930898
 30
0.0
 40
0.0100665785822687
 50
322.7936229079281816
 51
41.6164796396749921
  0
ARC
  5
7AC8
  8
0
 10
4439.171683905635291
 20
245.6687787082067871
 30
0.0
 40
0.0100791067738375
 50
138.4924088230613961
 51
208.0001383273215936
  0
ARC
  5
7AC9
  8
0
 10
4439.1740946099143912
 20
245.6845693368642003
 30
0.0
 40
0.0134975813507575
 50
222.4549725909058111
 51
317.5359174241443156
  0
ARC
  5
7ACA
  8
0
 10
4439.1625701146167557
 20
245.6926023192827131
 30
0.0
 40
0.0134706669107709
 50
42.3297156481674932
 51
137.661174357680693
  0
ARC
  5
7ACB
  8
0
 10
4439.1626189356011309
 20
245.697211963395489
 30
0.0
 40
0.013314332462932
 50
211.4583282306847138
 51
321.3736889723077184
  0
ARC
  5
7ACC
  8
0
 10
4439.1650028898739038
 20
245.6949877825144029
 30
0.0
 40
0.0100665785822687
 50
322.7936229079281816
 51
41.6164796396749921
  0
ARC
  5
7ACD
  8
0
 10
4439.1601608559349188
 20
245.694995377790292
 30
0.0
 40
0.0100791067738375
 50
138.4924088230613961
 51
208.0001383273215936
  0
ARC
  5
7ACE
  8
0
 10
4439.1625715602122
 20
245.7107860064477904
 30
0.0
 40
0.0134975813507575
 50
222.4549725909058111
 51
317.5359174241443156
  0
ARC
  5
7ACF
  8
0
 10
4439.1578306695028004
 20
245.7197203061656978
 30
0.0
 40
0.0134706669107709
 50
42.3297156481674932
 51
137.661174357680693
  0
ARC
  5
7AD0
  8
0
 10
4439.1578794904871756
 20
245.7243299502783884
 30
0.0
 40
0.013314332462932
 50
211.4583282306847138
 51
321.3736889723077184
  0
ARC
  5
7AD1
  8
0
 10
4439.1602634447599485
 20
245.7221057693973876
 30
0.0
 40
0.0100665785822687
 50
322.7936229079281816
 51
41.6164796396749921
  0
ARC
  5
7AD2
  8
0
 10
4439.1554214108209635
 20
245.7221133646731914
 30
0.0
 40
0.0100791067738375
 50
138.4924088230613961
 51
208.0001383273215936
  0
ARC
  5
7AD3
  8
0
 10
4439.1578321151000637
 20
245.7379039933306899
 30
0.0
 40
0.0134975813507575
 50
222.4549725909058111
 51
317.5359174241443156
  0
ARC
  5
7AD4
  8
0
 10
4439.1540563700664279
 20
245.7474070320116937
 30
0.0
 40
0.0134706669107709
 50
42.3297156481674932
 51
137.661174357680693
  0
ARC
  5
7AD5
  8
0
 10
4439.1541051910489841
 20
245.7520166761244127
 30
0.0
 40
0.013314332462932
 50
211.4583282306847138
 51
321.3736889723077184
  0
ARC
  5
7AD6
  8
0
 10
4439.1564891453226664
 20
245.7497924952434118
 30
0.0
 40
0.0100665785822687
 50
322.7936229079281816
 51
41.6164796396749921
  0
ARC
  5
7AD7
  8
0
 10
4439.151647111382772
 20
245.7498000905191873
 30
0.0
 40
0.0100791067738375
 50
138.4924088230613961
 51
208.0001383273215936
  0
ARC
  5
7AD8
  8
0
 10
4439.1540578156618722
 20
245.7655907191767142
 30
0.0
 40
0.0134975813507575
 50
222.4549725909058111
 51
317.5359174241443156
  0
ARC
  5
7AD9
  8
0
 10
4439.1542227224808812
 20
245.7752520582797899
 30
0.0
 40
0.0134706669107709
 50
42.3297156481674932
 51
137.661174357680693
  0
ARC
  5
7ADA
  8
0
 10
4439.1542715434643469
 20
245.7798617023925942
 30
0.0
 40
0.013314332462932
 50
211.4583282306847138
 51
321.3736889723077184
  0
ARC
  5
7ADB
  8
0
 10
4439.1566554977380292
 20
245.7776375215115081
 30
0.0
 40
0.0100665785822687
 50
322.7936229079281816
 51
41.6164796396749921
  0
ARC
  5
7ADC
  8
0
 10
4439.1518134637990443
 20
245.7776451167873972
 30
0.0
 40
0.0100791067738375
 50
138.4924088230613961
 51
208.0001383273215936
  0
ARC
  5
7ADD
  8
0
 10
4439.1542241680772349
 20
245.7934357454448104
 30
0.0
 40
0.0134975813507575
 50
222.4549725909058111
 51
317.5359174241443156
  0
ARC
  5
7ADE
  8
0
 10
4439.1601576103967091
 20
245.8027799910265969
 30
0.0
 40
0.0134706669107709
 50
42.3297156481674932
 51
137.661174357680693
  0
ARC
  5
7ADF
  8
0
 10
4439.1602064313801748
 20
245.8073896351394012
 30
0.0
 40
0.013314332462932
 50
211.4583282306847138
 51
321.3736889723077184
  0
ARC
  5
7AE0
  8
0
 10
4439.1625903856538571
 20
245.8051654542582867
 30
0.0
 40
0.0100665785822687
 50
322.7936229079281816
 51
41.6164796396749921
  0
ARC
  5
7AE1
  8
0
 10
4439.1577483517139626
 20
245.8051730495342042
 30
0.0
 40
0.0100791067738375
 50
138.4924088230613961
 51
208.0001383273215936
  0
ARC
  5
7AE2
  8
0
 10
4439.1601590559930628
 20
245.8209636781917027
 30
0.0
 40
0.0134975813507575
 50
222.4549725909058111
 51
317.5359174241443156
  0
ARC
  5
7AE3
  8
0
 10
4439.1680750594350684
 20
245.8295379332828929
 30
0.0
 40
0.0134706669107709
 50
42.3297156481674932
 51
137.661174357680693
  0
ARC
  5
7AE4
  8
0
 10
4439.1681238804194436
 20
245.8341475773956972
 30
0.0
 40
0.013314332462932
 50
211.4583282306847138
 51
321.3736889723077184
  0
ARC
  5
7AE5
  8
0
 10
4439.1705078346913069
 20
245.8319233965146111
 30
0.0
 40
0.0100665785822687
 50
322.7936229079281816
 51
41.6164796396749921
  0
ARC
  5
7AE6
  8
0
 10
4439.1656658007532315
 20
245.8319309917905002
 30
0.0
 40
0.0100791067738375
 50
138.4924088230613961
 51
208.0001383273215936
  0
ARC
  5
7AE7
  8
0
 10
4439.1680765050323316
 20
245.8477216204479987
 30
0.0
 40
0.0134975813507575
 50
222.4549725909058111
 51
317.5359174241443156
  0
ARC
  5
7AE8
  8
0
 10
4439.1801219474500613
 20
245.8537469261771093
 30
0.0
 40
0.0134706669107709
 50
42.3297156481674932
 51
137.661174357680693
  0
ARC
  5
7AE9
  8
0
 10
4439.1801707684326175
 20
245.8583565702899136
 30
0.0
 40
0.013314332462932
 50
211.4583282306847138
 51
321.3736889723077184
  0
ARC
  5
7AEA
  8
0
 10
4439.1825547227062998
 20
245.8561323894087991
 30
0.0
 40
0.0100665785822687
 50
322.7936229079281816
 51
41.6164796396749921
  0
ARC
  5
7AEB
  8
0
 10
4439.1777126887673148
 20
245.8561399846846882
 30
0.0
 40
0.0100791067738375
 50
138.4924088230613961
 51
208.0001383273215936
  0
ARC
  5
7AEC
  8
0
 10
4439.180123393046415
 20
245.8719306133421867
 30
0.0
 40
0.0134975813507575
 50
222.4549725909058111
 51
317.5359174241443156
  0
ARC
  5
7AED
  8
0
 10
4439.1959023431936657
 20
245.8791719220226071
 30
0.0
 40
0.0134706669107709
 50
42.3297156481674932
 51
137.661174357680693
  0
ARC
  5
7AEE
  8
0
 10
4439.1959511641789504
 20
245.8837815661354114
 30
0.0
 40
0.013314332462932
 50
211.4583282306847138
 51
321.3736889723077184
  0
ARC
  5
7AEF
  8
0
 10
4439.1983351184517232
 20
245.8815573852544105
 30
0.0
 40
0.0100665785822687
 50
322.7936229079281816
 51
41.6164796396749921
  0
ARC
  5
7AF0
  8
0
 10
4439.1934930845127383
 20
245.8815649805301859
 30
0.0
 40
0.0100791067738375
 50
138.4924088230613961
 51
208.0001383273215936
  0
ARC
  5
7AF1
  8
0
 10
4439.195903788790929
 20
245.8973556091877128
 30
0.0
 40
0.0134975813507575
 50
222.4549725909058111
 51
317.5359174241443156
  0
ARC
  5
7AF2
  8
0
 10
4439.2158244331767492
 20
245.9012379774914905
 30
0.0
 40
0.0134706669107709
 50
42.3297156481674932
 51
137.661174357680693
  0
ARC
  5
7AF3
  8
0
 10
4439.2158732541611244
 20
245.9058476216042095
 30
0.0
 40
0.013314332462932
 50
211.4583282306847138
 51
321.3736889723077184
  0
ARC
  5
7AF4
  8
0
 10
4439.2182572084329877
 20
245.903623440723095
 30
0.0
 40
0.0100665785822687
 50
322.7936229079281816
 51
41.6164796396749921
  0
ARC
  5
7AF5
  8
0
 10
4439.2134151744949122
 20
245.9036310359990125
 30
0.0
 40
0.0100791067738375
 50
138.4924088230613961
 51
208.0001383273215936
  0
ARC
  5
7AF6
  8
0
 10
4439.2158258787731029
 20
245.919421664656511
 30
0.0
 40
0.0134975813507575
 50
222.4549725909058111
 51
317.5359174241443156
  0
ARC
  5
7AF7
  8
0
 10
4439.2372824936192046
 20
245.9210081712944032
 30
0.0
 40
0.0134706669107709
 50
42.3297156481674932
 51
137.661174357680693
  0
ARC
  5
7AF8
  8
0
 10
4439.2373313146026703
 20
245.9256178154072074
 30
0.0
 40
0.013314332462932
 50
211.4583282306847138
 51
321.3736889723077184
  0
ARC
  5
7AF9
  8
0
 10
4439.2397152688763526
 20
245.9233936345262066
 30
0.0
 40
0.0100665785822687
 50
322.7936229079281816
 51
41.6164796396749921
  0
ARC
  5
7AFA
  8
0
 10
4439.2348732349373677
 20
245.9234012298020104
 30
0.0
 40
0.0100791067738375
 50
138.4924088230613961
 51
208.0001383273215936
  0
ARC
  5
7AFB
  8
0
 10
4439.2372839392155583
 20
245.9391918584595089
 30
0.0
 40
0.0134975813507575
 50
222.4549725909058111
 51
317.5359174241443156
  0
ARC
  5
7AFC
  8
0
 10
4439.262269912269403
 20
245.9381583315042121
 30
0.0
 40
0.0134706669107709
 50
42.3297156481674932
 51
137.661174357680693
  0
ARC
  5
7AFD
  8
0
 10
4439.2623187332537782
 20
245.9427679756171017
 30
0.0
 40
0.013314332462932
 50
211.4583282306847138
 51
321.3736889723077184
  0
ARC
  5
7AFE
  8
0
 10
4439.2647026875256415
 20
245.9405437947359871
 30
0.0
 40
0.0100665785822687
 50
322.7936229079281816
 51
41.6164796396749921
  0
ARC
  5
7AFF
  8
0
 10
4439.259860653587566
 20
245.9405513900119047
 30
0.0
 40
0.0100791067738375
 50
138.4924088230613961
 51
208.0001383273215936
  0
ARC
  5
7B00
  8
0
 10
4439.2622713578657567
 20
245.9563420186694032
 30
0.0
 40
0.0134975813507575
 50
222.4549725909058111
 51
317.5359174241443156
  0
ARC
  5
7B01
  8
0
 10
4439.2887680340518273
 20
245.9524388065474056
 30
0.0
 40
0.0134706669107709
 50
42.3297156481674932
 51
137.661174357680693
  0
ARC
  5
7B02
  8
0
 10
4439.288816855035293
 20
245.9570484506602099
 30
0.0
 40
0.013314332462932
 50
211.4583282306847138
 51
321.3736889723077184
  0
ARC
  5
7B03
  8
0
 10
4439.2912008093080658
 20
245.9548242697790954
 30
0.0
 40
0.0100665785822687
 50
322.7936229079281816
 51
41.6164796396749921
  0
ARC
  5
7B04
  8
0
 10
4439.2863587753690808
 20
245.9548318650550129
 30
0.0
 40
0.0100791067738375
 50
138.4924088230613961
 51
208.0001383273215936
  0
ARC
  5
7B05
  8
0
 10
4439.288769479648181
 20
245.9706224937125114
 30
0.0
 40
0.0134975813507575
 50
222.4549725909058111
 51
317.5359174241443156
  0
ARC
  5
7B06
  8
0
 10
4439.3181165541318478
 20
245.96358966321921
 30
0.0
 40
0.0134706669107709
 50
42.3297156481674932
 51
137.661174357680693
  0
ARC
  5
7B07
  8
0
 10
4439.318165375116223
 20
245.9681993073319859
 30
0.0
 40
0.013314332462932
 50
211.4583282306847138
 51
321.3736889723077184
  0
ARC
  5
7B08
  8
0
 10
4439.3205493293889958
 20
245.9659751264508998
 30
0.0
 40
0.0100665785822687
 50
322.7936229079281816
 51
41.6164796396749921
  0
ARC
  5
7B09
  8
0
 10
4439.3157072954500109
 20
245.9659827217267889
 30
0.0
 40
0.0100791067738375
 50
138.4924088230613961
 51
208.0001383273215936
  0
ARC
  5
7B0A
  8
0
 10
4439.318117999729111
 20
245.9817733503842874
 30
0.0
 40
0.0134975813507575
 50
222.4549725909058111
 51
317.5359174241443156
  0
ARC
  5
7B0B
  8
0
 10
4439.3485686647618422
 20
245.9697843729510112
 30
0.0
 40
0.0134706669107709
 50
42.3297156481674932
 51
137.661174357680693
  0
ARC
  5
7B0C
  8
0
 10
4439.3486174857453079
 20
245.974394017063787
 30
0.0
 40
0.013314332462932
 50
211.4583282306847138
 51
321.3736889723077184
  0
ARC
  5
7B0D
  8
0
 10
4439.3510014400189903
 20
245.9721698361827009
 30
0.0
 40
0.0100665785822687
 50
322.7936229079281816
 51
41.6164796396749921
  0
ARC
  5
7B0E
  8
0
 10
4439.3461594060790958
 20
245.97217743145859
 30
0.0
 40
0.0100791067738375
 50
138.4924088230613961
 51
208.0001383273215936
  0
ARC
  5
7B0F
  8
0
 10
4439.348570110358196
 20
245.9879680601160885
 30
0.0
 40
0.0134975813507575
 50
222.4549725909058111
 51
317.5359174241443156
  0
ARC
  5
7B10
  8
0
 10
4439.3785818899841615
 20
245.9748235139562098
 30
0.0
 40
0.0134706669107709
 50
42.3297156481674932
 51
137.661174357680693
  0
ARC
  5
7B11
  8
0
 10
4439.3786307109676272
 20
245.9794331580690141
 30
0.0
 40
0.013314332462932
 50
211.4583282306847138
 51
321.3736889723077184
  0
ARC
  5
7B12
  8
0
 10
4439.3810146652413096
 20
245.9772089771878996
 30
0.0
 40
0.0100665785822687
 50
322.7936229079281816
 51
41.6164796396749921
  0
ARC
  5
7B13
  8
0
 10
4439.3761726313023246
 20
245.9772165724637887
 30
0.0
 40
0.0100791067738375
 50
138.4924088230613961
 51
208.0001383273215936
  0
ARC
  5
7B14
  8
0
 10
4439.3785833355814248
 20
245.9930072011212872
 30
0.0
 40
0.0134975813507575
 50
222.4549725909058111
 51
317.5359174241443156
  0
ARC
  5
7B15
  8
0
 10
4439.410950753130237
 20
245.9758478081668898
 30
0.0
 40
0.0134706669107709
 50
42.3297156481674932
 51
137.661174357680693
  0
ARC
  5
7B16
  8
0
 10
4439.4109995741137027
 20
245.9804574522796941
 30
0.0
 40
0.013314332462932
 50
211.4583282306847138
 51
321.3736889723077184
  0
ARC
  5
7B17
  8
0
 10
4439.413383528387385
 20
245.9782332713986079
 30
0.0
 40
0.0100665785822687
 50
322.7936229079281816
 51
41.6164796396749921
  0
ARC
  5
7B18
  8
0
 10
4439.4085414944484
 20
245.9782408666744971
 30
0.0
 40
0.0100791067738375
 50
138.4924088230613961
 51
208.0001383273215936
  0
ARC
  5
7B19
  8
0
 10
4439.4109521987256812
 20
245.9940314953319955
 30
0.0
 40
0.0134975813507575
 50
222.4549725909058111
 51
317.5359174241443156
  0
ARC
  5
7B1A
  8
0
 10
4439.4415334593259104
 20
245.9734801122498027
 30
0.0
 40
0.0134706669107709
 50
42.3297156481674932
 51
137.661174357680693
  0
ARC
  5
7B1B
  8
0
 10
4439.4415822803111951
 20
245.9780897563624933
 30
0.0
 40
0.013314332462932
 50
211.4583282306847138
 51
321.3736889723077184
  0
ARC
  5
7B1C
  8
0
 10
4439.4439662345830584
 20
245.9758655754814924
 30
0.0
 40
0.0100665785822687
 50
322.7936229079281816
 51
41.6164796396749921
  0
ARC
  5
7B1D
  8
0
 10
4439.4391242006449829
 20
245.9758731707572963
 30
0.0
 40
0.0100791067738375
 50
138.4924088230613961
 51
208.0001383273215936
  0
ARC
  5
7B1E
  8
0
 10
4439.4415349049231736
 20
245.9916637994147948
 30
0.0
 40
0.0134975813507575
 50
222.4549725909058111
 51
317.5359174241443156
  0
ARC
  5
7B1F
  8
0
 10
4439.4720080746756139
 20
245.9670394750050946
 30
0.0
 40
0.0134706669107709
 50
42.3297156481674932
 51
137.661174357680693
  0
ARC
  5
7B20
  8
0
 10
4439.4720568956599891
 20
245.9716491191178989
 30
0.0
 40
0.013314332462932
 50
211.4583282306847138
 51
321.3736889723077184
  0
ARC
  5
7B21
  8
0
 10
4439.4744408499336714
 20
245.9694249382368127
 30
0.0
 40
0.0100665785822687
 50
322.7936229079281816
 51
41.6164796396749921
  0
ARC
  5
7B22
  8
0
 10
4439.469598815993777
 20
245.9694325335127019
 30
0.0
 40
0.0100791067738375
 50
138.4924088230613961
 51
208.0001383273215936
  0
ARC
  5
7B23
  8
0
 10
4439.4720095202719676
 20
245.9852231621700867
 30
0.0
 40
0.0134975813507575
 50
222.4549725909058111
 51
317.5359174241443156
  0
ARC
  5
7B24
  8
0
 10
4439.5018419079069645
 20
245.9584032257845081
 30
0.0
 40
0.0134706669107709
 50
42.3297156481674932
 51
137.661174357680693
  0
ARC
  5
7B25
  8
0
 10
4439.5018907288922492
 20
245.9630128698973124
 30
0.0
 40
0.013314332462932
 50
211.4583282306847138
 51
321.3736889723077184
  0
ARC
  5
7B26
  8
0
 10
4439.504274683165022
 20
245.9607886890161978
 30
0.0
 40
0.0100665785822687
 50
322.7936229079281816
 51
41.6164796396749921
  0
ARC
  5
7B27
  8
0
 10
4439.499432649226037
 20
245.960796284292087
 30
0.0
 40
0.0100791067738375
 50
138.4924088230613961
 51
208.0001383273215936
  0
ARC
  5
7B28
  8
0
 10
4439.5018433535042277
 20
245.9765869129496139
 30
0.0
 40
0.0134975813507575
 50
222.4549725909058111
 51
317.5359174241443156
  0
ARC
  5
7B29
  8
0
 10
4439.5295894086284534
 20
245.9465649577356885
 30
0.0
 40
0.0134706669107709
 50
42.3297156481674932
 51
137.661174357680693
  0
ARC
  5
7B2A
  8
0
 10
4439.5296382296128286
 20
245.9511746018484928
 30
0.0
 40
0.013314332462932
 50
211.4583282306847138
 51
321.3736889723077184
  0
ARC
  5
7B2B
  8
0
 10
4439.5320221838846919
 20
245.9489504209674067
 30
0.0
 40
0.0100665785822687
 50
322.7936229079281816
 51
41.6164796396749921
  0
ARC
  5
7B2C
  8
0
 10
4439.5271801499466164
 20
245.9489580162432958
 30
0.0
 40
0.0100791067738375
 50
138.4924088230613961
 51
208.0001383273215936
  0
ARC
  5
7B2D
  8
0
 10
4439.5295908542248071
 20
245.9647486449007943
 30
0.0
 40
0.0134975813507575
 50
222.4549725909058111
 51
317.5359174241443156
  0
ARC
  5
7B2E
  8
0
 10
4439.5560606498829657
 20
245.9309932022742942
 30
0.0
 40
0.0134706669107709
 50
42.3297156481674932
 51
137.661174357680693
  0
ARC
  5
7B2F
  8
0
 10
4439.5561094708673409
 20
245.9356028463870132
 30
0.0
 40
0.013314332462932
 50
211.4583282306847138
 51
321.3736889723077184
  0
ARC
  5
7B30
  8
0
 10
4439.5584934251401137
 20
245.9333786655060123
 30
0.0
 40
0.0100665785822687
 50
322.7936229079281816
 51
41.6164796396749921
  0
ARC
  5
7B31
  8
0
 10
4439.5536513912011287
 20
245.9333862607817878
 30
0.0
 40
0.0100791067738375
 50
138.4924088230613961
 51
208.0001383273215936
  0
ARC
  5
7B32
  8
0
 10
4439.5560620954802289
 20
245.9491768894392862
 30
0.0
 40
0.0134975813507575
 50
222.4549725909058111
 51
317.5359174241443156
  0
ARC
  5
7B33
  8
0
 10
4439.5798453679180966
 20
245.9126590597477957
 30
0.0
 40
0.0134706669107709
 50
42.3297156481674932
 51
137.661174357680693
  0
ARC
  5
7B34
  8
0
 10
4439.5798941889006528
 20
245.9172687038606
 30
0.0
 40
0.013314332462932
 50
211.4583282306847138
 51
321.3736889723077184
  0
ARC
  5
7B35
  8
0
 10
4439.5822781431752446
 20
245.9150445229795139
 30
0.0
 40
0.0100665785822687
 50
322.7936229079281816
 51
41.6164796396749921
  0
ARC
  5
7B36
  8
0
 10
4439.5774361092362597
 20
245.915052118255403
 30
0.0
 40
0.0100791067738375
 50
138.4924088230613961
 51
208.0001383273215936
  0
ARC
  5
7B37
  8
0
 10
4439.5798468135144503
 20
245.9308427469129015
 30
0.0
 40
0.0134975813507575
 50
222.4549725909058111
 51
317.5359174241443156
  0
ARC
  5
7B38
  8
0
 10
4439.60065792844307
 20
245.8918422715497911
 30
0.0
 40
0.0134706669107709
 50
42.3297156481674932
 51
137.661174357680693
  0
ARC
  5
7B39
  8
0
 10
4439.6007067494274452
 20
245.8964519156625954
 30
0.0
 40
0.013314332462932
 50
211.4583282306847138
 51
321.3736889723077184
  0
ARC
  5
7B3A
  8
0
 10
4439.603090703700218
 20
245.8942277347813956
 30
0.0
 40
0.0100665785822687
 50
322.7936229079281816
 51
41.6164796396749921
  0
ARC
  5
7B3B
  8
0
 10
4439.598248669761233
 20
245.8942353300573131
 30
0.0
 40
0.0100791067738375
 50
138.4924088230613961
 51
208.0001383273215936
  0
ARC
  5
7B3C
  8
0
 10
4439.6006593740403332
 20
245.9100259587148116
 30
0.0
 40
0.0134975813507575
 50
222.4549725909058111
 51
317.5359174241443156
  0
ARC
  5
7B3D
  8
0
 10
4439.6192550269988715
 20
245.8688980687539924
 30
0.0
 40
0.0134706669107709
 50
42.3297156481674932
 51
137.661174357680693
  0
ARC
  5
7B3E
  8
0
 10
4439.6193038479832467
 20
245.8735077128667967
 30
0.0
 40
0.013314332462932
 50
211.4583282306847138
 51
321.3736889723077184
  0
ARC
  5
7B3F
  8
0
 10
4439.6216878022560195
 20
245.8712835319857106
 30
0.0
 40
0.0100665785822687
 50
322.7936229079281816
 51
41.6164796396749921
  0
ARC
  5
7B40
  8
0
 10
4439.6168457683170345
 20
245.8712911272614861
 30
0.0
 40
0.0100791067738375
 50
138.4924088230613961
 51
208.0001383273215936
  0
ARC
  5
7B41
  8
0
 10
4439.6192564725961347
 20
245.8870817559190982
 30
0.0
 40
0.0134975813507575
 50
222.4549725909058111
 51
317.5359174241443156
  0
ARC
  5
7B42
  8
0
 10
4439.633234944670221
 20
245.8441169779088966
 30
0.0
 40
0.0134706669107709
 50
42.3297156481674932
 51
137.661174357680693
  0
ARC
  5
7B43
  8
0
 10
4439.6332837656536867
 20
245.8487266220217009
 30
0.0
 40
0.013314332462932
 50
211.4583282306847138
 51
321.3736889723077184
  0
ARC
  5
7B44
  8
0
 10
4439.635667719927369
 20
245.8465024411405864
 30
0.0
 40
0.0100665785822687
 50
322.7936229079281816
 51
41.6164796396749921
  0
ARC
  5
7B45
  8
0
 10
4439.6308256859865651
 20
245.8465100364165039
 30
0.0
 40
0.0100791067738375
 50
138.4924088230613961
 51
208.0001383273215936
  0
ARC
  5
7B46
  8
0
 10
4439.6332363902665747
 20
245.8623006650740024
 30
0.0
 40
0.0134975813507575
 50
222.4549725909058111
 51
317.5359174241443156
  0
ARC
  5
7B47
  8
0
 10
4439.6450935255752483
 20
245.8180347297501953
 30
0.0
 40
0.0134706669107709
 50
42.3297156481674932
 51
137.661174357680693
  0
ARC
  5
7B48
  8
0
 10
4439.6451423465587141
 20
245.8226443738629996
 30
0.0
 40
0.013314332462932
 50
211.4583282306847138
 51
321.3736889723077184
  0
ARC
  5
7B49
  8
0
 10
4439.6475263008305774
 20
245.8204201929819135
 30
0.0
 40
0.0100665785822687
 50
322.7936229079281816
 51
41.6164796396749921
  0
ARC
  5
7B4A
  8
0
 10
4439.6426842668915924
 20
245.8204277882578026
 30
0.0
 40
0.0100791067738375
 50
138.4924088230613961
 51
208.0001383273215936
  0
ARC
  5
7B4B
  8
0
 10
4439.6450949711706926
 20
245.8362184169153011
 30
0.0
 40
0.0134975813507575
 50
222.4549725909058111
 51
317.5359174241443156
  0
ARC
  5
7B4C
  8
0
 10
4439.6506360837711327
 20
245.7907921400571922
 30
0.0
 40
0.0134706669107709
 50
42.3297156481674932
 51
137.661174357680693
  0
ARC
  5
7B4D
  8
0
 10
4439.6506849047545984
 20
245.7954017841699965
 30
0.0
 40
0.013314332462932
 50
211.4583282306847138
 51
321.3736889723077184
  0
ARC
  5
7B4E
  8
0
 10
4439.6530688590291902
 20
245.7931776032889104
 30
0.0
 40
0.0100665785822687
 50
322.7936229079281816
 51
41.6164796396749921
  0
ARC
  5
7B4F
  8
0
 10
4439.6482268250902052
 20
245.7931851985647995
 30
0.0
 40
0.0100791067738375
 50
138.4924088230613961
 51
208.0001383273215936
  0
ARC
  5
7B50
  8
0
 10
4439.6506375293683959
 20
245.8089758272222127
 30
0.0
 40
0.0134975813507575
 50
222.4549725909058111
 51
317.5359174241443156
  0
ARC
  5
7B51
  8
0
 10
4439.6537441221325935
 20
245.7630785442111971
 30
0.0
 40
0.0134706669107709
 50
42.3297156481674932
 51
137.661174357680693
  0
ARC
  5
7B52
  8
0
 10
4439.6537929431169687
 20
245.7676881883240014
 30
0.0
 40
0.013314332462932
 50
211.4583282306847138
 51
321.3736889723077184
  0
ARC
  5
7B53
  8
0
 10
4439.656176897388832
 20
245.7654640074430006
 30
0.0
 40
0.0100665785822687
 50
322.7936229079281816
 51
41.6164796396749921
  0
ARC
  5
7B54
  8
0
 10
4439.6513348634507565
 20
245.7654716027188044
 30
0.0
 40
0.0100791067738375
 50
138.4924088230613961
 51
208.0001383273215936
  0
ARC
  5
7B55
  8
0
 10
4439.6537455677298567
 20
245.7812622313763029
 30
0.0
 40
0.0134975813507575
 50
222.4549725909058111
 51
317.5359174241443156
  0
ARC
  5
7B56
  8
0
 10
4439.6521846473706319
 20
245.7352487411801008
 30
0.0
 40
0.0134706669107709
 50
42.3297156481674932
 51
137.661174357680693
  0
ARC
  5
7B57
  8
0
 10
4439.6522334683550071
 20
245.739858385292905
 30
0.0
 40
0.013314332462932
 50
211.4583282306847138
 51
321.3736889723077184
  0
ARC
  5
7B58
  8
0
 10
4439.6546174226277799
 20
245.7376342044117905
 30
0.0
 40
0.0100665785822687
 50
322.7936229079281816
 51
41.6164796396749921
  0
ARC
  5
7B59
  8
0
 10
4439.6497753886887949
 20
245.737641799687708
 30
0.0
 40
0.0100791067738375
 50
138.4924088230613961
 51
208.0001383273215936
  0
ARC
  5
7B5A
  8
0
 10
4439.6521860929678951
 20
245.7534324283452065
 30
0.0
 40
0.0134975813507575
 50
222.4549725909058111
 51
317.5359174241443156
  0
ARC
  5
7B5B
  8
0
 10
4439.6466975381226803
 20
245.7077690962842951
 30
0.0
 40
0.0134706669107709
 50
42.3297156481674932
 51
137.661174357680693
  0
ARC
  5
7B5C
  8
0
 10
4439.6467463591070555
 20
245.7123787403970994
 30
0.0
 40
0.013314332462932
 50
211.4583282306847138
 51
321.3736889723077184
  0
ARC
  5
7B5D
  8
0
 10
4439.6491303133789188
 20
245.7101545595160133
 30
0.0
 40
0.0100665785822687
 50
322.7936229079281816
 51
41.6164796396749921
  0
ARC
  5
7B5E
  8
0
 10
4439.6442882794408433
 20
245.7101621547919024
 30
0.0
 40
0.0100791067738375
 50
138.4924088230613961
 51
208.0001383273215936
  0
ARC
  5
7B5F
  8
0
 10
4439.6466989837199435
 20
245.7259527834492872
 30
0.0
 40
0.0134975813507575
 50
222.4549725909058111
 51
317.5359174241443156
  0
ARC
  5
7B60
  8
0
 10
4439.6394074185736827
 20
245.6809462501514076
 30
0.0
 40
0.0134706669107709
 50
42.3297156481674932
 51
137.661174357680693
  0
ARC
  5
7B61
  8
0
 10
4439.6394562395562389
 20
245.6855558942640982
 30
0.0
 40
0.013314332462932
 50
211.4583282306847138
 51
321.3736889723077184
  0
ARC
  5
7B62
  8
0
 10
4439.6418401938299212
 20
245.6833317133830974
 30
0.0
 40
0.0100665785822687
 50
322.7936229079281816
 51
41.6164796396749921
  0
ARC
  5
7B63
  8
0
 10
4439.6369981598900267
 20
245.6833393086589012
 30
0.0
 40
0.0100791067738375
 50
138.4924088230613961
 51
208.0001383273215936
  0
ARC
  5
7B64
  8
0
 10
4439.6394088641691269
 20
245.6991299373163997
 30
0.0
 40
0.0134975813507575
 50
222.4549725909058111
 51
317.5359174241443156
  0
ARC
  5
7B65
  8
0
 10
4439.6268562182285677
 20
245.6553445681747974
 30
0.0
 40
0.0134706669107709
 50
42.3297156481674932
 51
137.661174357680693
  0
ARC
  5
7B66
  8
0
 10
4439.6269050392120334
 20
245.6599542122876016
 30
0.0
 40
0.013314332462932
 50
211.4583282306847138
 51
321.3736889723077184
  0
ARC
  5
7B67
  8
0
 10
4439.6292889934857158
 20
245.6577300314064871
 30
0.0
 40
0.0100665785822687
 50
322.7936229079281816
 51
41.6164796396749921
  0
ARC
  5
7B68
  8
0
 10
4439.6244469595458213
 20
245.6577376266824047
 30
0.0
 40
0.0100791067738375
 50
138.4924088230613961
 51
208.0001383273215936
  0
ARC
  5
7B69
  8
0
 10
4439.6268576638249215
 20
245.6735282553399031
 30
0.0
 40
0.0134975813507575
 50
222.4549725909058111
 51
317.5359174241443156
  0
ARC
  5
7B6A
  8
0
 10
4439.6102966742837452
 20
245.6313378864738866
 30
0.0
 40
0.0134706669107709
 50
42.3297156481674932
 51
137.661174357680693
  0
ARC
  5
7B6B
  8
0
 10
4439.6103454952681204
 20
245.6359475305866908
 30
0.0
 40
0.013314332462932
 50
211.4583282306847138
 51
321.3736889723077184
  0
ARC
  5
7B6C
  8
0
 10
4439.6127294495408933
 20
245.63372334970569
 30
0.0
 40
0.0100665785822687
 50
322.7936229079281816
 51
41.6164796396749921
  0
ARC
  5
7B6D
  8
0
 10
4439.6078874156009988
 20
245.6337309449814938
 30
0.0
 40
0.0100791067738375
 50
138.4924088230613961
 51
208.0001383273215936
  0
ARC
  5
7B6E
  8
0
 10
4439.6102981198791895
 20
245.6495215736389923
 30
0.0
 40
0.0134975813507575
 50
222.4549725909058111
 51
317.5359174241443156
  0
ARC
  5
7B6F
  8
0
 10
4439.5918549036550758
 20
245.6092481950853141
 30
0.0
 40
0.0134706669107709
 50
42.3297156481674932
 51
137.661174357680693
  0
ARC
  5
7B70
  8
0
 10
4439.591903724639451
 20
245.6138578391982037
 30
0.0
 40
0.013314332462932
 50
211.4583282306847138
 51
321.3736889723077184
  0
ARC
  5
7B71
  8
0
 10
4439.5942876789122238
 20
245.6116336583170892
 30
0.0
 40
0.0100665785822687
 50
322.7936229079281816
 51
41.6164796396749921
  0
ARC
  5
7B72
  8
0
 10
4439.5894456449732388
 20
245.611641253592893
 30
0.0
 40
0.0100791067738375
 50
138.4924088230613961
 51
208.0001383273215936
  0
ARC
  5
7B73
  8
0
 10
4439.591856349252339
 20
245.6274318822503915
 30
0.0
 40
0.0134975813507575
 50
222.4549725909058111
 51
317.5359174241443156
  0
ARC
  5
7B74
  8
0
 10
4439.5695244993330562
 20
245.5894816996533905
 30
0.0
 40
0.0134706669107709
 50
42.3297156481674932
 51
137.661174357680693
  0
ARC
  5
7B75
  8
0
 10
4439.5695733203174314
 20
245.5940913437661095
 30
0.0
 40
0.013314332462932
 50
211.4583282306847138
 51
321.3736889723077184
  0
ARC
  5
7B76
  8
0
 10
4439.5719572745902042
 20
245.5918671628851087
 30
0.0
 40
0.0100665785822687
 50
322.7936229079281816
 51
41.6164796396749921
  0
ARC
  5
7B77
  8
0
 10
4439.5671152406512192
 20
245.5918747581609125
 30
0.0
 40
0.0100791067738375
 50
138.4924088230613961
 51
208.0001383273215936
  0
ARC
  5
7B78
  8
0
 10
4439.5695259449275909
 20
245.607665386818411
 30
0.0
 40
0.0134975813507575
 50
222.4549725909058111
 51
317.5359174241443156
  0
ARC
  5
7B79
  8
0
 10
4439.5456155535057405
 20
245.5723368317777044
 30
0.0
 40
0.0134706669107709
 50
42.3297156481674932
 51
137.661174357680693
  0
ARC
  5
7B7A
  8
0
 10
4439.5456643744901157
 20
245.5769464758905087
 30
0.0
 40
0.013314332462932
 50
211.4583282306847138
 51
321.3736889723077184
  0
ARC
  5
7B7B
  8
0
 10
4439.5480483287619791
 20
245.5747222950093942
 30
0.0
 40
0.0100665785822687
 50
322.7936229079281816
 51
41.6164796396749921
  0
ARC
  5
7B7C
  8
0
 10
4439.5432062948239036
 20
245.5747298902853117
 30
0.0
 40
0.0100791067738375
 50
138.4924088230613961
 51
208.0001383273215936
  0
ARC
  5
7B7D
  8
0
 10
4439.5456169991030038
 20
245.5905205189428102
 30
0.0
 40
0.0134975813507575
 50
222.4549725909058111
 51
317.5359174241443156
  0
ARC
  5
7B7E
  8
0
 10
4439.5185996359177807
 20
245.558066471805688
 30
0.0
 40
0.0134706669107709
 50
42.3297156481674932
 51
137.661174357680693
  0
ARC
  5
7B7F
  8
0
 10
4439.5186484569021559
 20
245.5626761159184923
 30
0.0
 40
0.013314332462932
 50
211.4583282306847138
 51
321.3736889723077184
  0
ARC
  5
7B80
  8
0
 10
4439.5210324111749287
 20
245.5604519350374062
 30
0.0
 40
0.0100665785822687
 50
322.7936229079281816
 51
41.6164796396749921
  0
ARC
  5
7B81
  8
0
 10
4439.5161903772350342
 20
245.5604595303132953
 30
0.0
 40
0.0100791067738375
 50
138.4924088230613961
 51
208.0001383273215936
  0
ARC
  5
7B82
  8
0
 10
4439.5186010815141344
 20
245.5762501589707938
 30
0.0
 40
0.0134975813507575
 50
222.4549725909058111
 51
317.5359174241443156
  0
ARC
  5
7B83
  8
0
 10
4439.4899378933068874
 20
245.5469114691069024
 30
0.0
 40
0.0134706669107709
 50
42.3297156481674932
 51
137.661174357680693
  0
ARC
  5
7B84
  8
0
 10
4439.4899867142903531
 20
245.5515211132197919
 30
0.0
 40
0.013314332462932
 50
211.4583282306847138
 51
321.3736889723077184
  0
ARC
  5
7B85
  8
0
 10
4439.4923706685622165
 20
245.5492969323387058
 30
0.0
 40
0.0100665785822687
 50
322.7936229079281816
 51
41.6164796396749921
  0
ARC
  5
7B86
  8
0
 10
4439.487528634624141
 20
245.5493045276145949
 30
0.0
 40
0.0100791067738375
 50
138.4924088230613961
 51
208.0001383273215936
  0
ARC
  5
7B87
  8
0
 10
4439.4899393389032412
 20
245.5650951562720081
 30
0.0
 40
0.0134975813507575
 50
222.4549725909058111
 51
317.5359174241443156
  0
ARC
  5
7B88
  8
0
 10
4439.4590259913347836
 20
245.5390223736982023
 30
0.0
 40
0.0134706669107709
 50
42.3297156481674932
 51
137.661174357680693
  0
ARC
  5
7B89
  8
0
 10
4439.4590748123191588
 20
245.5436320178110066
 30
0.0
 40
0.013314332462932
 50
211.4583282306847138
 51
321.3736889723077184
  0
ARC
  5
7B8A
  8
0
 10
4439.4614587665919316
 20
245.541407836929892
 30
0.0
 40
0.0100665785822687
 50
322.7936229079281816
 51
41.6164796396749921
  0
ARC
  5
7B8B
  8
0
 10
4439.4566167326529467
 20
245.5414154322058096
 30
0.0
 40
0.0100791067738375
 50
138.4924088230613961
 51
208.0001383273215936
  0
ARC
  5
7B8C
  8
0
 10
4439.4590274369311373
 20
245.557206060863308
 30
0.0
 40
0.0134975813507575
 50
222.4549725909058111
 51
317.5359174241443156
  0
ARC
  5
7B8D
  8
0
 10
4439.4287870206553634
 20
245.5345684266100932
 30
0.0
 40
0.0134706669107709
 50
42.3297156481674932
 51
137.661174357680693
  0
ARC
  5
7B8E
  8
0
 10
4439.4288358416379197
 20
245.5391780707228975
 30
0.0
 40
0.013314332462932
 50
211.4583282306847138
 51
321.3736889723077184
  0
ARC
  5
7B8F
  8
0
 10
4439.4312197959106925
 20
245.5369538898418114
 30
0.0
 40
0.0100665785822687
 50
322.7936229079281816
 51
41.6164796396749921
  0
ARC
  5
7B90
  8
0
 10
4439.4263777619717075
 20
245.5369614851177005
 30
0.0
 40
0.0100791067738375
 50
138.4924088230613961
 51
208.0001383273215936
  0
ARC
  5
7B91
  8
0
 10
4439.4287884662489887
 20
245.5527521137751989
 30
0.0
 40
0.0134975813507575
 50
222.4549725909058111
 51
317.5359174241443156
  0
ARC
  5
7B92
  8
0
 10
4439.4184831916491021
 20
245.5715050662294061
 30
0.0
 40
0.0134706669107709
 50
42.3297156481674932
 51
137.661174357680693
  0
ARC
  5
7B93
  8
0
 10
4439.4185320126325678
 20
245.5761147103422104
 30
0.0
 40
0.013314332462932
 50
211.4583282306847138
 51
321.3736889723077184
  0
ARC
  5
7B94
  8
0
 10
4439.4209159669062501
 20
245.5738905294610959
 30
0.0
 40
0.0100665785822687
 50
322.7936229079281816
 51
41.6164796396749921
  0
ARC
  5
7B95
  8
0
 10
4439.4160739329663556
 20
245.5738981247370134
 30
0.0
 40
0.0100791067738375
 50
138.4924088230613961
 51
208.0001383273215936
  0
ARC
  5
7B96
  8
0
 10
4439.4184846372445463
 20
245.5896887533945119
 30
0.0
 40
0.0134975813507575
 50
222.4549725909058111
 51
317.5359174241443156
  0
ARC
  5
7B97
  8
0
 10
4439.4482884826566078
 20
245.5735077182625901
 30
0.0
 40
0.0134706669107709
 50
42.3297156481674932
 51
137.661174357680693
  0
ARC
  5
7B98
  8
0
 10
4439.4483373036400735
 20
245.5781173623753944
 30
0.0
 40
0.013314332462932
 50
211.4583282306847138
 51
321.3736889723077184
  0
ARC
  5
7B99
  8
0
 10
4439.4507212579146653
 20
245.5758931814943082
 30
0.0
 40
0.0100665785822687
 50
322.7936229079281816
 51
41.6164796396749921
  0
ARC
  5
7B9A
  8
0
 10
4439.4458792239756804
 20
245.5759007767701974
 30
0.0
 40
0.0100791067738375
 50
138.4924088230613961
 51
208.0001383273215936
  0
ARC
  5
7B9B
  8
0
 10
4439.4482899282529615
 20
245.5916914054276106
 30
0.0
 40
0.0134975813507575
 50
222.4549725909058111
 51
317.5359174241443156
  0
ARC
  5
7B9C
  8
0
 10
4439.4760223712901279
 20
245.5821622510306952
 30
0.0
 40
0.0134706669107709
 50
42.3297156481674932
 51
137.661174357680693
  0
ARC
  5
7B9D
  8
0
 10
4439.4760711922726841
 20
245.5867718951434995
 30
0.0
 40
0.013314332462932
 50
211.4583282306847138
 51
321.3736889723077184
  0
ARC
  5
7B9E
  8
0
 10
4439.4784551465472759
 20
245.5845477142624134
 30
0.0
 40
0.0100665785822687
 50
322.7936229079281816
 51
41.6164796396749921
  0
ARC
  5
7B9F
  8
0
 10
4439.4736131126073815
 20
245.5845553095383025
 30
0.0
 40
0.0100791067738375
 50
138.4924088230613961
 51
208.0001383273215936
  0
ARC
  5
7BA0
  8
0
 10
4439.4760238168855722
 20
245.600345938195801
 30
0.0
 40
0.0134975813507575
 50
222.4549725909058111
 51
317.5359174241443156
  0
ARC
  5
7BA1
  8
0
 10
4439.5021742027047367
 20
245.5911165233378028
 30
0.0
 40
0.0134706669107709
 50
42.3297156481674932
 51
137.661174357680693
  0
ARC
  5
7BA2
  8
0
 10
4439.5022230236891119
 20
245.5957261674506071
 30
0.0
 40
0.013314332462932
 50
211.4583282306847138
 51
321.3736889723077184
  0
ARC
  5
7BA3
  8
0
 10
4439.5046069779609752
 20
245.5935019865694926
 30
0.0
 40
0.0100665785822687
 50
322.7936229079281816
 51
41.6164796396749921
  0
ARC
  5
7BA4
  8
0
 10
4439.4997649440228997
 20
245.5935095818454101
 30
0.0
 40
0.0100791067738375
 50
138.4924088230613961
 51
208.0001383273215936
  0
ARC
  5
7BA5
  8
0
 10
4439.5021756483019999
 20
245.6093002105029086
 30
0.0
 40
0.0134975813507575
 50
222.4549725909058111
 51
317.5359174241443156
  0
ARC
  5
7BA6
  8
0
 10
4439.5271672296403267
 20
245.604831026612203
 30
0.0
 40
0.0134706669107709
 50
42.3297156481674932
 51
137.661174357680693
  0
ARC
  5
7BA7
  8
0
 10
4439.5272160506237924
 20
245.6094406707248936
 30
0.0
 40
0.013314332462932
 50
211.4583282306847138
 51
321.3736889723077184
  0
ARC
  5
7BA8
  8
0
 10
4439.5296000048965652
 20
245.6072164898438075
 30
0.0
 40
0.0100665785822687
 50
322.7936229079281816
 51
41.6164796396749921
  0
ARC
  5
7BA9
  8
0
 10
4439.5247579709575803
 20
245.6072240851196966
 30
0.0
 40
0.0100791067738375
 50
138.4924088230613961
 51
208.0001383273215936
  0
ARC
  5
7BAA
  8
0
 10
4439.5271686752366804
 20
245.6230147137771951
 30
0.0
 40
0.0134975813507575
 50
222.4549725909058111
 51
317.5359174241443156
  0
ARC
  5
7BAB
  8
0
 10
4439.5488186401653365
 20
245.6214432530161105
 30
0.0
 40
0.0134706669107709
 50
42.3297156481674932
 51
137.661174357680693
  0
ARC
  5
7BAC
  8
0
 10
4439.5488674611488022
 20
245.6260528971288011
 30
0.0
 40
0.013314332462932
 50
211.4583282306847138
 51
321.3736889723077184
  0
ARC
  5
7BAD
  8
0
 10
4439.5512514154215751
 20
245.6238287162478002
 30
0.0
 40
0.0100665785822687
 50
322.7936229079281816
 51
41.6164796396749921
  0
ARC
  5
7BAE
  8
0
 10
4439.5464093814825901
 20
245.6238363115236041
 30
0.0
 40
0.0100791067738375
 50
138.4924088230613961
 51
208.0001383273215936
  0
ARC
  5
7BAF
  8
0
 10
4439.5488200857616903
 20
245.6396269401811026
 30
0.0
 40
0.0134975813507575
 50
222.4549725909058111
 51
317.5359174241443156
  0
ARC
  5
7BB0
  8
0
 10
4439.5683807371242438
 20
245.6406633851717913
 30
0.0
 40
0.0134706669107709
 50
42.3297156481674932
 51
137.661174357680693
  0
ARC
  5
7BB1
  8
0
 10
4439.5684295581077095
 20
245.6452730292845956
 30
0.0
 40
0.013314332462932
 50
211.4583282306847138
 51
321.3736889723077184
  0
ARC
  5
7BB2
  8
0
 10
4439.5708135123813918
 20
245.6430488484035948
 30
0.0
 40
0.0100665785822687
 50
322.7936229079281816
 51
41.6164796396749921
  0
ARC
  5
7BB3
  8
0
 10
4439.5659714784424068
 20
245.6430564436793986
 30
0.0
 40
0.0100791067738375
 50
138.4924088230613961
 51
208.0001383273215936
  0
ARC
  5
7BB4
  8
0
 10
4439.5683821827205975
 20
245.6588470723368971
 30
0.0
 40
0.0134975813507575
 50
222.4549725909058111
 51
317.5359174241443156
  0
ARC
  5
7BB5
  8
0
 10
4439.5835888554065605
 20
245.6621477654082923
 30
0.0
 40
0.0134706669107709
 50
42.3297156481674932
 51
137.661174357680693
  0
ARC
  5
7BB6
  8
0
 10
4439.5836376763909357
 20
245.6667574095210966
 30
0.0
 40
0.013314332462932
 50
211.4583282306847138
 51
321.3736889723077184
  0
ARC
  5
7BB7
  8
0
 10
4439.586021630662799
 20
245.6645332286400105
 30
0.0
 40
0.0100665785822687
 50
322.7936229079281816
 51
41.6164796396749921
  0
ARC
  5
7BB8
  8
0
 10
4439.581179596723814
 20
245.6645408239157859
 30
0.0
 40
0.0100791067738375
 50
138.4924088230613961
 51
208.0001383273215936
  0
ARC
  5
7BB9
  8
0
 10
4439.5835903010038237
 20
245.6803314525733128
 30
0.0
 40
0.0134975813507575
 50
222.4549725909058111
 51
317.5359174241443156
  0
ARC
  5
7BBA
  8
0
 10
4439.5989654865088596
 20
245.6854264051960968
 30
0.0
 40
0.0134706669107709
 50
42.3297156481674932
 51
137.661174357680693
  0
ARC
  5
7BBB
  8
0
 10
4439.5990143074923253
 20
245.6900360493087874
 30
0.0
 40
0.013314332462932
 50
211.4583282306847138
 51
321.3736889723077184
  0
ARC
  5
7BBC
  8
0
 10
4439.6013982617650981
 20
245.6878118684277865
 30
0.0
 40
0.0100665785822687
 50
322.7936229079281816
 51
41.6164796396749921
  0
ARC
  5
7BBD
  8
0
 10
4439.5965562278261132
 20
245.6878194637035904
 30
0.0
 40
0.0100791067738375
 50
138.4924088230613961
 51
208.0001383273215936
  0
ARC
  5
7BBE
  8
0
 10
4439.5989669321052133
 20
245.7036100923610888
 30
0.0
 40
0.0134975813507575
 50
222.4549725909058111
 51
317.5359174241443156
  0
ARC
  5
7BBF
  8
0
 10
4439.6067273129510795
 20
245.709951198429394
 30
0.0
 40
0.0134706669107709
 50
42.3297156481674932
 51
137.661174357680693
  0
ARC
  5
7BC0
  8
0
 10
4439.6067761339354547
 20
245.7145608425421983
 30
0.0
 40
0.013314332462932
 50
211.4583282306847138
 51
321.3736889723077184
  0
ARC
  5
7BC1
  8
0
 10
4439.6091600882082275
 20
245.7123366616611122
 30
0.0
 40
0.0100665785822687
 50
322.7936229079281816
 51
41.6164796396749921
  0
ARC
  5
7BC2
  8
0
 10
4439.6043180542692426
 20
245.7123442569370013
 30
0.0
 40
0.0100791067738375
 50
138.4924088230613961
 51
208.0001383273215936
  0
ARC
  5
7BC3
  8
0
 10
4439.6067287585474332
 20
245.7281348855944998
 30
0.0
 40
0.0134975813507575
 50
222.4549725909058111
 51
317.5359174241443156
  0
ARC
  5
7BC4
  8
0
 10
4439.6109555136517884
 20
245.7354324301286965
 30
0.0
 40
0.0134706669107709
 50
42.3297156481674932
 51
137.661174357680693
  0
ARC
  5
7BC5
  8
0
 10
4439.6110043346352541
 20
245.7400420742415008
 30
0.0
 40
0.013314332462932
 50
211.4583282306847138
 51
321.3736889723077184
  0
ARC
  5
7BC6
  8
0
 10
4439.6133882889089364
 20
245.7378178933605
 30
0.0
 40
0.0100665785822687
 50
322.7936229079281816
 51
41.6164796396749921
  0
ARC
  5
7BC7
  8
0
 10
4439.6085462549690419
 20
245.7378254886363038
 30
0.0
 40
0.0100791067738375
 50
138.4924088230613961
 51
208.0001383273215936
  0
ARC
  5
7BC8
  8
0
 10
4439.6109569592481421
 20
245.7536161172938023
 30
0.0
 40
0.0134975813507575
 50
222.4549725909058111
 51
317.5359174241443156
  0
ARC
  5
7BC9
  8
0
 10
4439.6127782484290947
 20
245.7628912794498888
 30
0.0
 40
0.0134706669107709
 50
42.3297156481674932
 51
137.661174357680693
  0
ARC
  5
7BCA
  8
0
 10
4439.6128270694125604
 20
245.7675009235626078
 30
0.0
 40
0.013314332462932
 50
211.4583282306847138
 51
321.3736889723077184
  0
ARC
  5
7BCB
  8
0
 10
4439.6152110236862427
 20
245.7652767426816069
 30
0.0
 40
0.0100665785822687
 50
322.7936229079281816
 51
41.6164796396749921
  0
ARC
  5
7BCC
  8
0
 10
4439.6103689897472577
 20
245.7652843379574961
 30
0.0
 40
0.0100791067738375
 50
138.4924088230613961
 51
208.0001383273215936
  0
ARC
  5
7BCD
  8
0
 10
4439.6127796940263579
 20
245.7810749666149093
 30
0.0
 40
0.0134975813507575
 50
222.4549725909058111
 51
317.5359174241443156
  0
ARC
  5
7BCE
  8
0
 10
4439.6088400719399942
 20
245.7870060965890957
 30
0.0
 40
0.0134706669107709
 50
42.3297156481674932
 51
137.661174357680693
  0
ARC
  5
7BCF
  8
0
 10
4439.6088888929243694
 20
245.7916157407019
 30
0.0
 40
0.013314332462932
 50
211.4583282306847138
 51
321.3736889723077184
  0
ARC
  5
7BD0
  8
0
 10
4439.6112728471980517
 20
245.7893915598208139
 30
0.0
 40
0.0100665785822687
 50
322.7936229079281816
 51
41.6164796396749921
  0
ARC
  5
7BD1
  8
0
 10
4439.6064308132590668
 20
245.789399155096703
 30
0.0
 40
0.0100791067738375
 50
138.4924088230613961
 51
208.0001383273215936
  0
ARC
  5
7BD2
  8
0
 10
4439.6088415175372575
 20
245.8051897837542015
 30
0.0
 40
0.0134975813507575
 50
222.4549725909058111
 51
317.5359174241443156
  0
ARC
  5
7BD3
  8
0
 10
4439.6042895048085484
 20
245.8121982662314053
 30
0.0
 40
0.0134706669107709
 50
42.3297156481674932
 51
137.661174357680693
  0
ARC
  5
7BD4
  8
0
 10
4439.6043383257929236
 20
245.8168079103442096
 30
0.0
 40
0.013314332462932
 50
211.4583282306847138
 51
321.3736889723077184
  0
ARC
  5
7BD5
  8
0
 10
4439.6067222800656964
 20
245.8145837294630951
 30
0.0
 40
0.0100665785822687
 50
322.7936229079281816
 51
41.6164796396749921
  0
ARC
  5
7BD6
  8
0
 10
4439.6018802461267114
 20
245.8145913247390126
 30
0.0
 40
0.0100791067738375
 50
138.4924088230613961
 51
208.0001383273215936
  0
ARC
  5
7BD7
  8
0
 10
4439.6042909504058116
 20
245.8303819533965111
 30
0.0
 40
0.0134975813507575
 50
222.4549725909058111
 51
317.5359174241443156
  0
ARC
  5
7BD8
  8
0
 10
4439.5916187213933881
 20
245.8360656681994101
 30
0.0
 40
0.0134706669107709
 50
42.3297156481674932
 51
137.661174357680693
  0
ARC
  5
7BD9
  8
0
 10
4439.5916675423759443
 20
245.840675312312186
 30
0.0
 40
0.013314332462932
 50
211.4583282306847138
 51
321.3736889723077184
  0
ARC
  5
7BDA
  8
0
 10
4439.5940514966496266
 20
245.8384511314310998
 30
0.0
 40
0.0100665785822687
 50
322.7936229079281816
 51
41.6164796396749921
  0
ARC
  5
7BDB
  8
0
 10
4439.5892094627097322
 20
245.838458726706989
 30
0.0
 40
0.0100791067738375
 50
138.4924088230613961
 51
208.0001383273215936
  0
ARC
  5
7BDC
  8
0
 10
4439.5916201669888324
 20
245.8542493553644874
 30
0.0
 40
0.0134975813507575
 50
222.4549725909058111
 51
317.5359174241443156
  0
ARC
  5
7BDD
  8
0
 10
4439.5777832624571602
 20
245.8584863933390068
 30
0.0
 40
0.0134706669107709
 50
42.3297156481674932
 51
137.661174357680693
  0
ARC
  5
7BDE
  8
0
 10
4439.5778320834406259
 20
245.8630960374518111
 30
0.0
 40
0.013314332462932
 50
211.4583282306847138
 51
321.3736889723077184
  0
ARC
  5
7BDF
  8
0
 10
4439.5802160377143082
 20
245.8608718565706965
 30
0.0
 40
0.0100665785822687
 50
322.7936229079281816
 51
41.6164796396749921
  0
ARC
  5
7BE0
  8
0
 10
4439.5753740037753232
 20
245.8608794518466141
 30
0.0
 40
0.0100791067738375
 50
138.4924088230613961
 51
208.0001383273215936
  0
ARC
  5
7BE1
  8
0
 10
4439.5777847080526044
 20
245.8766700805039989
 30
0.0
 40
0.0134975813507575
 50
222.4549725909058111
 51
317.5359174241443156
  0
ARC
  5
7BE2
  8
0
 10
4439.5591848311787544
 20
245.8788458747688992
 30
0.0
 40
0.0134706669107709
 50
42.3297156481674932
 51
137.661174357680693
  0
ARC
  5
7BE3
  8
0
 10
4439.5592336521631296
 20
245.8834555188817035
 30
0.0
 40
0.013314332462932
 50
211.4583282306847138
 51
321.3736889723077184
  0
ARC
  5
7BE4
  8
0
 10
4439.5616176064349929
 20
245.8812313380005889
 30
0.0
 40
0.0100665785822687
 50
322.7936229079281816
 51
41.6164796396749921
  0
ARC
  5
7BE5
  8
0
 10
4439.5567755724969174
 20
245.8812389332765065
 30
0.0
 40
0.0100791067738375
 50
138.4924088230613961
 51
208.0001383273215936
  0
ARC
  5
7BE6
  8
0
 10
4439.5591862767760176
 20
245.897029561934005
 30
0.0
 40
0.0134975813507575
 50
222.4549725909058111
 51
317.5359174241443156
  0
ARC
  5
7BE7
  8
0
 10
4439.5394223069670261
 20
245.8968761888694985
 30
0.0
 40
0.0134706669107709
 50
42.3297156481674932
 51
137.661174357680693
  0
ARC
  5
7BE8
  8
0
 10
4439.5394711279495823
 20
245.9014858329823028
 30
0.0
 40
0.013314332462932
 50
211.4583282306847138
 51
321.3736889723077184
  0
ARC
  5
7BE9
  8
0
 10
4439.5418550822232646
 20
245.8992616521011882
 30
0.0
 40
0.0100665785822687
 50
322.7936229079281816
 51
41.6164796396749921
  0
ARC
  5
7BEA
  8
0
 10
4439.5370130482842796
 20
245.8992692473771058
 30
0.0
 40
0.0100791067738375
 50
138.4924088230613961
 51
208.0001383273215936
  0
ARC
  5
7BEB
  8
0
 10
4439.5394237525615608
 20
245.9150598760344906
 30
0.0
 40
0.0134975813507575
 50
222.4549725909058111
 51
317.5359174241443156
  0
ARC
  5
7BEC
  8
0
 10
4439.5149481295711666
 20
245.9120217998853093
 30
0.0
 40
0.0134706669107709
 50
42.3297156481674932
 51
137.661174357680693
  0
ARC
  5
7BED
  8
0
 10
4439.5149969505546323
 20
245.9166314439979999
 30
0.0
 40
0.013314332462932
 50
211.4583282306847138
 51
321.3736889723077184
  0
ARC
  5
7BEE
  8
0
 10
4439.5173809048283147
 20
245.914407263116999
 30
0.0
 40
0.0100665785822687
 50
322.7936229079281816
 51
41.6164796396749921
  0
ARC
  5
7BEF
  8
0
 10
4439.5125388708884202
 20
245.9144148583928029
 30
0.0
 40
0.0100791067738375
 50
138.4924088230613961
 51
208.0001383273215936
  0
ARC
  5
7BF0
  8
0
 10
4439.5149495751666109
 20
245.9302054870503014
 30
0.0
 40
0.0134975813507575
 50
222.4549725909058111
 51
317.5359174241443156
  0
ARC
  5
7BF1
  8
0
 10
4439.4886939875668759
 20
245.9241572526071025
 30
0.0
 40
0.0134706669107709
 50
42.3297156481674932
 51
137.661174357680693
  0
ARC
  5
7BF2
  8
0
 10
4439.4887428085512511
 20
245.9287668967199068
 30
0.0
 40
0.013314332462932
 50
211.4583282306847138
 51
321.3736889723077184
  0
ARC
  5
7BF3
  8
0
 10
4439.4911267628231144
 20
245.9265427158389059
 30
0.0
 40
0.0100665785822687
 50
322.7936229079281816
 51
41.6164796396749921
  0
ARC
  5
7BF4
  8
0
 10
4439.4862847288850389
 20
245.9265503111147098
 30
0.0
 40
0.0100791067738375
 50
138.4924088230613961
 51
208.0001383273215936
  0
ARC
  5
7BF5
  8
0
 10
4439.4886954331641391
 20
245.9423409397722082
 30
0.0
 40
0.0134975813507575
 50
222.4549725909058111
 51
317.5359174241443156
  0
ARC
  5
7BF6
  8
0
 10
4439.4616121256676706
 20
245.9330052287826902
 30
0.0
 40
0.0134706669107709
 50
42.3297156481674932
 51
137.661174357680693
  0
ARC
  5
7BF7
  8
0
 10
4439.4616609466520458
 20
245.9376148728954945
 30
0.0
 40
0.013314332462932
 50
211.4583282306847138
 51
321.3736889723077184
  0
ARC
  5
7BF8
  8
0
 10
4439.4640449009248186
 20
245.9353906920144084
 30
0.0
 40
0.0100665785822687
 50
322.7936229079281816
 51
41.6164796396749921
  0
ARC
  5
7BF9
  8
0
 10
4439.4592028669867432
 20
245.9353982872902975
 30
0.0
 40
0.0100791067738375
 50
138.4924088230613961
 51
208.0001383273215936
  0
ARC
  5
7BFA
  8
0
 10
4439.4616135712649339
 20
245.951188915947796
 30
0.0
 40
0.0134975813507575
 50
222.4549725909058111
 51
317.5359174241443156
  0
ARC
  5
7BFB
  8
0
 10
4439.4330320222916271
 20
245.9383812668388032
 30
0.0
 40
0.0134706669107709
 50
42.3297156481674932
 51
137.661174357680693
  0
ARC
  5
7BFC
  8
0
 10
4439.4330808432760023
 20
245.9429909109516075
 30
0.0
 40
0.013314332462932
 50
211.4583282306847138
 51
321.3736889723077184
  0
ARC
  5
7BFD
  8
0
 10
4439.4354647975487751
 20
245.9407667300704929
 30
0.0
 40
0.0100665785822687
 50
322.7936229079281816
 51
41.6164796396749921
  0
ARC
  5
7BFE
  8
0
 10
4439.4306227636097901
 20
245.9407743253464105
 30
0.0
 40
0.0100791067738375
 50
138.4924088230613961
 51
208.0001383273215936
  0
ARC
  5
7BFF
  8
0
 10
4439.4330334678879808
 20
245.956564954003909
 30
0.0
 40
0.0134975813507575
 50
222.4549725909058111
 51
317.5359174241443156
  0
ARC
  5
7C00
  8
0
 10
4439.4303304551085603
 20
245.9041770850292892
 30
0.0
 40
0.0134706669107709
 50
42.3297156481674932
 51
137.661174357680693
  0
ARC
  5
7C01
  8
0
 10
4439.430379276092026
 20
245.9087867291420935
 30
0.0
 40
0.013314332462932
 50
211.4583282306847138
 51
321.3736889723077184
  0
ARC
  5
7C02
  8
0
 10
4439.4327632303647988
 20
245.9065625482610074
 30
0.0
 40
0.0100665785822687
 50
322.7936229079281816
 51
41.6164796396749921
  0
ARC
  5
7C03
  8
0
 10
4439.4279211964258138
 20
245.9065701435368965
 30
0.0
 40
0.0100791067738375
 50
138.4924088230613961
 51
208.0001383273215936
  0
ARC
  5
7C04
  8
0
 10
4439.4303319007040045
 20
245.9223607721943949
 30
0.0
 40
0.0134975813507575
 50
222.4549725909058111
 51
317.5359174241443156
  0
ARC
  5
7C05
  8
0
 10
4439.456164063963115
 20
245.8986537515046109
 30
0.0
 40
0.0134706669107709
 50
42.3297156481674932
 51
137.661174357680693
  0
ARC
  5
7C06
  8
0
 10
4439.4562128849456712
 20
245.9032633956173868
 30
0.0
 40
0.013314332462932
 50
211.4583282306847138
 51
321.3736889723077184
  0
ARC
  5
7C07
  8
0
 10
4439.4585968392202631
 20
245.9010392147363007
 30
0.0
 40
0.0100665785822687
 50
322.7936229079281816
 51
41.6164796396749921
  0
ARC
  5
7C08
  8
0
 10
4439.4537548052812781
 20
245.9010468100121898
 30
0.0
 40
0.0100791067738375
 50
138.4924088230613961
 51
208.0001383273215936
  0
ARC
  5
7C09
  8
0
 10
4439.4561655095585593
 20
245.9168374386696883
 30
0.0
 40
0.0134975813507575
 50
222.4549725909058111
 51
317.5359174241443156
  0
ARC
  5
7C0A
  8
0
 10
4439.4808995911362217
 20
245.8895986109075977
 30
0.0
 40
0.0134706669107709
 50
42.3297156481674932
 51
137.661174357680693
  0
ARC
  5
7C0B
  8
0
 10
4439.4809484121196874
 20
245.894208255020402
 30
0.0
 40
0.013314332462932
 50
211.4583282306847138
 51
321.3736889723077184
  0
ARC
  5
7C0C
  8
0
 10
4439.4833323663915507
 20
245.8919840741392875
 30
0.0
 40
0.0100665785822687
 50
322.7936229079281816
 51
41.6164796396749921
  0
ARC
  5
7C0D
  8
0
 10
4439.4784903324543848
 20
245.8919916694150913
 30
0.0
 40
0.0100791067738375
 50
138.4924088230613961
 51
208.0001383273215936
  0
ARC
  5
7C0E
  8
0
 10
4439.4809010367307565
 20
245.9077822980725898
 30
0.0
 40
0.0134975813507575
 50
222.4549725909058111
 51
317.5359174241443156
  0
ARC
  5
7C0F
  8
0
 10
4439.5034877200760093
 20
245.8772353197942948
 30
0.0
 40
0.0134706669107709
 50
42.3297156481674932
 51
137.661174357680693
  0
ARC
  5
7C10
  8
0
 10
4439.503536541061294
 20
245.8818449639070991
 30
0.0
 40
0.013314332462932
 50
211.4583282306847138
 51
321.3736889723077184
  0
ARC
  5
7C11
  8
0
 10
4439.5059204953340668
 20
245.879620783026013
 30
0.0
 40
0.0100665785822687
 50
322.7936229079281816
 51
41.6164796396749921
  0
ARC
  5
7C12
  8
0
 10
4439.5010784613950818
 20
245.8796283783019021
 30
0.0
 40
0.0100791067738375
 50
138.4924088230613961
 51
208.0001383273215936
  0
ARC
  5
7C13
  8
0
 10
4439.5034891656732725
 20
245.8954190069594006
 30
0.0
 40
0.0134975813507575
 50
222.4549725909058111
 51
317.5359174241443156
  0
ARC
  5
7C14
  8
0
 10
4439.5236156338924047
 20
245.8618705905639104
 30
0.0
 40
0.0134706669107709
 50
42.3297156481674932
 51
137.661174357680693
  0
ARC
  5
7C15
  8
0
 10
4439.5236644548758704
 20
245.8664802346766862
 30
0.0
 40
0.013314332462932
 50
211.4583282306847138
 51
321.3736889723077184
  0
ARC
  5
7C16
  8
0
 10
4439.5260484091477338
 20
245.8642560537956001
 30
0.0
 40
0.0100665785822687
 50
322.7936229079281816
 51
41.6164796396749921
  0
ARC
  5
7C17
  8
0
 10
4439.5212063752096583
 20
245.8642636490714892
 30
0.0
 40
0.0100791067738375
 50
138.4924088230613961
 51
208.0001383273215936
  0
ARC
  5
7C18
  8
0
 10
4439.5236170794887585
 20
245.8800542777289024
 30
0.0
 40
0.0134975813507575
 50
222.4549725909058111
 51
317.5359174241443156
  0
ARC
  5
7C19
  8
0
 10
4439.5409976703476786
 20
245.843876653458409
 30
0.0
 40
0.0134706669107709
 50
42.3297156481674932
 51
137.661174357680693
  0
ARC
  5
7C1A
  8
0
 10
4439.5410464913302349
 20
245.8484862975712133
 30
0.0
 40
0.013314332462932
 50
211.4583282306847138
 51
321.3736889723077184
  0
ARC
  5
7C1B
  8
0
 10
4439.5434304456039172
 20
245.8462621166900988
 30
0.0
 40
0.0100665785822687
 50
322.7936229079281816
 51
41.6164796396749921
  0
ARC
  5
7C1C
  8
0
 10
4439.5385884116640227
 20
245.8462697119659879
 30
0.0
 40
0.0100791067738375
 50
138.4924088230613961
 51
208.0001383273215936
  0
ARC
  5
7C1D
  8
0
 10
4439.5409991159431229
 20
245.8620603406234864
 30
0.0
 40
0.0134975813507575
 50
222.4549725909058111
 51
317.5359174241443156
  0
ARC
  5
7C1E
  8
0
 10
4439.55501289401127
 20
245.8237004402849095
 30
0.0
 40
0.0134706669107709
 50
42.3297156481674932
 51
137.661174357680693
  0
ARC
  5
7C1F
  8
0
 10
4439.5550617149956452
 20
245.8283100843976001
 30
0.0
 40
0.013314332462932
 50
211.4583282306847138
 51
321.3736889723077184
  0
ARC
  5
7C20
  8
0
 10
4439.557445669268418
 20
245.8260859035165993
 30
0.0
 40
0.0100665785822687
 50
322.7936229079281816
 51
41.6164796396749921
  0
ARC
  5
7C21
  8
0
 10
4439.5526036353303425
 20
245.8260934987924031
 30
0.0
 40
0.0100791067738375
 50
138.4924088230613961
 51
208.0001383273215936
  0
ARC
  5
7C22
  8
0
 10
4439.5550143396076237
 20
245.8418841274499016
 30
0.0
 40
0.0134975813507575
 50
222.4549725909058111
 51
317.5359174241443156
  0
ARC
  5
7C23
  8
0
 10
4439.5655941120867283
 20
245.8018404265318964
 30
0.0
 40
0.0134706669107709
 50
42.3297156481674932
 51
137.661174357680693
  0
ARC
  5
7C24
  8
0
 10
4439.5656429330711035
 20
245.8064500706447006
 30
0.0
 40
0.013314332462932
 50
211.4583282306847138
 51
321.3736889723077184
  0
ARC
  5
7C25
  8
0
 10
4439.5680268873438763
 20
245.8042258897636998
 30
0.0
 40
0.0100665785822687
 50
322.7936229079281816
 51
41.6164796396749921
  0
ARC
  5
7C26
  8
0
 10
4439.5631848534048913
 20
245.8042334850395036
 30
0.0
 40
0.0100791067738375
 50
138.4924088230613961
 51
208.0001383273215936
  0
ARC
  5
7C27
  8
0
 10
4439.5655955576839915
 20
245.8200241136970021
 30
0.0
 40
0.0134975813507575
 50
222.4549725909058111
 51
317.5359174241443156
  0
ARC
  5
7C28
  8
0
 10
4439.5717212036797719
 20
245.7788310405219931
 30
0.0
 40
0.0134706669107709
 50
42.3297156481674932
 51
137.661174357680693
  0
ARC
  5
7C29
  8
0
 10
4439.5717700246641471
 20
245.7834406846347974
 30
0.0
 40
0.013314332462932
 50
211.4583282306847138
 51
321.3736889723077184
  0
ARC
  5
7C2A
  8
0
 10
4439.5741539789369199
 20
245.7812165037537113
 30
0.0
 40
0.0100665785822687
 50
322.7936229079281816
 51
41.6164796396749921
  0
ARC
  5
7C2B
  8
0
 10
4439.5693119449988444
 20
245.7812240990294868
 30
0.0
 40
0.0100791067738375
 50
138.4924088230613961
 51
208.0001383273215936
  0
ARC
  5
7C2C
  8
0
 10
4439.5717226492770351
 20
245.7970147276870989
 30
0.0
 40
0.0134975813507575
 50
222.4549725909058111
 51
317.5359174241443156
  0
ARC
  5
7C2D
  8
0
 10
4439.5737043654316949
 20
245.7552414192682022
 30
0.0
 40
0.0134706669107709
 50
42.3297156481674932
 51
137.661174357680693
  0
ARC
  5
7C2E
  8
0
 10
4439.5737531864160701
 20
245.7598510633810065
 30
0.0
 40
0.013314332462932
 50
211.4583282306847138
 51
321.3736889723077184
  0
ARC
  5
7C2F
  8
0
 10
4439.5761371406888429
 20
245.7576268825000056
 30
0.0
 40
0.0100665785822687
 50
322.7936229079281816
 51
41.6164796396749921
  0
ARC
  5
7C30
  8
0
 10
4439.571295106749858
 20
245.7576344777758095
 30
0.0
 40
0.0100791067738375
 50
138.4924088230613961
 51
208.0001383273215936
  0
ARC
  5
7C31
  8
0
 10
4439.5737058110289581
 20
245.773425106433308
 30
0.0
 40
0.0134975813507575
 50
222.4549725909058111
 51
317.5359174241443156
  0
ARC
  5
7C32
  8
0
 10
4439.5707402904090486
 20
245.7316795114475099
 30
0.0
 40
0.0134706669107709
 50
42.3297156481674932
 51
137.661174357680693
  0
ARC
  5
7C33
  8
0
 10
4439.5707891113916048
 20
245.7362891555603142
 30
0.0
 40
0.013314332462932
 50
211.4583282306847138
 51
321.3736889723077184
  0
ARC
  5
7C34
  8
0
 10
4439.5731730656661966
 20
245.7340649746791996
 30
0.0
 40
0.0100665785822687
 50
322.7936229079281816
 51
41.6164796396749921
  0
ARC
  5
7C35
  8
0
 10
4439.5683310317263022
 20
245.7340725699550035
 30
0.0
 40
0.0100791067738375
 50
138.4924088230613961
 51
208.0001383273215936
  0
ARC
  5
7C36
  8
0
 10
4439.5707417360035834
 20
245.7498631986125872
 30
0.0
 40
0.0134975813507575
 50
222.4549725909058111
 51
317.5359174241443156
  0
ARC
  5
7C37
  8
0
 10
4439.5658570155355847
 20
245.70865227666701
 30
0.0
 40
0.0134706669107709
 50
42.3297156481674932
 51
137.661174357680693
  0
ARC
  5
7C38
  8
0
 10
4439.5659058365190504
 20
245.7132619207797859
 30
0.0
 40
0.013314332462932
 50
211.4583282306847138
 51
321.3736889723077184
  0
ARC
  5
7C39
  8
0
 10
4439.5682897907918232
 20
245.7110377398986998
 30
0.0
 40
0.0100665785822687
 50
322.7936229079281816
 51
41.6164796396749921
  0
ARC
  5
7C3A
  8
0
 10
4439.5634477568528382
 20
245.7110453351745889
 30
0.0
 40
0.0100791067738375
 50
138.4924088230613961
 51
208.0001383273215936
  0
ARC
  5
7C3B
  8
0
 10
4439.5658584611328479
 20
245.7268359638320874
 30
0.0
 40
0.0134975813507575
 50
222.4549725909058111
 51
317.5359174241443156
  0
ARC
  5
7C3C
  8
0
 10
4439.555008080485095
 20
245.6867843724924114
 30
0.0
 40
0.0134706669107709
 50
42.3297156481674932
 51
137.661174357680693
  0
ARC
  5
7C3D
  8
0
 10
4439.5550569014667417
 20
245.6913940166051873
 30
0.0
 40
0.013314332462932
 50
211.4583282306847138
 51
321.3736889723077184
  0
ARC
  5
7C3E
  8
0
 10
4439.557440855740424
 20
245.6891698357241012
 30
0.0
 40
0.0100665785822687
 50
322.7936229079281816
 51
41.6164796396749921
  0
ARC
  5
7C3F
  8
0
 10
4439.552598821801439
 20
245.689177430999905
 30
0.0
 40
0.0100791067738375
 50
138.4924088230613961
 51
208.0001383273215936
  0
ARC
  5
7C40
  8
0
 10
4439.5550095260787202
 20
245.7049680596574035
 30
0.0
 40
0.0134975813507575
 50
222.4549725909058111
 51
317.5359174241443156
  0
ARC
  5
7C41
  8
0
 10
4439.5414651947430684
 20
245.666610039783194
 30
0.0
 40
0.0134706669107709
 50
42.3297156481674932
 51
137.661174357680693
  0
ARC
  5
7C42
  8
0
 10
4439.5415140157274436
 20
245.6712196838959983
 30
0.0
 40
0.013314332462932
 50
211.4583282306847138
 51
321.3736889723077184
  0
ARC
  5
7C43
  8
0
 10
4439.5438979700002164
 20
245.6689955030149122
 30
0.0
 40
0.0100665785822687
 50
322.7936229079281816
 51
41.6164796396749921
  0
ARC
  5
7C44
  8
0
 10
4439.5390559360612315
 20
245.6690030982908013
 30
0.0
 40
0.0100791067738375
 50
138.4924088230613961
 51
208.0001383273215936
  0
ARC
  5
7C45
  8
0
 10
4439.5414666403394222
 20
245.6847937269482998
 30
0.0
 40
0.0134975813507575
 50
222.4549725909058111
 51
317.5359174241443156
  0
ARC
  5
7C46
  8
0
 10
4439.5241239561346447
 20
245.6486172185877024
 30
0.0
 40
0.0134706669107709
 50
42.3297156481674932
 51
137.661174357680693
  0
ARC
  5
7C47
  8
0
 10
4439.5241727771190199
 20
245.6532268627005067
 30
0.0
 40
0.013314332462932
 50
211.4583282306847138
 51
321.3736889723077184
  0
ARC
  5
7C48
  8
0
 10
4439.5265567313917927
 20
245.6510026818195058
 30
0.0
 40
0.0100665785822687
 50
322.7936229079281816
 51
41.6164796396749921
  0
ARC
  5
7C49
  8
0
 10
4439.5217146974528077
 20
245.6510102770953097
 30
0.0
 40
0.0100791067738375
 50
138.4924088230613961
 51
208.0001383273215936
  0
ARC
  5
7C4A
  8
0
 10
4439.5241254017309984
 20
245.6668009057528081
 30
0.0
 40
0.0134975813507575
 50
222.4549725909058111
 51
317.5359174241443156
  0
ARC
  5
7C4B
  8
0
 10
4439.5039499709737356
 20
245.6332519752660914
 30
0.0
 40
0.0134706669107709
 50
42.3297156481674932
 51
137.661174357680693
  0
ARC
  5
7C4C
  8
0
 10
4439.5039987919581108
 20
245.6378616193788957
 30
0.0
 40
0.013314332462932
 50
211.4583282306847138
 51
321.3736889723077184
  0
ARC
  5
7C4D
  8
0
 10
4439.5063827462308836
 20
245.6356374384978096
 30
0.0
 40
0.0100665785822687
 50
322.7936229079281816
 51
41.6164796396749921
  0
ARC
  5
7C4E
  8
0
 10
4439.5015407122918987
 20
245.6356450337736135
 30
0.0
 40
0.0100791067738375
 50
138.4924088230613961
 51
208.0001383273215936
  0
ARC
  5
7C4F
  8
0
 10
4439.5039514165709988
 20
245.651435662431112
 30
0.0
 40
0.0134975813507575
 50
222.4549725909058111
 51
317.5359174241443156
  0
ARC
  5
7C50
  8
0
 10
4439.4809288716060109
 20
245.6208857691046035
 30
0.0
 40
0.0134706669107709
 50
42.3297156481674932
 51
137.661174357680693
  0
ARC
  5
7C51
  8
0
 10
4439.4809776925912956
 20
245.6254954132174078
 30
0.0
 40
0.013314332462932
 50
211.4583282306847138
 51
321.3736889723077184
  0
ARC
  5
7C52
  8
0
 10
4439.483361646863159
 20
245.6232712323362932
 30
0.0
 40
0.0100665785822687
 50
322.7936229079281816
 51
41.6164796396749921
  0
ARC
  5
7C53
  8
0
 10
4439.4785196129250835
 20
245.6232788276122108
 30
0.0
 40
0.0100791067738375
 50
138.4924088230613961
 51
208.0001383273215936
  0
ARC
  5
7C54
  8
0
 10
4439.4809303172032742
 20
245.6390694562697092
 30
0.0
 40
0.0134975813507575
 50
222.4549725909058111
 51
317.5359174241443156
  0
ARC
  5
7C55
  8
0
 10
4439.4552556337721398
 20
245.6118642746737066
 30
0.0
 40
0.0134706669107709
 50
42.3297156481674932
 51
137.661174357680693
  0
ARC
  5
7C56
  8
0
 10
4439.4553044547556055
 20
245.6164739187863972
 30
0.0
 40
0.013314332462932
 50
211.4583282306847138
 51
321.3736889723077184
  0
ARC
  5
7C57
  8
0
 10
4439.4576884090292879
 20
245.6142497379053964
 30
0.0
 40
0.0100665785822687
 50
322.7936229079281816
 51
41.6164796396749921
  0
ARC
  5
7C58
  8
0
 10
4439.4528463750903029
 20
245.6142573331812002
 30
0.0
 40
0.0100791067738375
 50
138.4924088230613961
 51
208.0001383273215936
  0
ARC
  5
7C59
  8
0
 10
4439.4552570793694031
 20
245.6300479618386987
 30
0.0
 40
0.0134975813507575
 50
222.4549725909058111
 51
317.5359174241443156
  0
ARC
  5
7C5A
  8
0
 10
4439.4310062100375944
 20
245.6063240001741121
 30
0.0
 40
0.0134706669107709
 50
42.3297156481674932
 51
137.661174357680693
  0
ARC
  5
7C5B
  8
0
 10
4439.4310550310219696
 20
245.610933644286888
 30
0.0
 40
0.013314332462932
 50
211.4583282306847138
 51
321.3736889723077184
  0
ARC
  5
7C5C
  8
0
 10
4439.4334389852947425
 20
245.6087094634058019
 30
0.0
 40
0.0100665785822687
 50
322.7936229079281816
 51
41.6164796396749921
  0
ARC
  5
7C5D
  8
0
 10
4439.4285969513557575
 20
245.608717058681691
 30
0.0
 40
0.0100791067738375
 50
138.4924088230613961
 51
208.0001383273215936
  0
ARC
  5
7C5E
  8
0
 10
4439.4310076556339482
 20
245.6245076873391895
 30
0.0
 40
0.0134975813507575
 50
222.4549725909058111
 51
317.5359174241443156
  0
ARC
  5
7C5F
  8
0
 10
4439.4198220714833951
 20
245.6452466476677898
 30
0.0
 40
0.0134706669107709
 50
42.3297156481674932
 51
137.661174357680693
  0
ARC
  5
7C60
  8
0
 10
4439.4198708924668608
 20
245.6498562917805089
 30
0.0
 40
0.013314332462932
 50
211.4583282306847138
 51
321.3736889723077184
  0
ARC
  5
7C61
  8
0
 10
4439.4222548467387242
 20
245.647632110899508
 30
0.0
 40
0.0100665785822687
 50
322.7936229079281816
 51
41.6164796396749921
  0
ARC
  5
7C62
  8
0
 10
4439.4174128127997392
 20
245.6476397061753971
 30
0.0
 40
0.0100791067738375
 50
138.4924088230613961
 51
208.0001383273215936
  0
ARC
  5
7C63
  8
0
 10
4439.4198235170788394
 20
245.6634303348328956
 30
0.0
 40
0.0134975813507575
 50
222.4549725909058111
 51
317.5359174241443156
  0
ARC
  5
7C64
  8
0
 10
4439.4497630154983199
 20
245.6521531045924007
 30
0.0
 40
0.0134706669107709
 50
42.3297156481674932
 51
137.661174357680693
  0
ARC
  5
7C65
  8
0
 10
4439.4498118364808761
 20
245.656762748705205
 30
0.0
 40
0.013314332462932
 50
211.4583282306847138
 51
321.3736889723077184
  0
ARC
  5
7C66
  8
0
 10
4439.4521957907545584
 20
245.6545385678240905
 30
0.0
 40
0.0100665785822687
 50
322.7936229079281816
 51
41.6164796396749921
  0
ARC
  5
7C67
  8
0
 10
4439.4473537568146639
 20
245.654546163100008
 30
0.0
 40
0.0100791067738375
 50
138.4924088230613961
 51
208.0001383273215936
  0
ARC
  5
7C68
  8
0
 10
4439.4497644610946736
 20
245.6703367917575065
 30
0.0
 40
0.0134975813507575
 50
222.4549725909058111
 51
317.5359174241443156
  0
ARC
  5
7C69
  8
0
 10
4439.4764334964147565
 20
245.6655604174268035
 30
0.0
 40
0.0134706669107709
 50
42.3297156481674932
 51
137.661174357680693
  0
ARC
  5
7C6A
  8
0
 10
4439.4764823173991317
 20
245.6701700615396931
 30
0.0
 40
0.013314332462932
 50
211.4583282306847138
 51
321.3736889723077184
  0
ARC
  5
7C6B
  8
0
 10
4439.4788662716719045
 20
245.6679458806584933
 30
0.0
 40
0.0100665785822687
 50
322.7936229079281816
 51
41.6164796396749921
  0
ARC
  5
7C6C
  8
0
 10
4439.4740242377329196
 20
245.6679534759344108
 30
0.0
 40
0.0100791067738375
 50
138.4924088230613961
 51
208.0001383273215936
  0
ARC
  5
7C6D
  8
0
 10
4439.4764349420111103
 20
245.6837441045919093
 30
0.0
 40
0.0134975813507575
 50
222.4549725909058111
 51
317.5359174241443156
  0
ARC
  5
7C6E
  8
0
 10
4439.5003505005461193
 20
245.6845701567343951
 30
0.0
 40
0.0134706669107709
 50
42.3297156481674932
 51
137.661174357680693
  0
ARC
  5
7C6F
  8
0
 10
4439.500399321529585
 20
245.6891798008471142
 30
0.0
 40
0.013314332462932
 50
211.4583282306847138
 51
321.3736889723077184
  0
ARC
  5
7C70
  8
0
 10
4439.5027832758023578
 20
245.6869556199661133
 30
0.0
 40
0.0100665785822687
 50
322.7936229079281816
 51
41.6164796396749921
  0
ARC
  5
7C71
  8
0
 10
4439.4979412418633729
 20
245.6869632152418887
 30
0.0
 40
0.0100791067738375
 50
138.4924088230613961
 51
208.0001383273215936
  0
ARC
  5
7C72
  8
0
 10
4439.5003519461415635
 20
245.7027538438993872
 30
0.0
 40
0.0134975813507575
 50
222.4549725909058111
 51
317.5359174241443156
  0
ARC
  5
7C73
  8
0
 10
4439.5161330497867311
 20
245.7080488109880889
 30
0.0
 40
0.0134706669107709
 50
42.3297156481674932
 51
137.661174357680693
  0
ARC
  5
7C74
  8
0
 10
4439.5161818707711063
 20
245.7126584551008932
 30
0.0
 40
0.013314332462932
 50
211.4583282306847138
 51
321.3736889723077184
  0
ARC
  5
7C75
  8
0
 10
4439.5185658250429697
 20
245.7104342742198071
 30
0.0
 40
0.0100665785822687
 50
322.7936229079281816
 51
41.6164796396749921
  0
ARC
  5
7C76
  8
0
 10
4439.5137237911039847
 20
245.7104418694956962
 30
0.0
 40
0.0100791067738375
 50
138.4924088230613961
 51
208.0001383273215936
  0
ARC
  5
7C77
  8
0
 10
4439.5161344953830849
 20
245.7262324981531947
 30
0.0
 40
0.0134975813507575
 50
222.4549725909058111
 51
317.5359174241443156
  0
ARC
  5
7C78
  8
0
 10
4439.5267363108068821
 20
245.7344675999216861
 30
0.0
 40
0.0134706669107709
 50
42.3297156481674932
 51
137.661174357680693
  0
ARC
  5
7C79
  8
0
 10
4439.5267851317912573
 20
245.7390772440344904
 30
0.0
 40
0.013314332462932
 50
211.4583282306847138
 51
321.3736889723077184
  0
ARC
  5
7C7A
  8
0
 10
4439.5291690860631206
 20
245.7368530631534043
 30
0.0
 40
0.0100665785822687
 50
322.7936229079281816
 51
41.6164796396749921
  0
ARC
  5
7C7B
  8
0
 10
4439.5243270521250452
 20
245.7368606584292934
 30
0.0
 40
0.0100791067738375
 50
138.4924088230613961
 51
208.0001383273215936
  0
ARC
  5
7C7C
  8
0
 10
4439.5267377564032358
 20
245.7526512870867919
 30
0.0
 40
0.0134975813507575
 50
222.4549725909058111
 51
317.5359174241443156
  0
ARC
  5
7C7D
  8
0
 10
4439.5288059650511059
 20
245.762207736445589
 30
0.0
 40
0.0134706669107709
 50
42.3297156481674932
 51
137.661174357680693
  0
ARC
  5
7C7E
  8
0
 10
4439.5288547860345716
 20
245.7668173805583933
 30
0.0
 40
0.013314332462932
 50
211.4583282306847138
 51
321.3736889723077184
  0
ARC
  5
7C7F
  8
0
 10
4439.5312387403082539
 20
245.7645931996773072
 30
0.0
 40
0.0100665785822687
 50
322.7936229079281816
 51
41.6164796396749921
  0
ARC
  5
7C80
  8
0
 10
4439.5263967063683594
 20
245.7646007949531111
 30
0.0
 40
0.0100791067738375
 50
138.4924088230613961
 51
208.0001383273215936
  0
ARC
  5
7C81
  8
0
 10
4439.5288074106465501
 20
245.7803914236106948
 30
0.0
 40
0.0134975813507575
 50
222.4549725909058111
 51
317.5359174241443156
  0
ARC
  5
7C82
  8
0
 10
4439.5224034325965476
 20
245.7895054596019122
 30
0.0
 40
0.0134706669107709
 50
42.3297156481674932
 51
137.661174357680693
  0
ARC
  5
7C83
  8
0
 10
4439.5224522535818323
 20
245.7941151037146881
 30
0.0
 40
0.013314332462932
 50
211.4583282306847138
 51
321.3736889723077184
  0
ARC
  5
7C84
  8
0
 10
4439.5248362078536957
 20
245.791890922833602
 30
0.0
 40
0.0100665785822687
 50
322.7936229079281816
 51
41.6164796396749921
  0
ARC
  5
7C85
  8
0
 10
4439.5199941739156202
 20
245.7918985181094911
 30
0.0
 40
0.0100791067738375
 50
138.4924088230613961
 51
208.0001383273215936
  0
ARC
  5
7C86
  8
0
 10
4439.5224048781938109
 20
245.8076891467669896
 30
0.0
 40
0.0134975813507575
 50
222.4549725909058111
 51
317.5359174241443156
  0
ARC
  5
7C87
  8
0
 10
4439.5098937508337258
 20
245.8146668189278046
 30
0.0
 40
0.0134706669107709
 50
42.3297156481674932
 51
137.661174357680693
  0
ARC
  5
7C88
  8
0
 10
4439.509942571818101
 20
245.8192764630406089
 30
0.0
 40
0.013314332462932
 50
211.4583282306847138
 51
321.3736889723077184
  0
ARC
  5
7C89
  8
0
 10
4439.5123265260908738
 20
245.8170522821594943
 30
0.0
 40
0.0100665785822687
 50
322.7936229079281816
 51
41.6164796396749921
  0
ARC
  5
7C8A
  8
0
 10
4439.5074844921518888
 20
245.8170598774354119
 30
0.0
 40
0.0100791067738375
 50
138.4924088230613961
 51
208.0001383273215936
  0
ARC
  5
7C8B
  8
0
 10
4439.5098951964300795
 20
245.8328505060927966
 30
0.0
 40
0.0134975813507575
 50
222.4549725909058111
 51
317.5359174241443156
  0
ARC
  5
7C8C
  8
0
 10
4439.4895350130291263
 20
245.8360693791557878
 30
0.0
 40
0.0134706669107709
 50
42.3297156481674932
 51
137.661174357680693
  0
ARC
  5
7C8D
  8
0
 10
4439.489583834012592
 20
245.8406790232685921
 30
0.0
 40
0.013314332462932
 50
211.4583282306847138
 51
321.3736889723077184
  0
ARC
  5
7C8E
  8
0
 10
4439.4919677882853648
 20
245.838454842387506
 30
0.0
 40
0.0100665785822687
 50
322.7936229079281816
 51
41.6164796396749921
  0
ARC
  5
7C8F
  8
0
 10
4439.4871257543463798
 20
245.8384624376633951
 30
0.0
 40
0.0100791067738375
 50
138.4924088230613961
 51
208.0001383273215936
  0
ARC
  5
7C90
  8
0
 10
4439.4895364586245705
 20
245.8542530663208083
 30
0.0
 40
0.0134975813507575
 50
222.4549725909058111
 51
317.5359174241443156
  0
ARC
  5
7C91
  8
0
 10
4439.4633819441642117
 20
245.8524134149184874
 30
0.0
 40
0.0134706669107709
 50
42.3297156481674932
 51
137.661174357680693
  0
ARC
  5
7C92
  8
0
 10
4439.463430765146768
 20
245.8570230590312917
 30
0.0
 40
0.013314332462932
 50
211.4583282306847138
 51
321.3736889723077184
  0
ARC
  5
7C93
  8
0
 10
4439.4658147194213598
 20
245.8547988781502056
 30
0.0
 40
0.0100665785822687
 50
322.7936229079281816
 51
41.6164796396749921
  0
ARC
  5
7C94
  8
0
 10
4439.4609726854805558
 20
245.8548064734260947
 30
0.0
 40
0.0100791067738375
 50
138.4924088230613961
 51
208.0001383273215936
  0
ARC
  5
7C95
  8
0
 10
4439.4633833897587465
 20
245.8705971020835932
 30
0.0
 40
0.0134975813507575
 50
222.4549725909058111
 51
317.5359174241443156
  0
ARC
  5
7C96
  8
0
 10
4439.4363778267897942
 20
245.8627242005285041
 30
0.0
 40
0.0134706669107709
 50
42.3297156481674932
 51
137.661174357680693
  0
ARC
  5
7C97
  8
0
 10
4439.4364266477741694
 20
245.8673338446411947
 30
0.0
 40
0.013314332462932
 50
211.4583282306847138
 51
321.3736889723077184
  0
ARC
  5
7C98
  8
0
 10
4439.4388106020469422
 20
245.8651096637601938
 30
0.0
 40
0.0100665785822687
 50
322.7936229079281816
 51
41.6164796396749921
  0
ARC
  5
7C99
  8
0
 10
4439.4339685681079573
 20
245.8651172590359977
 30
0.0
 40
0.0100791067738375
 50
138.4924088230613961
 51
208.0001383273215936
  0
ARC
  5
7C9A
  8
0
 10
4439.4363792723870574
 20
245.8809078876934961
 30
0.0
 40
0.0134975813507575
 50
222.4549725909058111
 51
317.5359174241443156
  0
ARC
  5
7C9B
  8
0
 10
4439.4377028317858276
 20
245.8249748337136964
 30
0.0
 40
0.0134706669107709
 50
42.3297156481674932
 51
137.661174357680693
  0
ARC
  5
7C9C
  8
0
 10
4439.4377516527692933
 20
245.829584477826586
 30
0.0
 40
0.013314332462932
 50
211.4583282306847138
 51
321.3736889723077184
  0
ARC
  5
7C9D
  8
0
 10
4439.4401356070429756
 20
245.8273602969454998
 30
0.0
 40
0.0100665785822687
 50
322.7936229079281816
 51
41.6164796396749921
  0
ARC
  5
7C9E
  8
0
 10
4439.4352935731039906
 20
245.8273678922213037
 30
0.0
 40
0.0100791067738375
 50
138.4924088230613961
 51
208.0001383273215936
  0
ARC
  5
7C9F
  8
0
 10
4439.4377042773821813
 20
245.8431585208788874
 30
0.0
 40
0.0134975813507575
 50
222.4549725909058111
 51
317.5359174241443156
  0
ARC
  5
7CA0
  8
0
 10
4439.4641211749058129
 20
245.8085579700507992
 30
0.0
 40
0.0134706669107709
 50
42.3297156481674932
 51
137.661174357680693
  0
ARC
  5
7CA1
  8
0
 10
4439.4641699958901881
 20
245.8131676141636035
 30
0.0
 40
0.013314332462932
 50
211.4583282306847138
 51
321.3736889723077184
  0
ARC
  5
7CA2
  8
0
 10
4439.466553950162961
 20
245.8109434332826027
 30
0.0
 40
0.0100665785822687
 50
322.7936229079281816
 51
41.6164796396749921
  0
ARC
  5
7CA3
  8
0
 10
4439.461711916223976
 20
245.8109510285584065
 30
0.0
 40
0.0100791067738375
 50
138.4924088230613961
 51
208.0001383273215936
  0
ARC
  5
7CA4
  8
0
 10
4439.4641226205030762
 20
245.826741657215905
 30
0.0
 40
0.0134975813507575
 50
222.4549725909058111
 51
317.5359174241443156
  0
ARC
  5
7CA5
  8
0
 10
4439.4823246352425485
 20
245.7840945991491139
 30
0.0
 40
0.0134706669107709
 50
42.3297156481674932
 51
137.661174357680693
  0
ARC
  5
7CA6
  8
0
 10
4439.4823734562269237
 20
245.7887042432618898
 30
0.0
 40
0.013314332462932
 50
211.4583282306847138
 51
321.3736889723077184
  0
ARC
  5
7CA7
  8
0
 10
4439.4847574104987871
 20
245.7864800623808037
 30
0.0
 40
0.0100665785822687
 50
322.7936229079281816
 51
41.6164796396749921
  0
ARC
  5
7CA8
  8
0
 10
4439.4799153765607116
 20
245.7864876576566928
 30
0.0
 40
0.0100791067738375
 50
138.4924088230613961
 51
208.0001383273215936
  0
ARC
  5
7CA9
  8
0
 10
4439.4823260808398118
 20
245.8022782863141913
 30
0.0
 40
0.0134975813507575
 50
222.4549725909058111
 51
317.5359174241443156
  0
ARC
  5
7CAA
  8
0
 10
4439.488704365432568
 20
245.7552414192682022
 30
0.0
 40
0.0134706669107709
 50
42.3297156481674932
 51
137.661174357680693
  0
ARC
  5
7CAB
  8
0
 10
4439.4887531864160337
 20
245.7598510633810065
 30
0.0
 40
0.013314332462932
 50
211.4583282306847138
 51
321.3736889723077184
  0
ARC
  5
7CAC
  8
0
 10
4439.4911371406888065
 20
245.7576268825000056
 30
0.0
 40
0.0100665785822687
 50
322.7936229079281816
 51
41.6164796396749921
  0
ARC
  5
7CAD
  8
0
 10
4439.4862951067498216
 20
245.7576344777758095
 30
0.0
 40
0.0100791067738375
 50
138.4924088230613961
 51
208.0001383273215936
  0
ARC
  5
7CAE
  8
0
 10
4439.4887058110289217
 20
245.773425106433308
 30
0.0
 40
0.0134975813507575
 50
222.4549725909058111
 51
317.5359174241443156
  0
ARC
  5
7CAF
  8
0
 10
4439.4819794307695702
 20
245.7263910733367993
 30
0.0
 40
0.0134706669107709
 50
42.3297156481674932
 51
137.661174357680693
  0
ARC
  5
7CB0
  8
0
 10
4439.4820282517539454
 20
245.7310007174494899
 30
0.0
 40
0.013314332462932
 50
211.4583282306847138
 51
321.3736889723077184
  0
ARC
  5
7CB1
  8
0
 10
4439.4844122060258087
 20
245.7287765365684891
 30
0.0
 40
0.0100665785822687
 50
322.7936229079281816
 51
41.6164796396749921
  0
ARC
  5
7CB2
  8
0
 10
4439.4795701720877332
 20
245.7287841318442929
 30
0.0
 40
0.0100791067738375
 50
138.4924088230613961
 51
208.0001383273215936
  0
ARC
  5
7CB3
  8
0
 10
4439.4819808763668334
 20
245.7445747605017914
 30
0.0
 40
0.0134975813507575
 50
222.4549725909058111
 51
317.5359174241443156
  0
ARC
  5
7CB4
  8
0
 10
4439.4633548345163945
 20
245.7019359096777009
 30
0.0
 40
0.0134706669107709
 50
42.3297156481674932
 51
137.661174357680693
  0
ARC
  5
7CB5
  8
0
 10
4439.4634036554998602
 20
245.7065455537905052
 30
0.0
 40
0.013314332462932
 50
211.4583282306847138
 51
321.3736889723077184
  0
ARC
  5
7CB6
  8
0
 10
4439.465787609774452
 20
245.7043213729093907
 30
0.0
 40
0.0100665785822687
 50
322.7936229079281816
 51
41.6164796396749921
  0
ARC
  5
7CB7
  8
0
 10
4439.460945575833648
 20
245.7043289681853082
 30
0.0
 40
0.0100791067738375
 50
138.4924088230613961
 51
208.0001383273215936
  0
ARC
  5
7CB8
  8
0
 10
4439.4633562801118387
 20
245.7201195968428067
 30
0.0
 40
0.0134975813507575
 50
222.4549725909058111
 51
317.5359174241443156
  0
ARC
  5
7CB9
  8
0
 10
4439.4372352045456864
 20
245.6856230800011076
 30
0.0
 40
0.0134706669107709
 50
42.3297156481674932
 51
137.661174357680693
  0
ARC
  5
7CBA
  8
0
 10
4439.4372840255300616
 20
245.6902327241139119
 30
0.0
 40
0.013314332462932
 50
211.4583282306847138
 51
321.3736889723077184
  0
ARC
  5
7CBB
  8
0
 10
4439.4396679798037439
 20
245.6880085432329111
 30
0.0
 40
0.0100665785822687
 50
322.7936229079281816
 51
41.6164796396749921
  0
ARC
  5
7CBC
  8
0
 10
4439.4348259458638495
 20
245.6880161385086865
 30
0.0
 40
0.0100791067738375
 50
138.4924088230613961
 51
208.0001383273215936
  0
ARC
  5
7CBD
  8
0
 10
4439.4372366501420402
 20
245.7038067671662134
 30
0.0
 40
0.0134975813507575
 50
222.4549725909058111
 51
317.5359174241443156
  0
ARC
  5
7CBE
  8
0
 10
4439.4354032622086379
 20
245.7270175795189004
 30
0.0
 40
0.0134706669107709
 50
42.3297156481674932
 51
137.661174357680693
  0
ARC
  5
7CBF
  8
0
 10
4439.4354520831930131
 20
245.7316272236317047
 30
0.0
 40
0.013314332462932
 50
211.4583282306847138
 51
321.3736889723077184
  0
ARC
  5
7CC0
  8
0
 10
4439.4378360374648764
 20
245.7294030427505902
 30
0.0
 40
0.0100665785822687
 50
322.7936229079281816
 51
41.6164796396749921
  0
ARC
  5
7CC1
  8
0
 10
4439.432994003526801
 20
245.7294106380265077
 30
0.0
 40
0.0100791067738375
 50
138.4924088230613961
 51
208.0001383273215936
  0
ARC
  5
7CC2
  8
0
 10
4439.4354047078059011
 20
245.7452012666838925
 30
0.0
 40
0.0134975813507575
 50
222.4549725909058111
 51
317.5359174241443156
  0
ARC
  5
7CC3
  8
0
 10
4439.4487043654326044
 20
245.7552414192682022
 30
0.0
 40
0.0134706669107709
 50
42.3297156481674932
 51
137.661174357680693
  0
ARC
  5
7CC4
  8
0
 10
4439.4487531864160701
 20
245.7598510633810065
 30
0.0
 40
0.013314332462932
 50
211.4583282306847138
 51
321.3736889723077184
  0
ARC
  5
7CC5
  8
0
 10
4439.4511371406888429
 20
245.7576268825000056
 30
0.0
 40
0.0100665785822687
 50
322.7936229079281816
 51
41.6164796396749921
  0
ARC
  5
7CC6
  8
0
 10
4439.446295106749858
 20
245.7576344777758095
 30
0.0
 40
0.0100791067738375
 50
138.4924088230613961
 51
208.0001383273215936
  0
ARC
  5
7CC7
  8
0
 10
4439.4487058110289581
 20
245.773425106433308
 30
0.0
 40
0.0134975813507575
 50
222.4549725909058111
 51
317.5359174241443156
  0
ARC
  5
7CC8
  8
0
 10
4439.4367848750725898
 20
245.7835225697180874
 30
0.0
 40
0.0134706669107709
 50
42.3297156481674932
 51
137.661174357680693
  0
ARC
  5
7CC9
  8
0
 10
4439.4368336960560555
 20
245.7881322138308917
 30
0.0
 40
0.013314332462932
 50
211.4583282306847138
 51
321.3736889723077184
  0
ARC
  5
7CCA
  8
0
 10
4439.4392176503288283
 20
245.7859080329498056
 30
0.0
 40
0.0100665785822687
 50
322.7936229079281816
 51
41.6164796396749921
  0
ARC
  5
7CCB
  8
0
 10
4439.4343756163898433
 20
245.7859156282256947
 30
0.0
 40
0.0100791067738375
 50
138.4924088230613961
 51
208.0001383273215936
  0
ARC
  5
7CCC
  8
0
 10
4439.4367863206689435
 20
245.8017062568831932
 30
0.0
 40
0.0134975813507575
 50
222.4549725909058111
 51
317.5359174241443156
  0
ARC
  5
7CCE
  8
0
 10
4439.4037503941117393
 20
250.5509575927256094
 30
0.0
 40
0.2200000000016437
 50
270.0007309140344205
 51
89.9992690859655795
  0
ARC
  5
7CCF
  8
0
 10
4439.4037505261676415
 20
250.5509576010256012
 30
0.0
 40
0.1788854382000004
 50
270.0008566087021222
 51
89.9991433912978636
  0
ENDSEC
  0
EOF
