  0
SECTION
  2
HEADER
  9
$ACADVER
  1
AC1009
  9
$INSBASE
 10
4912.8188138392561086
 20
-8.5178594766788365
 30
0.0
  9
$EXTMIN
 10
4896.6110814393214241
 20
-11.7456863895788093
 30
-0.0000000000112498
  9
$EXTMAX
 10
4928.950308362319447
 20
-8.5118077819191313
 30
0.0000000000002956
  9
$LIMMIN
 10
0.0
 20
0.0
  9
$LIMMAX
 10
11.6929133858000007
 20
8.2677165353999982
  9
$ORTHOMODE
 70
     0
  9
$REGENMODE
 70
     1
  9
$FILLMODE
 70
     1
  9
$QTEXTMODE
 70
     0
  9
$MIRRTEXT
 70
     0
  9
$DRAGMODE
 70
     2
  9
$LTSCALE
 40
0.6431102362
  9
$OSMODE
 70
  3839
  9
$ATTMODE
 70
     1
  9
$TEXTSIZE
 40
0.2
  9
$TRACEWID
 40
0.05
  9
$TEXTSTYLE
  7
STANDARD
  9
$CLAYER
  8
0
  9
$CELTYPE
  6
BYLAYER
  9
$CECOLOR
 62
   256
  9
$DIMSCALE
 40
1.0
  9
$DIMASZ
 40
0.1875
  9
$DIMEXO
 40
0.0625
  9
$DIMDLI
 40
0.4443307087
  9
$DIMRND
 40
0.0
  9
$DIMDLE
 40
0.0
  9
$DIMEXE
 40
0.125
  9
$DIMTP
 40
0.01
  9
$DIMTM
 40
0.01
  9
$DIMTXT
 40
2.0
  9
$DIMCEN
 40
0.1052362205
  9
$DIMTSZ
 40
0.0
  9
$DIMTOL
 70
     1
  9
$DIMLIM
 70
     0
  9
$DIMTIH
 70
     1
  9
$DIMTOH
 70
     1
  9
$DIMSE1
 70
     0
  9
$DIMSE2
 70
     0
  9
$DIMTAD
 70
     0
  9
$DIMZIN
 70
     0
  9
$DIMBLK
  1

  9
$DIMASO
 70
     1
  9
$DIMSHO
 70
     1
  9
$DIMPOST
  1
\X
  9
$DIMAPOST
  1

  9
$DIMALT
 70
     1
  9
$DIMALTD
 70
     2
  9
$DIMALTF
 40
25.3999999999999986
  9
$DIMLFAC
 40
1.0
  9
$DIMTOFL
 70
     0
  9
$DIMTVP
 40
0.0
  9
$DIMTIX
 70
     0
  9
$DIMSOXD
 70
     0
  9
$DIMSAH
 70
     0
  9
$DIMBLK1
  1

  9
$DIMBLK2
  1

  9
$DIMSTYLE
  2
STANDARD
  9
$DIMCLRD
 70
     0
  9
$DIMCLRE
 70
     0
  9
$DIMCLRT
 70
     0
  9
$DIMTFAC
 40
1.0
  9
$DIMGAP
 40
0.09
  9
$LUNITS
 70
     2
  9
$LUPREC
 70
     4
  9
$SKETCHINC
 40
0.1
  9
$FILLETRAD
 40
0.0
  9
$AUNITS
 70
     0
  9
$AUPREC
 70
     0
  9
$MENU
  1
.
  9
$ELEVATION
 40
0.0
  9
$PELEVATION
 40
0.0
  9
$THICKNESS
 40
0.0
  9
$LIMCHECK
 70
     0
  9
$BLIPMODE
 70
     0
  9
$CHAMFERA
 40
0.0
  9
$CHAMFERB
 40
0.0
  9
$SKPOLY
 70
     0
  9
$TDCREATE
 40
2458060.468368056230247
  9
$TDUPDATE
 40
2460580.6907175919041038
  9
$TDINDWG
 40
0.5861065972
  9
$TDUSRTIMER
 40
0.5861065972
  9
$USRTIMER
 70
     1
  9
$ANGBASE
 50
0.0
  9
$ANGDIR
 70
     0
  9
$PDMODE
 70
     0
  9
$PDSIZE
 40
0.3125
  9
$PLINEWID
 40
0.0
  9
$COORDS
 70
     1
  9
$SPLFRAME
 70
     0
  9
$SPLINETYPE
 70
     6
  9
$SPLINESEGS
 70
     8
  9
$ATTDIA
 70
     1
  9
$ATTREQ
 70
     1
  9
$HANDLING
 70
     1
  9
$HANDSEED
  5
2F8C3
  9
$SURFTAB1
 70
     6
  9
$SURFTAB2
 70
     6
  9
$SURFTYPE
 70
     6
  9
$SURFU
 70
     6
  9
$SURFV
 70
     6
  9
$UCSNAME
  2

  9
$UCSORG
 10
0.0
 20
0.0
 30
0.0
  9
$UCSXDIR
 10
1.0
 20
0.0
 30
0.0
  9
$UCSYDIR
 10
0.0
 20
1.0
 30
0.0
  9
$PUCSNAME
  2

  9
$PUCSORG
 10
0.0
 20
0.0
 30
0.0
  9
$PUCSXDIR
 10
1.0
 20
0.0
 30
0.0
  9
$PUCSYDIR
 10
0.0
 20
1.0
 30
0.0
  9
$USERI1
 70
     0
  9
$USERI2
 70
     0
  9
$USERI3
 70
     0
  9
$USERI4
 70
     0
  9
$USERI5
 70
     0
  9
$USERR1
 40
0.0
  9
$USERR2
 40
0.0
  9
$USERR3
 40
0.0
  9
$USERR4
 40
0.0
  9
$USERR5
 40
0.0
  9
$WORLDVIEW
 70
     1
  9
$SHADEDGE
 70
     3
  9
$SHADEDIF
 70
    70
  9
$TILEMODE
 70
     1
  9
$MAXACTVP
 70
    64
  9
$PLIMCHECK
 70
     0
  9
$PEXTMIN
 10
1.0000000000000000E+20
 20
1.0000000000000000E+20
 30
1.0000000000000000E+20
  9
$PEXTMAX
 10
-1.0000000000000000E+20
 20
-1.0000000000000000E+20
 30
-1.0000000000000000E+20
  9
$PLIMMIN
 10
0.0
 20
0.0
  9
$PLIMMAX
 10
12.0
 20
9.0
  9
$UNITMODE
 70
     0
  9
$VISRETAIN
 70
     1
  9
$PLINEGEN
 70
     0
  9
$PSLTSCALE
 70
     1
  0
ENDSEC
  0
SECTION
  2
TABLES
  0
TABLE
  2
VPORT
 70
     1
  0
VPORT
  2
*ACTIVE
 70
     0
 10
0.0
 20
0.0
 11
1.0
 21
1.0
 12
1120.4227847445699808
 22
-130.3094035188543955
 13
0.0
 23
0.0
 14
1.0
 24
1.0
 15
0.0
 25
0.0
 16
0.0
 26
0.0
 36
5.1040778033513332
 17
3792.35791015625
 27
120.1806564331053977
 37
0.0
 40
14.07288910407825
 41
2.3051869722557292
 42
50.0
 43
0.0
 44
0.0
 50
0.0
 51
0.0
 71
     0
 72
   100
 73
     1
 74
     1
 75
     0
 76
     0
 77
     0
 78
     0
  0
ENDTAB
  0
TABLE
  2
LTYPE
 70
     3
  0
LTYPE
  2
CONTINUOUS
 70
     0
  3
Solid line
 72
    65
 73
     0
 40
0.0
  0
LTYPE
  2
PHANTOM2
 70
     0
  3
___ _ _ ___ _ _ ___ _ _ ___ _ _
 72
    65
 73
     6
 40
1.25
 49
0.625
 49
-0.125
 49
0.125
 49
-0.125
 49
0.125
 49
-0.125
  0
ENDTAB
  0
TABLE
  2
LAYER
 70
     2
  0
LAYER
  2
0
 70
     0
 62
   255
  6
CONTINUOUS
  0
LAYER
  2
DEFPOINTS
 70
     0
 62
     7
  6
CONTINUOUS
  0
ENDTAB
  0
TABLE
  2
STYLE
 70
     1
  0
STYLE
  2
STANDARD
 70
     0
 40
0.0
 41
0.8
 50
0.0
 71
     0
 42
0.2
  3
txt
  4

  0
ENDTAB
  0
TABLE
  2
VIEW
 70
     0
  0
ENDTAB
  0
TABLE
  2
UCS
 70
     0
  0
ENDTAB
  0
TABLE
  2
APPID
 70
     9
  0
APPID
  2
ACAD
 70
     0
  0
APPID
  2
ACAD_MLEADERVER
 70
     0
  0
APPID
  2
ACAD_EXEMPT_FROM_CAD_STANDARDS
 70
     0
  0
APPID
  2
ACAD_NAV_VCDISPLAY
 70
     0
  0
APPID
  2
ACAECLAYERSTANDARD
 70
     0
  0
APPID
  2
ACCMTRANSPARENCY
 70
     0
  0
APPID
  2
ACAD_DSTYLE_DIMJAG
 70
     0
  0
APPID
  2
ACAD_DSTYLE_DIMTALN
 70
     0
  0
APPID
  2
ACDBATTR
 70
     0
  0
ENDTAB
  0
TABLE
  2
DIMSTYLE
 70
     2
  0
DIMSTYLE
  2
STANDARD
 70
     0
  3

  4

  5

  6

  7

 40
1.0
 41
0.1875
 42
0.0625
 43
0.38
 44
0.125
 45
0.0
 46
0.0
 47
0.01
 48
0.01
140
0.15625
141
0.09
142
0.0
143
25.3999999999999986
144
1.0
145
0.0
146
1.0
147
0.09
 71
     1
 72
     0
 73
     1
 74
     1
 75
     0
 76
     0
 77
     0
 78
     4
170
     0
171
     2
172
     0
173
     0
174
     0
175
     0
176
     0
177
     0
178
     0
  0
ENDTAB
  0
ENDSEC
  0
SECTION
  2
BLOCKS
  0
BLOCK
  8
0
  2
$MODEL_SPACE
 70
     0
 10
0.0
 20
0.0
 30
0.0
  3
$MODEL_SPACE
  1

  0
ENDBLK
  5
21
  8
0
  0
BLOCK
 67
     1
  8
0
  2
$PAPER_SPACE
 70
     0
 10
0.0
 20
0.0
 30
0.0
  3
$PAPER_SPACE
  1

  0
ENDBLK
  5
1D
 67
     1
  8
0
  0
BLOCK
  8
0
  2
_FILLED
 70
     0
 10
0.0
 20
0.0
 30
0.0
  3
_FILLED
  1

  0
SOLID
  5
2F53C
  8
0
  6
BYBLOCK
 62
     0
 10
0.0
 20
0.0
 30
0.0
 11
-1.0
 21
0.1666666667
 31
0.0
 12
-1.0
 22
-0.1666666667
 32
0.0
 13
-1.0
 23
-0.1666666667
 33
0.0
  0
ENDBLK
  5
2F53D
  8
0
  6
BYBLOCK
 62
     0
  0
ENDSEC
  0
SECTION
  2
ENTITIES
  0
ATTDEF
  5
25D46
  8
DEFPOINTS
 10
4912.819462231763282
 20
-8.5139998261944942
 30
0.0
 40
0.001
  1
K-14437
  3

  2
MODELNUMBER
 70
     0
1001
ACDBATTR
1070
     0
1070
     1
  0
ATTDEF
  5
25D47
  8
DEFPOINTS
 10
4912.819462231763282
 20
-8.5156664928611594
 30
0.0
 40
0.001
  1
PURIST
  3

  2
TRADENAME
 70
     0
1001
ACDBATTR
1070
     0
1070
     1
  0
ATTDEF
  5
25D48
  8
DEFPOINTS
 10
4912.819462231763282
 20
-8.5173331595278245
 30
0.0
 40
0.001
  1
TOWEL BAR
  3

  2
PRODUCT
 70
     0
1001
ACDBATTR
1070
     0
1070
     1
  0
LINE
  5
2F59B
  8
0
 10
4896.9920421799561154
 20
-10.9574093724788302
 30
0.0
 11
4896.9920421799561154
 21
-11.7448109472788307
 31
0.0
  0
LINE
  5
2F59D
  8
0
 10
4897.0314122587560632
 20
-10.9574093724788302
 30
0.0
 11
4897.0314122587560632
 21
-11.7448109472788307
 31
0.0
  0
LINE
  5
2F59F
  8
0
 10
4896.8739319437572703
 20
-8.5178594766788365
 30
0.0
 11
4896.8739319437572703
 21
-8.7540799490788377
 31
0.0
  0
LINE
  5
2F5A0
  8
0
 10
4896.9920421799561154
 20
-10.9574093724788302
 30
0.0
 11
4897.4644832127605696
 21
-10.9574093724788302
 31
0.0
  0
LINE
  5
2F5A1
  8
0
 10
4898.1731445421555691
 20
-10.9574093724788302
 30
0.0
 11
4927.4644831363557387
 21
-10.9574093724788302
 31
0.0
  0
LINE
  5
2F5A2
  8
0
 10
4928.1731444657507382
 20
-10.9574093724788302
 30
0.0
 11
4928.6455854985561018
 21
-10.9574093724788302
 31
0.0
  0
LINE
  5
2F5A3
  8
0
 10
4896.9920421799561154
 20
-11.7448109472788307
 30
0.0
 11
4928.6455854985561018
 21
-11.7448109472788307
 31
0.0
  0
ARC
  5
2F5A4
  8
0
 10
4898.9344639166611159
 20
-9.3596584792760922
 30
0.0
 40
2.1710944633326221
 50
227.3849753255244082
 51
234.0294760767596074
  0
ARC
  5
2F5A5
  8
0
 10
4897.8186556532282339
 20
-10.8970994805952905
 30
0.0
 40
0.2714226723963919
 50
234.0294751404294971
 51
304.055779084336109
  0
ARC
  5
2F5A6
  8
0
 10
4897.1397366494620655
 20
-9.892671319465137
 30
0.0
 40
1.483778620353239
 50
304.055779084336109
 51
314.1445053856721756
  0
LINE
  5
2F5A7
  8
0
 10
4896.8739319437572703
 20
-8.5178594766788365
 30
0.0
 11
4898.7636957232562054
 21
-8.5178594766788365
 31
0.0
  0
LINE
  5
2F5A8
  8
0
 10
4898.7636957232562054
 20
-8.5178594766788365
 30
0.0
 11
4898.7636957232562054
 21
-8.7540799490788341
 31
0.0
  0
ARC
  5
2F5A9
  8
0
 10
4898.7440106838557767
 20
-8.7540799490788341
 30
0.0
 40
0.0196850394000006
 50
270.0
 51
0.0
  0
LINE
  5
2F5AA
  8
0
 10
4898.7440106838557767
 20
-8.7737649884788365
 30
0.0
 11
4896.89361698315588
 21
-8.7737649884788365
 31
0.0
  0
ARC
  5
2F5AB
  8
0
 10
4896.89361698315588
 20
-8.7540799490788377
 30
0.0
 40
0.0196850393999988
 50
179.9999999999947988
 51
270.0
  0
ARC
  5
2F5AC
  8
0
 10
4897.031412258628734
 20
-9.3485551019360145
 30
0.0
 40
0.5905511815741125
 50
62.5556138138532916
 51
76.7865565702617801
  0
ARC
  5
2F5AD
  8
0
 10
4897.1765736523757369
 20
-9.0690405787468737
 30
0.0
 40
0.2755905508468833
 50
3.8225535580486159
 51
62.5556138138533271
  0
ARC
  5
2F5AE
  8
0
 10
4897.4712414127925513
 20
-9.0493522617312721
 30
0.0
 40
0.0197342175961428
 50
183.8225535580533005
 51
266.0914121305855815
  0
LINE
  5
2F5AF
  8
0
 10
4897.4644831248560877
 20
-9.0690405789788358
 30
0.0
 11
4898.1731445421555691
 21
-9.0690405789788358
 31
0.0
  0
LINE
  5
2F5B0
  8
0
 10
4898.1731445421555691
 20
-9.0690405789788358
 30
0.0
 11
4898.1731445421555691
 21
-10.9574093724788302
 31
0.0
  0
LINE
  5
2F5B1
  8
0
 10
4897.4644832127605696
 20
-10.9574093724788302
 30
0.0
 11
4897.4644831248560877
 21
-9.0690405789788358
 31
0.0
  0
ARC
  5
2F5B2
  8
0
 10
4898.1662091444022735
 20
-9.0492072643239538
 30
0.0
 40
0.0199210429707302
 50
275.3791170899398253
 51
355.7952975951344001
  0
ARC
  5
2F5B3
  8
0
 10
4898.4642284809169723
 20
-9.0711170275945392
 30
0.0
 40
0.278902588395951
 50
117.8265350242356959
 51
175.7952975951345991
  0
ARC
  5
2F5B4
  8
0
 10
4898.595677931552018
 20
-9.3201534664144052
 30
0.0
 40
0.5605017821667281
 50
102.8848392706672001
 51
117.8265350242356959
  0
LINE
  5
2F5B9
  8
0
 10
4928.6455854985561018
 20
-10.9574093724788302
 30
0.0
 11
4928.6455854985561018
 21
-11.7448109472788307
 31
0.0
  0
LINE
  5
2F5BB
  8
0
 10
4928.606215419756154
 20
-10.9574093724788302
 30
0.0
 11
4928.606215419756154
 21
-11.7448109472788307
 31
0.0
  0
LINE
  5
2F5BD
  8
0
 10
4928.7636957347558564
 20
-8.5178594766788365
 30
0.0
 11
4928.7636957347558564
 21
-8.7540799490788377
 31
0.0
  0
ARC
  5
2F5BE
  8
0
 10
4926.7031637618347304
 20
-9.3596584792760922
 30
0.0
 40
2.1710944633423139
 50
305.9705239235706244
 51
312.6150246747758956
  0
ARC
  5
2F5BF
  8
0
 10
4927.8189720252839834
 20
-10.8970994805952905
 30
0.0
 40
0.2714226723963919
 50
235.9442209156640047
 51
305.9705248595705029
  0
ARC
  5
2F5C0
  8
0
 10
4928.4978910290501517
 20
-9.892671319465137
 30
0.0
 40
1.483778620353239
 50
225.8554946143277959
 51
235.9442209156640047
  0
LINE
  5
2F5C1
  8
0
 10
4928.7636957347558564
 20
-8.5178594766788365
 30
0.0
 11
4926.8739319552560119
 21
-8.5178594766788365
 31
0.0
  0
LINE
  5
2F5C2
  8
0
 10
4926.8739319552560119
 20
-8.5178594766788365
 30
0.0
 11
4926.8739319552560119
 21
-8.7540799490788341
 31
0.0
  0
ARC
  5
2F5C3
  8
0
 10
4926.8936169946564405
 20
-8.7540799490788341
 30
0.0
 40
0.0196850394000006
 50
180.0
 51
270.0
  0
LINE
  5
2F5C4
  8
0
 10
4926.8936169946564405
 20
-8.7737649884788365
 30
0.0
 11
4928.7440106953572467
 21
-8.7737649884788365
 31
0.0
  0
ARC
  5
2F5C5
  8
0
 10
4928.7440106953572467
 20
-8.7540799490788377
 30
0.0
 40
0.0196850393999988
 50
270.0
 51
0.0000000000051907
  0
ARC
  5
2F5C6
  8
0
 10
4928.6062154198825738
 20
-9.3485551019360145
 30
0.0
 40
0.5905511815741125
 50
103.2134434297382057
 51
117.4443861861467013
  0
ARC
  5
2F5C7
  8
0
 10
4928.4610540261355709
 20
-9.0690405787468737
 30
0.0
 40
0.2755905508468833
 50
117.4443861861467013
 51
176.1774464419513038
  0
ARC
  5
2F5C8
  8
0
 10
4928.1663862657187565
 20
-9.0493522617312721
 30
0.0
 40
0.0197342175961428
 50
273.9085878694144185
 51
356.1774464419466995
  0
LINE
  5
2F5C9
  8
0
 10
4928.1731445536570391
 20
-9.0690405789788358
 30
0.0
 11
4927.4644831363557387
 21
-9.0690405789788358
 31
0.0
  0
LINE
  5
2F5CA
  8
0
 10
4927.4644831363557387
 20
-9.0690405789788358
 30
0.0
 11
4927.4644831363557387
 21
-10.9574093724788302
 31
0.0
  0
LINE
  5
2F5CB
  8
0
 10
4928.1731444657507382
 20
-10.9574093724788302
 30
0.0
 11
4928.1731445536570391
 21
-9.0690405789788358
 31
0.0
  0
ARC
  5
2F5CC
  8
0
 10
4927.4714185341108532
 20
-9.0492072643239538
 30
0.0
 40
0.0199210429707302
 50
184.2047024048655999
 51
264.6208829100601747
  0
ARC
  5
2F5CD
  8
0
 10
4927.1733991975952449
 20
-9.0711170275945392
 30
0.0
 40
0.278902588395951
 50
4.204702404865408
 51
62.1734649757643112
  0
ARC
  5
2F5CE
  8
0
 10
4927.0419497469611088
 20
-9.3201534664144052
 30
0.0
 40
0.5605017821667281
 50
62.1734649757643112
 51
77.1151607293328141
  0
ENDSEC
  0
EOF
